  0
SECTION
  2
HEADER
  9
$ACADVER
  1
AC1006
  9
$EXTMIN
 10
1.254000
 20
0.558800
  9
$EXTMAX
 10
8.037480
 20
2.967360
  9
$LTSCALE
 40
0.044000
  9
$PDMODE
 70
    35
  9
$PDSIZE
 40
0.035200
  0
ENDSEC
  0
SECTION
  2
TABLES
  0
TABLE
  2
LTYPE
 70
     9
  0
LTYPE
  2
CONTINUOUS
 70
    64
  3
Solid line
 72
    65
 73
     0
 40
0.000000
  0
LTYPE
  2
DASHED
 70
    64
  3
__ __ __ __ __ __ __ __ __ __ __ __ __ __ __
 72
    65
 73
     2
 40
0.000330
 49
0.000220
 49
-0.000110
  0
LTYPE
  2
HIDDEN
 70
    64
  3
 _ _ _ _ _ _ _ _ _ _ _ _ _ _ _ _ _ _ _ _ _ _
 72
    65
 73
     2
 40
0.000165
 49
0.000110
 49
-0.000055
  0
LTYPE
  2
CENTER
 70
    64
  3
____ _ ____ _ ____ _ ____ _ ____ _ ____ _ ____
 72
    65
 73
     4
 40
0.000880
 49
0.000550
 49
-0.000110
 49
0.000110
 49
-0.000110
  0
LTYPE
  2
PHANTOM
 70
    64
  3
_____ _ _ _____ _ _ _____ _ _ _____ _ _ ____
 72
    65
 73
     6
 40
0.001100
 49
0.000550
 49
-0.000110
 49
0.000110
 49
-0.000110
 49
0.000110
 49
-0.000110
  0
LTYPE
  2
DOT
 70
    64
  3
...............................................
 72
    65
 73
     2
 40
0.000110
 49
0.000000
 49
-0.000110
  0
LTYPE
  2
DASHDOT
 70
    64
  3
__ . __ . __ . __ . __ . __ . __ . __ . __ . __
 72
    65
 73
     4
 40
0.000440
 49
0.000220
 49
-0.000110
 49
0.000000
 49
-0.000110
  0
LTYPE
  2
BORDER
 70
    64
  3
__ __ . __ __ . __ __ . __ __ . __ __ . __ __
 72
    65
 73
     6
 40
0.000770
 49
0.000220
 49
-0.000110
 49
0.000220
 49
-0.000110
 49
0.000000
 49
-0.000110
  0
LTYPE
  2
DIVIDE
 70
    64
  3
__ . . __ . . __ . . __ . . __ . . __ . . __
 72
    65
 73
     6
 40
0.000550
 49
0.000220
 49
-0.000110
 49
0.000000
 49
-0.000110
 49
0.000000
 49
-0.000110
  0
LTYPE
  2
DOTDOT
 70
    64
  3
 . .  . .  . .  . .  . .  . . 
 72
    65
 73
     5
 40
0.000242
 49
-0.000110
 49
0.000000
 49
-0.000110
 49
0.000000
 49
-0.000110
  0
ENDTAB
  0
TABLE
  2
STYLE
 70
     2
  0
STYLE
 70
     0
  2
SN0
 40
0.000000
 41
0.000440
 50
0.000000
 71
     0
 42
0.000000
  3
ROMAND
  0
STYLE
 70
    68
  2
SV0
 40
0.000000
 41
0.000440
 50
0.000000
 71
     0
 42
0.000000
  3
ROMAND
  0
ENDTAB
  0
TABLE
  2
LAYER
 70
     3
  0
LAYER
  2
FOREGROUND
 70
    64
 62
     7
  6
CONTINUOUS
  0
LAYER
  2
BACKGROUND
 70
    65
 62
    -7
  6
CONTINUOUS
  0
LAYER
  2
0
 70
    64
 62
     7
  6
CONTINUOUS
  0
ENDTAB
  0
ENDSEC
  0
SECTION
  2
ENTITIES
  0
POLYLINE
  8
FOREGROUND
  6
CONTINUOUS
 66
     1
 40
0.000000
 41
0.000000
  0
VERTEX
  8
FOREGROUND
  6
CONTINUOUS
 10
0.000000
 20
3.526160
  0
VERTEX
  8
FOREGROUND
  6
CONTINUOUS
 10
8.499920
 20
3.526160
  0
VERTEX
  8
FOREGROUND
  6
CONTINUOUS
 10
8.499920
 20
-7.473840
  0
VERTEX
  8
FOREGROUND
  6
CONTINUOUS
 10
0.000000
 20
-7.473840
  0
VERTEX
  8
FOREGROUND
  6
CONTINUOUS
 10
0.000000
 20
3.526160
  0
SEQEND
  8
0
  0
POLYLINE
  8
FOREGROUND
  6
CONTINUOUS
 66
     1
 40
0.000000
 41
0.000000
  0
VERTEX
  8
FOREGROUND
  6
CONTINUOUS
 10
0.000000
 20
3.526160
  0
VERTEX
  8
FOREGROUND
  6
CONTINUOUS
 10
8.499920
 20
3.526160
  0
VERTEX
  8
FOREGROUND
  6
CONTINUOUS
 10
8.499920
 20
-7.473840
  0
VERTEX
  8
FOREGROUND
  6
CONTINUOUS
 10
0.000000
 20
-7.473840
  0
VERTEX
  8
FOREGROUND
  6
CONTINUOUS
 10
0.000000
 20
3.526160
  0
SEQEND
  8
0
  0
SOLID
  8
0
 62
    15
 10
2.853840
 20
2.471040
 11
3.501080
 21
2.099680
 12
2.768920
 22
2.431440
 13
3.415720
 23
2.060080
  0
POLYLINE
  8
0
  6
CONTINUOUS
 66
     1
 40
0.000000
 41
0.000000
  0
VERTEX
  8
0
  6
CONTINUOUS
 10
2.853840
 20
2.471040
  0
VERTEX
  8
0
  6
CONTINUOUS
 10
3.501080
 20
2.099680
  0
VERTEX
  8
0
  6
CONTINUOUS
 10
3.415720
 20
2.060080
  0
VERTEX
  8
0
  6
CONTINUOUS
 10
2.768920
 20
2.431440
  0
VERTEX
  8
0
  6
CONTINUOUS
 10
2.853840
 20
2.471040
  0
SEQEND
  8
0
  0
SOLID
  8
0
 62
    15
 10
3.928760
 20
2.783440
 11
4.575560
 21
2.412080
 12
3.911600
 22
2.701600
 13
4.558840
 23
2.330240
  0
POLYLINE
  8
0
  6
CONTINUOUS
 66
     1
 40
0.000000
 41
0.000000
  0
VERTEX
  8
0
  6
CONTINUOUS
 10
3.928760
 20
2.783440
  0
VERTEX
  8
0
  6
CONTINUOUS
 10
4.575560
 20
2.412080
  0
VERTEX
  8
0
  6
CONTINUOUS
 10
4.558840
 20
2.330240
  0
VERTEX
  8
0
  6
CONTINUOUS
 10
3.911600
 20
2.701600
  0
VERTEX
  8
0
  6
CONTINUOUS
 10
3.928760
 20
2.783440
  0
SEQEND
  8
0
  0
SOLID
  8
0
 62
    15
 10
3.911600
 20
2.701600
 11
4.558840
 21
2.330240
 12
3.885200
 22
2.642640
 13
4.532440
 23
2.270840
  0
POLYLINE
  8
0
  6
CONTINUOUS
 66
     1
 40
0.000000
 41
0.000000
  0
VERTEX
  8
0
  6
CONTINUOUS
 10
3.911600
 20
2.701600
  0
VERTEX
  8
0
  6
CONTINUOUS
 10
4.558840
 20
2.330240
  0
VERTEX
  8
0
  6
CONTINUOUS
 10
4.532440
 20
2.270840
  0
VERTEX
  8
0
  6
CONTINUOUS
 10
3.885200
 20
2.642640
  0
VERTEX
  8
0
  6
CONTINUOUS
 10
3.911600
 20
2.701600
  0
SEQEND
  8
0
  0
SOLID
  8
0
 62
    15
 10
3.885200
 20
2.642640
 11
4.532440
 21
2.270840
 12
3.852640
 22
2.602600
 13
4.499440
 23
2.231240
  0
POLYLINE
  8
0
  6
CONTINUOUS
 66
     1
 40
0.000000
 41
0.000000
  0
VERTEX
  8
0
  6
CONTINUOUS
 10
3.885200
 20
2.642640
  0
VERTEX
  8
0
  6
CONTINUOUS
 10
4.532440
 20
2.270840
  0
VERTEX
  8
0
  6
CONTINUOUS
 10
4.499440
 20
2.231240
  0
VERTEX
  8
0
  6
CONTINUOUS
 10
3.852640
 20
2.602600
  0
VERTEX
  8
0
  6
CONTINUOUS
 10
3.885200
 20
2.642640
  0
SEQEND
  8
0
  0
SOLID
  8
0
 62
    15
 10
3.852640
 20
2.602600
 11
4.499440
 21
2.231240
 12
3.815680
 22
2.579280
 13
4.462480
 23
2.207480
  0
POLYLINE
  8
0
  6
CONTINUOUS
 66
     1
 40
0.000000
 41
0.000000
  0
VERTEX
  8
0
  6
CONTINUOUS
 10
3.852640
 20
2.602600
  0
VERTEX
  8
0
  6
CONTINUOUS
 10
4.499440
 20
2.231240
  0
VERTEX
  8
0
  6
CONTINUOUS
 10
4.462480
 20
2.207480
  0
VERTEX
  8
0
  6
CONTINUOUS
 10
3.815680
 20
2.579280
  0
VERTEX
  8
0
  6
CONTINUOUS
 10
3.852640
 20
2.602600
  0
SEQEND
  8
0
  0
SOLID
  8
0
 62
    15
 10
3.815680
 20
2.579280
 11
4.462480
 21
2.207480
 12
3.777400
 22
2.568720
 13
4.424640
 23
2.197360
  0
POLYLINE
  8
0
  6
CONTINUOUS
 66
     1
 40
0.000000
 41
0.000000
  0
VERTEX
  8
0
  6
CONTINUOUS
 10
3.815680
 20
2.579280
  0
VERTEX
  8
0
  6
CONTINUOUS
 10
4.462480
 20
2.207480
  0
VERTEX
  8
0
  6
CONTINUOUS
 10
4.424640
 20
2.197360
  0
VERTEX
  8
0
  6
CONTINUOUS
 10
3.777400
 20
2.568720
  0
VERTEX
  8
0
  6
CONTINUOUS
 10
3.815680
 20
2.579280
  0
SEQEND
  8
0
  0
SOLID
  8
0
 62
    15
 10
3.777400
 20
2.568720
 11
4.424640
 21
2.197360
 12
3.707880
 22
2.574000
 13
4.354680
 23
2.202640
  0
POLYLINE
  8
0
  6
CONTINUOUS
 66
     1
 40
0.000000
 41
0.000000
  0
VERTEX
  8
0
  6
CONTINUOUS
 10
3.777400
 20
2.568720
  0
VERTEX
  8
0
  6
CONTINUOUS
 10
4.424640
 20
2.197360
  0
VERTEX
  8
0
  6
CONTINUOUS
 10
4.354680
 20
2.202640
  0
VERTEX
  8
0
  6
CONTINUOUS
 10
3.707880
 20
2.574000
  0
VERTEX
  8
0
  6
CONTINUOUS
 10
3.777400
 20
2.568720
  0
SEQEND
  8
0
  0
SOLID
  8
0
 62
    15
 10
3.707880
 20
2.574000
 11
4.354680
 21
2.202640
 12
3.707000
 22
2.513280
 13
4.354240
 23
2.141920
  0
POLYLINE
  8
0
  6
CONTINUOUS
 66
     1
 40
0.000000
 41
0.000000
  0
VERTEX
  8
0
  6
CONTINUOUS
 10
3.707880
 20
2.574000
  0
VERTEX
  8
0
  6
CONTINUOUS
 10
4.354680
 20
2.202640
  0
VERTEX
  8
0
  6
CONTINUOUS
 10
4.354240
 20
2.141920
  0
VERTEX
  8
0
  6
CONTINUOUS
 10
3.707000
 20
2.513280
  0
VERTEX
  8
0
  6
CONTINUOUS
 10
3.707880
 20
2.574000
  0
SEQEND
  8
0
  0
SOLID
  8
0
 62
    15
 10
3.707000
 20
2.513280
 11
4.354240
 21
2.141920
 12
3.688960
 22
2.462680
 13
4.336200
 23
2.090880
  0
POLYLINE
  8
0
  6
CONTINUOUS
 66
     1
 40
0.000000
 41
0.000000
  0
VERTEX
  8
0
  6
CONTINUOUS
 10
3.707000
 20
2.513280
  0
VERTEX
  8
0
  6
CONTINUOUS
 10
4.354240
 20
2.141920
  0
VERTEX
  8
0
  6
CONTINUOUS
 10
4.336200
 20
2.090880
  0
VERTEX
  8
0
  6
CONTINUOUS
 10
3.688960
 20
2.462680
  0
VERTEX
  8
0
  6
CONTINUOUS
 10
3.707000
 20
2.513280
  0
SEQEND
  8
0
  0
SOLID
  8
0
 62
    15
 10
3.688960
 20
2.462680
 11
4.336200
 21
2.090880
 12
3.657280
 22
2.423080
 13
4.304080
 23
2.051720
  0
POLYLINE
  8
0
  6
CONTINUOUS
 66
     1
 40
0.000000
 41
0.000000
  0
VERTEX
  8
0
  6
CONTINUOUS
 10
3.688960
 20
2.462680
  0
VERTEX
  8
0
  6
CONTINUOUS
 10
4.336200
 20
2.090880
  0
VERTEX
  8
0
  6
CONTINUOUS
 10
4.304080
 20
2.051720
  0
VERTEX
  8
0
  6
CONTINUOUS
 10
3.657280
 20
2.423080
  0
VERTEX
  8
0
  6
CONTINUOUS
 10
3.688960
 20
2.462680
  0
SEQEND
  8
0
  0
SOLID
  8
0
 62
    15
 10
3.657280
 20
2.423080
 11
4.304080
 21
2.051720
 12
3.615480
 22
2.397120
 13
4.262720
 23
2.025760
  0
POLYLINE
  8
0
  6
CONTINUOUS
 66
     1
 40
0.000000
 41
0.000000
  0
VERTEX
  8
0
  6
CONTINUOUS
 10
3.657280
 20
2.423080
  0
VERTEX
  8
0
  6
CONTINUOUS
 10
4.304080
 20
2.051720
  0
VERTEX
  8
0
  6
CONTINUOUS
 10
4.262720
 20
2.025760
  0
VERTEX
  8
0
  6
CONTINUOUS
 10
3.615480
 20
2.397120
  0
VERTEX
  8
0
  6
CONTINUOUS
 10
3.657280
 20
2.423080
  0
SEQEND
  8
0
  0
SOLID
  8
0
 62
    15
 10
3.369080
 20
2.500960
 11
4.015880
 21
2.129600
 12
3.336960
 22
2.514160
 13
3.983760
 23
2.142800
  0
POLYLINE
  8
0
  6
CONTINUOUS
 66
     1
 40
0.000000
 41
0.000000
  0
VERTEX
  8
0
  6
CONTINUOUS
 10
3.369080
 20
2.500960
  0
VERTEX
  8
0
  6
CONTINUOUS
 10
4.015880
 20
2.129600
  0
VERTEX
  8
0
  6
CONTINUOUS
 10
3.983760
 20
2.142800
  0
VERTEX
  8
0
  6
CONTINUOUS
 10
3.336960
 20
2.514160
  0
VERTEX
  8
0
  6
CONTINUOUS
 10
3.369080
 20
2.500960
  0
SEQEND
  8
0
  0
SOLID
  8
0
 62
    15
 10
3.336960
 20
2.514160
 11
3.983760
 21
2.142800
 12
3.319800
 22
2.520760
 13
3.966600
 23
2.149400
  0
POLYLINE
  8
0
  6
CONTINUOUS
 66
     1
 40
0.000000
 41
0.000000
  0
VERTEX
  8
0
  6
CONTINUOUS
 10
3.336960
 20
2.514160
  0
VERTEX
  8
0
  6
CONTINUOUS
 10
3.983760
 20
2.142800
  0
VERTEX
  8
0
  6
CONTINUOUS
 10
3.966600
 20
2.149400
  0
VERTEX
  8
0
  6
CONTINUOUS
 10
3.319800
 20
2.520760
  0
VERTEX
  8
0
  6
CONTINUOUS
 10
3.336960
 20
2.514160
  0
SEQEND
  8
0
  0
SOLID
  8
0
 62
    15
 10
3.301760
 20
2.528240
 11
3.948560
 21
2.156880
 12
3.241480
 22
2.535280
 13
3.888280
 23
2.163920
  0
POLYLINE
  8
0
  6
CONTINUOUS
 66
     1
 40
0.000000
 41
0.000000
  0
VERTEX
  8
0
  6
CONTINUOUS
 10
3.301760
 20
2.528240
  0
VERTEX
  8
0
  6
CONTINUOUS
 10
3.948560
 20
2.156880
  0
VERTEX
  8
0
  6
CONTINUOUS
 10
3.888280
 20
2.163920
  0
VERTEX
  8
0
  6
CONTINUOUS
 10
3.241480
 20
2.535280
  0
VERTEX
  8
0
  6
CONTINUOUS
 10
3.301760
 20
2.528240
  0
SEQEND
  8
0
  0
SOLID
  8
0
 62
    15
 10
3.615480
 20
2.397120
 11
4.262720
 21
2.025760
 12
3.567520
 22
2.385680
 13
4.214760
 23
2.014320
  0
POLYLINE
  8
0
  6
CONTINUOUS
 66
     1
 40
0.000000
 41
0.000000
  0
VERTEX
  8
0
  6
CONTINUOUS
 10
3.615480
 20
2.397120
  0
VERTEX
  8
0
  6
CONTINUOUS
 10
4.262720
 20
2.025760
  0
VERTEX
  8
0
  6
CONTINUOUS
 10
4.214760
 20
2.014320
  0
VERTEX
  8
0
  6
CONTINUOUS
 10
3.567520
 20
2.385680
  0
VERTEX
  8
0
  6
CONTINUOUS
 10
3.615480
 20
2.397120
  0
SEQEND
  8
0
  0
SOLID
  8
0
 62
    15
 10
3.319800
 20
2.520760
 11
3.966600
 21
2.149400
 12
3.301760
 22
2.528240
 13
3.948560
 23
2.156880
  0
POLYLINE
  8
0
  6
CONTINUOUS
 66
     1
 40
0.000000
 41
0.000000
  0
VERTEX
  8
0
  6
CONTINUOUS
 10
3.319800
 20
2.520760
  0
VERTEX
  8
0
  6
CONTINUOUS
 10
3.966600
 20
2.149400
  0
VERTEX
  8
0
  6
CONTINUOUS
 10
3.948560
 20
2.156880
  0
VERTEX
  8
0
  6
CONTINUOUS
 10
3.301760
 20
2.528240
  0
VERTEX
  8
0
  6
CONTINUOUS
 10
3.319800
 20
2.520760
  0
SEQEND
  8
0
  0
SOLID
  8
0
 62
    15
 10
3.567520
 20
2.385680
 11
4.214760
 21
2.014320
 12
3.517360
 22
2.391400
 13
4.164160
 23
2.019600
  0
POLYLINE
  8
0
  6
CONTINUOUS
 66
     1
 40
0.000000
 41
0.000000
  0
VERTEX
  8
0
  6
CONTINUOUS
 10
3.567520
 20
2.385680
  0
VERTEX
  8
0
  6
CONTINUOUS
 10
4.214760
 20
2.014320
  0
VERTEX
  8
0
  6
CONTINUOUS
 10
4.164160
 20
2.019600
  0
VERTEX
  8
0
  6
CONTINUOUS
 10
3.517360
 20
2.391400
  0
VERTEX
  8
0
  6
CONTINUOUS
 10
3.567520
 20
2.385680
  0
SEQEND
  8
0
  0
SOLID
  8
0
 62
    15
 10
3.517360
 20
2.391400
 11
4.164160
 21
2.019600
 12
3.468080
 22
2.414720
 13
4.114880
 23
2.043360
  0
POLYLINE
  8
0
  6
CONTINUOUS
 66
     1
 40
0.000000
 41
0.000000
  0
VERTEX
  8
0
  6
CONTINUOUS
 10
3.517360
 20
2.391400
  0
VERTEX
  8
0
  6
CONTINUOUS
 10
4.164160
 20
2.019600
  0
VERTEX
  8
0
  6
CONTINUOUS
 10
4.114880
 20
2.043360
  0
VERTEX
  8
0
  6
CONTINUOUS
 10
3.468080
 20
2.414720
  0
VERTEX
  8
0
  6
CONTINUOUS
 10
3.517360
 20
2.391400
  0
SEQEND
  8
0
  0
SOLID
  8
0
 62
    15
 10
3.241480
 20
2.535280
 11
3.888280
 21
2.163920
 12
3.173720
 22
2.537040
 13
3.820520
 23
2.165680
  0
POLYLINE
  8
0
  6
CONTINUOUS
 66
     1
 40
0.000000
 41
0.000000
  0
VERTEX
  8
0
  6
CONTINUOUS
 10
3.241480
 20
2.535280
  0
VERTEX
  8
0
  6
CONTINUOUS
 10
3.888280
 20
2.163920
  0
VERTEX
  8
0
  6
CONTINUOUS
 10
3.820520
 20
2.165680
  0
VERTEX
  8
0
  6
CONTINUOUS
 10
3.173720
 20
2.537040
  0
VERTEX
  8
0
  6
CONTINUOUS
 10
3.241480
 20
2.535280
  0
SEQEND
  8
0
  0
SOLID
  8
0
 62
    15
 10
3.173720
 20
2.537040
 11
3.820520
 21
2.165680
 12
3.020600
 22
2.520760
 13
3.667840
 23
2.149400
  0
POLYLINE
  8
0
  6
CONTINUOUS
 66
     1
 40
0.000000
 41
0.000000
  0
VERTEX
  8
0
  6
CONTINUOUS
 10
3.173720
 20
2.537040
  0
VERTEX
  8
0
  6
CONTINUOUS
 10
3.820520
 20
2.165680
  0
VERTEX
  8
0
  6
CONTINUOUS
 10
3.667840
 20
2.149400
  0
VERTEX
  8
0
  6
CONTINUOUS
 10
3.020600
 20
2.520760
  0
VERTEX
  8
0
  6
CONTINUOUS
 10
3.173720
 20
2.537040
  0
SEQEND
  8
0
  0
SOLID
  8
0
 62
    15
 10
3.020600
 20
2.520760
 11
3.667840
 21
2.149400
 12
2.938320
 22
2.500520
 13
3.585120
 23
2.129160
  0
POLYLINE
  8
0
  6
CONTINUOUS
 66
     1
 40
0.000000
 41
0.000000
  0
VERTEX
  8
0
  6
CONTINUOUS
 10
3.020600
 20
2.520760
  0
VERTEX
  8
0
  6
CONTINUOUS
 10
3.667840
 20
2.149400
  0
VERTEX
  8
0
  6
CONTINUOUS
 10
3.585120
 20
2.129160
  0
VERTEX
  8
0
  6
CONTINUOUS
 10
2.938320
 20
2.500520
  0
VERTEX
  8
0
  6
CONTINUOUS
 10
3.020600
 20
2.520760
  0
SEQEND
  8
0
  0
SOLID
  8
0
 62
    15
 10
2.938320
 20
2.500520
 11
3.585120
 21
2.129160
 12
2.853840
 22
2.471040
 13
3.501080
 23
2.099680
  0
POLYLINE
  8
0
  6
CONTINUOUS
 66
     1
 40
0.000000
 41
0.000000
  0
VERTEX
  8
0
  6
CONTINUOUS
 10
2.938320
 20
2.500520
  0
VERTEX
  8
0
  6
CONTINUOUS
 10
3.585120
 20
2.129160
  0
VERTEX
  8
0
  6
CONTINUOUS
 10
3.501080
 20
2.099680
  0
VERTEX
  8
0
  6
CONTINUOUS
 10
2.853840
 20
2.471040
  0
VERTEX
  8
0
  6
CONTINUOUS
 10
2.938320
 20
2.500520
  0
SEQEND
  8
0
  0
SOLID
  8
0
 62
    15
 10
3.934040
 20
2.891240
 11
4.580840
 21
2.519880
 12
3.928760
 22
2.783440
 13
4.575560
 23
2.412080
  0
POLYLINE
  8
0
  6
CONTINUOUS
 66
     1
 40
0.000000
 41
0.000000
  0
VERTEX
  8
0
  6
CONTINUOUS
 10
3.934040
 20
2.891240
  0
VERTEX
  8
0
  6
CONTINUOUS
 10
4.580840
 20
2.519880
  0
VERTEX
  8
0
  6
CONTINUOUS
 10
4.575560
 20
2.412080
  0
VERTEX
  8
0
  6
CONTINUOUS
 10
3.928760
 20
2.783440
  0
VERTEX
  8
0
  6
CONTINUOUS
 10
3.934040
 20
2.891240
  0
SEQEND
  8
0
  0
SOLID
  8
0
 62
    15
 10
2.768920
 20
2.431440
 11
3.415720
 21
2.060080
 12
2.684440
 22
2.380840
 13
3.331240
 23
2.009480
  0
POLYLINE
  8
0
  6
CONTINUOUS
 66
     1
 40
0.000000
 41
0.000000
  0
VERTEX
  8
0
  6
CONTINUOUS
 10
2.768920
 20
2.431440
  0
VERTEX
  8
0
  6
CONTINUOUS
 10
3.415720
 20
2.060080
  0
VERTEX
  8
0
  6
CONTINUOUS
 10
3.331240
 20
2.009480
  0
VERTEX
  8
0
  6
CONTINUOUS
 10
2.684440
 20
2.380840
  0
VERTEX
  8
0
  6
CONTINUOUS
 10
2.768920
 20
2.431440
  0
SEQEND
  8
0
  0
SOLID
  8
0
 62
    15
 10
2.684440
 20
2.380840
 11
3.331240
 21
2.009480
 12
2.602160
 22
2.317920
 13
3.248960
 23
1.946120
  0
POLYLINE
  8
0
  6
CONTINUOUS
 66
     1
 40
0.000000
 41
0.000000
  0
VERTEX
  8
0
  6
CONTINUOUS
 10
2.684440
 20
2.380840
  0
VERTEX
  8
0
  6
CONTINUOUS
 10
3.331240
 20
2.009480
  0
VERTEX
  8
0
  6
CONTINUOUS
 10
3.248960
 20
1.946120
  0
VERTEX
  8
0
  6
CONTINUOUS
 10
2.602160
 20
2.317920
  0
VERTEX
  8
0
  6
CONTINUOUS
 10
2.684440
 20
2.380840
  0
SEQEND
  8
0
  0
SOLID
  8
0
 62
    15
 10
2.602160
 20
2.317920
 11
3.248960
 21
1.946120
 12
2.523400
 22
2.241360
 13
3.170200
 23
1.870000
  0
POLYLINE
  8
0
  6
CONTINUOUS
 66
     1
 40
0.000000
 41
0.000000
  0
VERTEX
  8
0
  6
CONTINUOUS
 10
2.602160
 20
2.317920
  0
VERTEX
  8
0
  6
CONTINUOUS
 10
3.248960
 20
1.946120
  0
VERTEX
  8
0
  6
CONTINUOUS
 10
3.170200
 20
1.870000
  0
VERTEX
  8
0
  6
CONTINUOUS
 10
2.523400
 20
2.241360
  0
VERTEX
  8
0
  6
CONTINUOUS
 10
2.602160
 20
2.317920
  0
SEQEND
  8
0
  0
SOLID
  8
0
 62
    15
 10
2.523400
 20
2.241360
 11
3.170200
 21
1.870000
 12
2.449480
 22
2.151160
 13
3.096280
 23
1.779800
  0
POLYLINE
  8
0
  6
CONTINUOUS
 66
     1
 40
0.000000
 41
0.000000
  0
VERTEX
  8
0
  6
CONTINUOUS
 10
2.523400
 20
2.241360
  0
VERTEX
  8
0
  6
CONTINUOUS
 10
3.170200
 20
1.870000
  0
VERTEX
  8
0
  6
CONTINUOUS
 10
3.096280
 20
1.779800
  0
VERTEX
  8
0
  6
CONTINUOUS
 10
2.449480
 20
2.151160
  0
VERTEX
  8
0
  6
CONTINUOUS
 10
2.523400
 20
2.241360
  0
SEQEND
  8
0
  0
SOLID
  8
0
 62
    15
 10
2.449480
 20
2.151160
 11
3.096280
 21
1.779800
 12
2.381720
 22
2.045560
 13
3.028520
 23
1.674200
  0
POLYLINE
  8
0
  6
CONTINUOUS
 66
     1
 40
0.000000
 41
0.000000
  0
VERTEX
  8
0
  6
CONTINUOUS
 10
2.449480
 20
2.151160
  0
VERTEX
  8
0
  6
CONTINUOUS
 10
3.096280
 20
1.779800
  0
VERTEX
  8
0
  6
CONTINUOUS
 10
3.028520
 20
1.674200
  0
VERTEX
  8
0
  6
CONTINUOUS
 10
2.381720
 20
2.045560
  0
VERTEX
  8
0
  6
CONTINUOUS
 10
2.449480
 20
2.151160
  0
SEQEND
  8
0
  0
SOLID
  8
0
 62
    15
 10
2.381720
 20
2.045560
 11
3.028520
 21
1.674200
 12
2.321880
 22
1.923680
 13
2.968680
 23
1.552320
  0
POLYLINE
  8
0
  6
CONTINUOUS
 66
     1
 40
0.000000
 41
0.000000
  0
VERTEX
  8
0
  6
CONTINUOUS
 10
2.381720
 20
2.045560
  0
VERTEX
  8
0
  6
CONTINUOUS
 10
3.028520
 20
1.674200
  0
VERTEX
  8
0
  6
CONTINUOUS
 10
2.968680
 20
1.552320
  0
VERTEX
  8
0
  6
CONTINUOUS
 10
2.321880
 20
1.923680
  0
VERTEX
  8
0
  6
CONTINUOUS
 10
2.381720
 20
2.045560
  0
SEQEND
  8
0
  0
SOLID
  8
0
 62
    15
 10
2.321880
 20
1.923680
 11
2.968680
 21
1.552320
 12
2.270840
 22
1.784640
 13
2.917640
 23
1.413280
  0
POLYLINE
  8
0
  6
CONTINUOUS
 66
     1
 40
0.000000
 41
0.000000
  0
VERTEX
  8
0
  6
CONTINUOUS
 10
2.321880
 20
1.923680
  0
VERTEX
  8
0
  6
CONTINUOUS
 10
2.968680
 20
1.552320
  0
VERTEX
  8
0
  6
CONTINUOUS
 10
2.917640
 20
1.413280
  0
VERTEX
  8
0
  6
CONTINUOUS
 10
2.270840
 20
1.784640
  0
VERTEX
  8
0
  6
CONTINUOUS
 10
2.321880
 20
1.923680
  0
SEQEND
  8
0
  0
SOLID
  8
0
 62
    15
 10
2.270840
 20
1.784640
 11
2.917640
 21
1.413280
 12
2.230360
 22
1.627560
 13
2.877160
 23
1.256200
  0
POLYLINE
  8
0
  6
CONTINUOUS
 66
     1
 40
0.000000
 41
0.000000
  0
VERTEX
  8
0
  6
CONTINUOUS
 10
2.270840
 20
1.784640
  0
VERTEX
  8
0
  6
CONTINUOUS
 10
2.917640
 20
1.413280
  0
VERTEX
  8
0
  6
CONTINUOUS
 10
2.877160
 20
1.256200
  0
VERTEX
  8
0
  6
CONTINUOUS
 10
2.230360
 20
1.627560
  0
VERTEX
  8
0
  6
CONTINUOUS
 10
2.270840
 20
1.784640
  0
SEQEND
  8
0
  0
SOLID
  8
0
 62
    15
 10
2.230360
 20
1.627560
 11
2.877160
 21
1.256200
 12
2.201760
 22
1.451560
 13
2.848560
 23
1.079760
  0
POLYLINE
  8
0
  6
CONTINUOUS
 66
     1
 40
0.000000
 41
0.000000
  0
VERTEX
  8
0
  6
CONTINUOUS
 10
2.230360
 20
1.627560
  0
VERTEX
  8
0
  6
CONTINUOUS
 10
2.877160
 20
1.256200
  0
VERTEX
  8
0
  6
CONTINUOUS
 10
2.848560
 20
1.079760
  0
VERTEX
  8
0
  6
CONTINUOUS
 10
2.201760
 20
1.451560
  0
VERTEX
  8
0
  6
CONTINUOUS
 10
2.230360
 20
1.627560
  0
SEQEND
  8
0
  0
SOLID
  8
0
 62
    15
 10
2.201760
 20
1.451560
 11
2.848560
 21
1.079760
 12
2.027080
 22
1.442320
 13
2.673880
 23
1.070960
  0
POLYLINE
  8
0
  6
CONTINUOUS
 66
     1
 40
0.000000
 41
0.000000
  0
VERTEX
  8
0
  6
CONTINUOUS
 10
2.201760
 20
1.451560
  0
VERTEX
  8
0
  6
CONTINUOUS
 10
2.848560
 20
1.079760
  0
VERTEX
  8
0
  6
CONTINUOUS
 10
2.673880
 20
1.070960
  0
VERTEX
  8
0
  6
CONTINUOUS
 10
2.027080
 20
1.442320
  0
VERTEX
  8
0
  6
CONTINUOUS
 10
2.201760
 20
1.451560
  0
SEQEND
  8
0
  0
SOLID
  8
0
 62
    15
 10
2.027080
 20
1.442320
 11
2.673880
 21
1.070960
 12
2.037200
 22
1.340240
 13
2.684000
 23
0.968880
  0
POLYLINE
  8
0
  6
CONTINUOUS
 66
     1
 40
0.000000
 41
0.000000
  0
VERTEX
  8
0
  6
CONTINUOUS
 10
2.027080
 20
1.442320
  0
VERTEX
  8
0
  6
CONTINUOUS
 10
2.673880
 20
1.070960
  0
VERTEX
  8
0
  6
CONTINUOUS
 10
2.684000
 20
0.968880
  0
VERTEX
  8
0
  6
CONTINUOUS
 10
2.037200
 20
1.340240
  0
VERTEX
  8
0
  6
CONTINUOUS
 10
2.027080
 20
1.442320
  0
SEQEND
  8
0
  0
SOLID
  8
0
 62
    15
 10
2.037200
 20
1.340240
 11
2.684000
 21
0.968880
 12
2.028840
 22
1.250480
 13
2.676080
 23
0.879120
  0
POLYLINE
  8
0
  6
CONTINUOUS
 66
     1
 40
0.000000
 41
0.000000
  0
VERTEX
  8
0
  6
CONTINUOUS
 10
2.037200
 20
1.340240
  0
VERTEX
  8
0
  6
CONTINUOUS
 10
2.684000
 20
0.968880
  0
VERTEX
  8
0
  6
CONTINUOUS
 10
2.676080
 20
0.879120
  0
VERTEX
  8
0
  6
CONTINUOUS
 10
2.028840
 20
1.250480
  0
VERTEX
  8
0
  6
CONTINUOUS
 10
2.037200
 20
1.340240
  0
SEQEND
  8
0
  0
SOLID
  8
0
 62
    15
 10
2.028840
 20
1.250480
 11
2.676080
 21
0.879120
 12
2.005080
 22
1.173040
 13
2.651880
 23
0.801680
  0
POLYLINE
  8
0
  6
CONTINUOUS
 66
     1
 40
0.000000
 41
0.000000
  0
VERTEX
  8
0
  6
CONTINUOUS
 10
2.028840
 20
1.250480
  0
VERTEX
  8
0
  6
CONTINUOUS
 10
2.676080
 20
0.879120
  0
VERTEX
  8
0
  6
CONTINUOUS
 10
2.651880
 20
0.801680
  0
VERTEX
  8
0
  6
CONTINUOUS
 10
2.005080
 20
1.173040
  0
VERTEX
  8
0
  6
CONTINUOUS
 10
2.028840
 20
1.250480
  0
SEQEND
  8
0
  0
SOLID
  8
0
 62
    15
 10
2.005080
 20
1.173040
 11
2.651880
 21
0.801680
 12
1.967240
 22
1.107920
 13
2.614480
 23
0.736560
  0
POLYLINE
  8
0
  6
CONTINUOUS
 66
     1
 40
0.000000
 41
0.000000
  0
VERTEX
  8
0
  6
CONTINUOUS
 10
2.005080
 20
1.173040
  0
VERTEX
  8
0
  6
CONTINUOUS
 10
2.651880
 20
0.801680
  0
VERTEX
  8
0
  6
CONTINUOUS
 10
2.614480
 20
0.736560
  0
VERTEX
  8
0
  6
CONTINUOUS
 10
1.967240
 20
1.107920
  0
VERTEX
  8
0
  6
CONTINUOUS
 10
2.005080
 20
1.173040
  0
SEQEND
  8
0
  0
SOLID
  8
0
 62
    15
 10
1.967240
 20
1.107920
 11
2.614480
 21
0.736560
 12
1.918840
 22
1.055120
 13
2.565640
 23
0.683760
  0
POLYLINE
  8
0
  6
CONTINUOUS
 66
     1
 40
0.000000
 41
0.000000
  0
VERTEX
  8
0
  6
CONTINUOUS
 10
1.967240
 20
1.107920
  0
VERTEX
  8
0
  6
CONTINUOUS
 10
2.614480
 20
0.736560
  0
VERTEX
  8
0
  6
CONTINUOUS
 10
2.565640
 20
0.683760
  0
VERTEX
  8
0
  6
CONTINUOUS
 10
1.918840
 20
1.055120
  0
VERTEX
  8
0
  6
CONTINUOUS
 10
1.967240
 20
1.107920
  0
SEQEND
  8
0
  0
SOLID
  8
0
 62
    15
 10
1.918840
 20
1.055120
 11
2.565640
 21
0.683760
 12
1.861200
 22
1.015080
 13
2.508440
 23
0.643280
  0
POLYLINE
  8
0
  6
CONTINUOUS
 66
     1
 40
0.000000
 41
0.000000
  0
VERTEX
  8
0
  6
CONTINUOUS
 10
1.918840
 20
1.055120
  0
VERTEX
  8
0
  6
CONTINUOUS
 10
2.565640
 20
0.683760
  0
VERTEX
  8
0
  6
CONTINUOUS
 10
2.508440
 20
0.643280
  0
VERTEX
  8
0
  6
CONTINUOUS
 10
1.861200
 20
1.015080
  0
VERTEX
  8
0
  6
CONTINUOUS
 10
1.918840
 20
1.055120
  0
SEQEND
  8
0
  0
SOLID
  8
0
 62
    15
 10
1.331440
 20
1.307680
 11
1.978240
 21
0.936320
 12
1.254440
 22
1.318240
 13
1.901240
 23
0.946880
  0
POLYLINE
  8
0
  6
CONTINUOUS
 66
     1
 40
0.000000
 41
0.000000
  0
VERTEX
  8
0
  6
CONTINUOUS
 10
1.331440
 20
1.307680
  0
VERTEX
  8
0
  6
CONTINUOUS
 10
1.978240
 20
0.936320
  0
VERTEX
  8
0
  6
CONTINUOUS
 10
1.901240
 20
0.946880
  0
VERTEX
  8
0
  6
CONTINUOUS
 10
1.254440
 20
1.318240
  0
VERTEX
  8
0
  6
CONTINUOUS
 10
1.331440
 20
1.307680
  0
SEQEND
  8
0
  0
SOLID
  8
0
 62
    15
 10
1.797400
 20
0.987360
 11
2.444640
 21
0.615560
 12
1.729640
 22
0.971960
 13
2.376880
 23
0.600600
  0
POLYLINE
  8
0
  6
CONTINUOUS
 66
     1
 40
0.000000
 41
0.000000
  0
VERTEX
  8
0
  6
CONTINUOUS
 10
1.797400
 20
0.987360
  0
VERTEX
  8
0
  6
CONTINUOUS
 10
2.444640
 20
0.615560
  0
VERTEX
  8
0
  6
CONTINUOUS
 10
2.376880
 20
0.600600
  0
VERTEX
  8
0
  6
CONTINUOUS
 10
1.729640
 20
0.971960
  0
VERTEX
  8
0
  6
CONTINUOUS
 10
1.797400
 20
0.987360
  0
SEQEND
  8
0
  0
SOLID
  8
0
 62
    15
 10
1.729640
 20
0.971960
 11
2.376880
 21
0.600600
 12
1.660560
 22
0.969320
 13
2.307360
 23
0.597960
  0
POLYLINE
  8
0
  6
CONTINUOUS
 66
     1
 40
0.000000
 41
0.000000
  0
VERTEX
  8
0
  6
CONTINUOUS
 10
1.729640
 20
0.971960
  0
VERTEX
  8
0
  6
CONTINUOUS
 10
2.376880
 20
0.600600
  0
VERTEX
  8
0
  6
CONTINUOUS
 10
2.307360
 20
0.597960
  0
VERTEX
  8
0
  6
CONTINUOUS
 10
1.660560
 20
0.969320
  0
VERTEX
  8
0
  6
CONTINUOUS
 10
1.729640
 20
0.971960
  0
SEQEND
  8
0
  0
SOLID
  8
0
 62
    15
 10
1.660560
 20
0.969320
 11
2.307360
 21
0.597960
 12
1.591920
 22
0.979440
 13
2.238720
 23
0.608080
  0
POLYLINE
  8
0
  6
CONTINUOUS
 66
     1
 40
0.000000
 41
0.000000
  0
VERTEX
  8
0
  6
CONTINUOUS
 10
1.660560
 20
0.969320
  0
VERTEX
  8
0
  6
CONTINUOUS
 10
2.307360
 20
0.597960
  0
VERTEX
  8
0
  6
CONTINUOUS
 10
2.238720
 20
0.608080
  0
VERTEX
  8
0
  6
CONTINUOUS
 10
1.591920
 20
0.979440
  0
VERTEX
  8
0
  6
CONTINUOUS
 10
1.660560
 20
0.969320
  0
SEQEND
  8
0
  0
SOLID
  8
0
 62
    15
 10
1.591920
 20
0.979440
 11
2.238720
 21
0.608080
 12
1.526800
 22
1.002320
 13
2.173600
 23
0.630960
  0
POLYLINE
  8
0
  6
CONTINUOUS
 66
     1
 40
0.000000
 41
0.000000
  0
VERTEX
  8
0
  6
CONTINUOUS
 10
1.591920
 20
0.979440
  0
VERTEX
  8
0
  6
CONTINUOUS
 10
2.238720
 20
0.608080
  0
VERTEX
  8
0
  6
CONTINUOUS
 10
2.173600
 20
0.630960
  0
VERTEX
  8
0
  6
CONTINUOUS
 10
1.526800
 20
1.002320
  0
VERTEX
  8
0
  6
CONTINUOUS
 10
1.591920
 20
0.979440
  0
SEQEND
  8
0
  0
SOLID
  8
0
 62
    15
 10
1.861200
 20
1.015080
 11
2.508440
 21
0.643280
 12
1.797400
 22
0.987360
 13
2.444640
 23
0.615560
  0
POLYLINE
  8
0
  6
CONTINUOUS
 66
     1
 40
0.000000
 41
0.000000
  0
VERTEX
  8
0
  6
CONTINUOUS
 10
1.861200
 20
1.015080
  0
VERTEX
  8
0
  6
CONTINUOUS
 10
2.508440
 20
0.643280
  0
VERTEX
  8
0
  6
CONTINUOUS
 10
2.444640
 20
0.615560
  0
VERTEX
  8
0
  6
CONTINUOUS
 10
1.797400
 20
0.987360
  0
VERTEX
  8
0
  6
CONTINUOUS
 10
1.861200
 20
1.015080
  0
SEQEND
  8
0
  0
POLYLINE
  8
0
  6
CONTINUOUS
 66
     1
 40
0.000000
 41
0.000000
  0
VERTEX
  8
0
  6
CONTINUOUS
 10
3.934040
 20
2.891240
  0
VERTEX
  8
0
  6
CONTINUOUS
 10
3.928760
 20
2.783440
  0
VERTEX
  8
0
  6
CONTINUOUS
 10
3.911600
 20
2.701600
  0
VERTEX
  8
0
  6
CONTINUOUS
 10
3.885200
 20
2.642640
  0
VERTEX
  8
0
  6
CONTINUOUS
 10
3.852640
 20
2.602600
  0
VERTEX
  8
0
  6
CONTINUOUS
 10
3.815680
 20
2.579280
  0
VERTEX
  8
0
  6
CONTINUOUS
 10
3.777400
 20
2.568720
  0
VERTEX
  8
0
  6
CONTINUOUS
 10
3.707880
 20
2.574000
  0
VERTEX
  8
0
  6
CONTINUOUS
 10
3.707000
 20
2.513280
  0
VERTEX
  8
0
  6
CONTINUOUS
 10
3.688960
 20
2.462680
  0
VERTEX
  8
0
  6
CONTINUOUS
 10
3.657280
 20
2.423080
  0
VERTEX
  8
0
  6
CONTINUOUS
 10
3.615480
 20
2.397120
  0
VERTEX
  8
0
  6
CONTINUOUS
 10
3.567520
 20
2.385680
  0
VERTEX
  8
0
  6
CONTINUOUS
 10
3.517360
 20
2.391400
  0
VERTEX
  8
0
  6
CONTINUOUS
 10
3.468080
 20
2.414720
  0
VERTEX
  8
0
  6
CONTINUOUS
 10
3.398120
 20
2.483800
  0
VERTEX
  8
0
  6
CONTINUOUS
 10
3.369080
 20
2.500960
  0
VERTEX
  8
0
  6
CONTINUOUS
 10
3.301760
 20
2.528240
  0
VERTEX
  8
0
  6
CONTINUOUS
 10
3.241480
 20
2.535280
  0
VERTEX
  8
0
  6
CONTINUOUS
 10
3.173720
 20
2.537040
  0
VERTEX
  8
0
  6
CONTINUOUS
 10
3.020600
 20
2.520760
  0
VERTEX
  8
0
  6
CONTINUOUS
 10
2.938320
 20
2.500520
  0
VERTEX
  8
0
  6
CONTINUOUS
 10
2.853840
 20
2.471040
  0
VERTEX
  8
0
  6
CONTINUOUS
 10
2.768920
 20
2.431440
  0
VERTEX
  8
0
  6
CONTINUOUS
 10
2.684440
 20
2.380840
  0
VERTEX
  8
0
  6
CONTINUOUS
 10
2.602160
 20
2.317920
  0
VERTEX
  8
0
  6
CONTINUOUS
 10
2.523400
 20
2.241360
  0
VERTEX
  8
0
  6
CONTINUOUS
 10
2.449480
 20
2.151160
  0
VERTEX
  8
0
  6
CONTINUOUS
 10
2.381720
 20
2.045560
  0
VERTEX
  8
0
  6
CONTINUOUS
 10
2.321880
 20
1.923680
  0
VERTEX
  8
0
  6
CONTINUOUS
 10
2.270840
 20
1.784640
  0
VERTEX
  8
0
  6
CONTINUOUS
 10
2.230360
 20
1.627560
  0
VERTEX
  8
0
  6
CONTINUOUS
 10
2.201760
 20
1.451560
  0
VERTEX
  8
0
  6
CONTINUOUS
 10
2.027080
 20
1.442320
  0
VERTEX
  8
0
  6
CONTINUOUS
 10
2.037200
 20
1.340240
  0
VERTEX
  8
0
  6
CONTINUOUS
 10
2.028840
 20
1.250480
  0
VERTEX
  8
0
  6
CONTINUOUS
 10
2.005080
 20
1.173040
  0
VERTEX
  8
0
  6
CONTINUOUS
 10
1.967240
 20
1.107920
  0
VERTEX
  8
0
  6
CONTINUOUS
 10
1.918840
 20
1.055120
  0
VERTEX
  8
0
  6
CONTINUOUS
 10
1.861200
 20
1.015080
  0
VERTEX
  8
0
  6
CONTINUOUS
 10
1.797400
 20
0.987360
  0
VERTEX
  8
0
  6
CONTINUOUS
 10
1.729640
 20
0.971960
  0
VERTEX
  8
0
  6
CONTINUOUS
 10
1.660560
 20
0.969320
  0
VERTEX
  8
0
  6
CONTINUOUS
 10
1.591920
 20
0.979440
  0
VERTEX
  8
0
  6
CONTINUOUS
 10
1.526800
 20
1.002320
  0
VERTEX
  8
0
  6
CONTINUOUS
 10
1.466960
 20
1.037960
  0
VERTEX
  8
0
  6
CONTINUOUS
 10
1.415040
 20
1.085920
  0
VERTEX
  8
0
  6
CONTINUOUS
 10
1.373680
 20
1.147080
  0
VERTEX
  8
0
  6
CONTINUOUS
 10
1.345080
 20
1.221000
  0
VERTEX
  8
0
  6
CONTINUOUS
 10
1.331440
 20
1.307680
  0
VERTEX
  8
0
  6
CONTINUOUS
 10
1.254440
 20
1.318240
  0
VERTEX
  8
0
  6
CONTINUOUS
 10
1.259280
 20
1.642520
  0
VERTEX
  8
0
  6
CONTINUOUS
 10
2.752200
 20
2.816880
  0
VERTEX
  8
0
  6
CONTINUOUS
 10
2.852520
 20
2.889480
  0
VERTEX
  8
0
  6
CONTINUOUS
 10
3.934040
 20
2.891240
  0
SEQEND
  8
0
  0
TEXT
  8
0
 10
3.124000
 20
0.794200
 40
0.138049
  1
BA  1043
 41
1.000000
  7
SN0
 71
     0
 72
     5
 11
3.806079
 21
0.794200
  0
TEXT
  8
0
 10
3.014000
 20
0.602360
 40
0.138049
  1
7/8" x 3-1/8"
 41
1.000000
  7
SN0
 71
     0
 72
     5
 11
3.914507
 21
0.602360
  0
POLYLINE
  8
0
  6
CONTINUOUS
 66
     1
 40
0.014080
 41
0.014080
  0
VERTEX
  8
0
  6
CONTINUOUS
 10
4.934600
 20
2.762760
  0
VERTEX
  8
0
  6
CONTINUOUS
 10
4.970680
 20
2.807200
  0
VERTEX
  8
0
  6
CONTINUOUS
 10
5.022160
 20
2.860000
  0
VERTEX
  8
0
  6
CONTINUOUS
 10
5.069240
 20
2.897840
  0
VERTEX
  8
0
  6
CONTINUOUS
 10
5.099160
 20
2.915880
  0
VERTEX
  8
0
  6
CONTINUOUS
 10
5.126880
 20
2.928200
  0
VERTEX
  8
0
  6
CONTINUOUS
 10
5.152840
 20
2.935680
  0
VERTEX
  8
0
  6
CONTINUOUS
 10
5.177040
 20
2.939200
  0
VERTEX
  8
0
  6
CONTINUOUS
 10
5.199920
 20
2.938760
  0
VERTEX
  8
0
  6
CONTINUOUS
 10
5.230280
 20
2.932160
  0
VERTEX
  8
0
  6
CONTINUOUS
 10
5.257120
 20
2.919400
  0
VERTEX
  8
0
  6
CONTINUOUS
 10
5.272520
 20
2.909280
  0
VERTEX
  8
0
  6
CONTINUOUS
 10
5.298480
 20
2.885080
  0
VERTEX
  8
0
  6
CONTINUOUS
 10
5.308600
 20
2.872320
  0
VERTEX
  8
0
  6
CONTINUOUS
 10
5.326200
 20
2.898280
  0
VERTEX
  8
0
  6
CONTINUOUS
 10
5.346440
 20
2.919400
  0
VERTEX
  8
0
  6
CONTINUOUS
 10
5.368880
 20
2.936120
  0
VERTEX
  8
0
  6
CONTINUOUS
 10
5.392200
 20
2.948000
  0
VERTEX
  8
0
  6
CONTINUOUS
 10
5.416840
 20
2.955920
  0
VERTEX
  8
0
  6
CONTINUOUS
 10
5.441480
 20
2.959440
  0
VERTEX
  8
0
  6
CONTINUOUS
 10
5.466120
 20
2.958560
  0
VERTEX
  8
0
  6
CONTINUOUS
 10
5.490320
 20
2.954160
  0
VERTEX
  8
0
  6
CONTINUOUS
 10
5.524640
 20
2.940080
  0
VERTEX
  8
0
  6
CONTINUOUS
 10
5.545320
 20
2.925560
  0
VERTEX
  8
0
  6
CONTINUOUS
 10
5.571720
 20
2.897840
  0
VERTEX
  8
0
  6
CONTINUOUS
 10
5.585360
 20
2.874960
  0
VERTEX
  8
0
  6
CONTINUOUS
 10
5.595480
 20
2.849000
  0
VERTEX
  8
0
  6
CONTINUOUS
 10
5.599440
 20
2.834480
  0
VERTEX
  8
0
  6
CONTINUOUS
 10
5.603400
 20
2.804120
  0
VERTEX
  8
0
  6
CONTINUOUS
 10
5.604720
 20
2.768480
  0
VERTEX
  8
0
  6
CONTINUOUS
 10
5.607800
 20
2.751320
  0
VERTEX
  8
0
  6
CONTINUOUS
 10
5.613080
 20
2.735480
  0
VERTEX
  8
0
  6
CONTINUOUS
 10
5.628040
 20
2.704680
  0
VERTEX
  8
0
  6
CONTINUOUS
 10
5.656200
 20
2.656720
  0
VERTEX
  8
0
  6
CONTINUOUS
 10
5.698880
 20
2.614040
  0
VERTEX
  8
0
  6
CONTINUOUS
 10
5.751240
 20
2.570920
  0
VERTEX
  8
0
  6
CONTINUOUS
 10
5.811960
 20
2.528680
  0
VERTEX
  8
0
  6
CONTINUOUS
 10
5.881480
 20
2.489080
  0
VERTEX
  8
0
  6
CONTINUOUS
 10
5.958480
 20
2.453880
  0
VERTEX
  8
0
  6
CONTINUOUS
 10
5.999840
 20
2.438480
  0
VERTEX
  8
0
  6
CONTINUOUS
 10
6.065400
 20
2.418680
  0
VERTEX
  8
0
  6
CONTINUOUS
 10
6.134480
 20
2.403280
  0
VERTEX
  8
0
  6
CONTINUOUS
 10
6.182440
 20
2.395800
  0
VERTEX
  8
0
  6
CONTINUOUS
 10
6.232160
 20
2.390960
  0
VERTEX
  8
0
  6
CONTINUOUS
 10
6.283200
 20
2.388760
  0
VERTEX
  8
0
  6
CONTINUOUS
 10
6.336000
 20
2.389640
  0
VERTEX
  8
0
  6
CONTINUOUS
 10
6.417400
 20
2.396680
  0
VERTEX
  8
0
  6
CONTINUOUS
 10
6.501440
 20
2.411640
  0
VERTEX
  8
0
  6
CONTINUOUS
 10
6.559080
 20
2.426160
  0
VERTEX
  8
0
  6
CONTINUOUS
 10
6.618040
 20
2.444640
  0
VERTEX
  8
0
  6
CONTINUOUS
 10
6.707800
 20
2.480280
  0
VERTEX
  8
0
  6
CONTINUOUS
 10
6.768960
 20
2.509760
  0
VERTEX
  8
0
  6
CONTINUOUS
 10
6.831440
 20
2.543640
  0
VERTEX
  8
0
  6
CONTINUOUS
 10
6.894360
 20
2.582360
  0
VERTEX
  8
0
  6
CONTINUOUS
 10
6.990280
 20
2.650120
  0
VERTEX
  8
0
  6
CONTINUOUS
 10
7.054960
 20
2.702040
  0
VERTEX
  8
0
  6
CONTINUOUS
 10
7.153520
 20
2.790480
  0
VERTEX
  8
0
  6
CONTINUOUS
 10
7.186520
 20
2.823040
  0
VERTEX
  8
0
  6
CONTINUOUS
 10
7.329080
 20
2.721840
  0
VERTEX
  8
0
  6
CONTINUOUS
 10
7.355480
 20
2.768040
  0
VERTEX
  8
0
  6
CONTINUOUS
 10
7.384080
 20
2.808520
  0
VERTEX
  8
0
  6
CONTINUOUS
 10
7.414440
 20
2.843720
  0
VERTEX
  8
0
  6
CONTINUOUS
 10
7.446120
 20
2.874080
  0
VERTEX
  8
0
  6
CONTINUOUS
 10
7.479120
 20
2.899160
  0
VERTEX
  8
0
  6
CONTINUOUS
 10
7.513000
 20
2.919840
  0
VERTEX
  8
0
  6
CONTINUOUS
 10
7.547760
 20
2.936120
  0
VERTEX
  8
0
  6
CONTINUOUS
 10
7.582960
 20
2.948000
  0
VERTEX
  8
0
  6
CONTINUOUS
 10
7.618160
 20
2.955480
  0
VERTEX
  8
0
  6
CONTINUOUS
 10
7.653800
 20
2.959440
  0
VERTEX
  8
0
  6
CONTINUOUS
 10
7.671400
 20
2.959880
  0
VERTEX
  8
0
  6
CONTINUOUS
 10
7.706160
 20
2.957680
  0
VERTEX
  8
0
  6
CONTINUOUS
 10
7.740920
 20
2.952400
  0
VERTEX
  8
0
  6
CONTINUOUS
 10
7.774360
 20
2.943600
  0
VERTEX
  8
0
  6
CONTINUOUS
 10
7.806920
 20
2.931280
  0
VERTEX
  8
0
  6
CONTINUOUS
 10
7.853560
 20
2.907960
  0
VERTEX
  8
0
  6
CONTINUOUS
 10
7.896240
 20
2.878040
  0
VERTEX
  8
0
  6
CONTINUOUS
 10
7.934520
 20
2.842840
  0
VERTEX
  8
0
  6
CONTINUOUS
 10
7.957400
 20
2.816880
  0
VERTEX
  8
0
  6
CONTINUOUS
 10
7.986440
 20
2.773760
  0
VERTEX
  8
0
  6
CONTINUOUS
 10
8.008880
 20
2.726680
  0
VERTEX
  8
0
  6
CONTINUOUS
 10
8.019440
 20
2.693680
  0
VERTEX
  8
0
  6
CONTINUOUS
 10
8.026920
 20
2.659360
  0
VERTEX
  8
0
  6
CONTINUOUS
 10
8.030440
 20
2.623720
  0
VERTEX
  8
0
  6
CONTINUOUS
 10
8.030880
 20
2.605680
  0
VERTEX
  8
0
  6
CONTINUOUS
 10
8.028240
 20
2.568720
  0
VERTEX
  8
0
  6
CONTINUOUS
 10
8.021200
 20
2.531320
  0
VERTEX
  8
0
  6
CONTINUOUS
 10
8.009760
 20
2.493480
  0
VERTEX
  8
0
  6
CONTINUOUS
 10
7.993480
 20
2.455200
  0
VERTEX
  8
0
  6
CONTINUOUS
 10
7.971920
 20
2.416920
  0
VERTEX
  8
0
  6
CONTINUOUS
 10
7.959160
 20
2.397560
  0
VERTEX
  8
0
  6
CONTINUOUS
 10
8.012840
 20
2.341680
  0
VERTEX
  8
0
  6
CONTINUOUS
 10
7.808680
 20
2.090000
  0
VERTEX
  8
0
  6
CONTINUOUS
 10
5.909200
 20
2.090000
  0
VERTEX
  8
0
  6
CONTINUOUS
 10
5.785560
 20
2.095720
  0
VERTEX
  8
0
  6
CONTINUOUS
 10
4.934600
 20
2.762760
  0
SEQEND
  8
0
  0
TEXT
  8
0
 10
6.914160
 20
2.361040
 40
0.138049
  1
BA  1043
 41
1.000000
  7
SN0
 71
     0
 72
     5
 11
7.596239
 21
2.361040
  0
TEXT
  8
0
 10
6.804600
 20
2.169640
 40
0.138049
  1
7/8" x 3-1/8"
 41
1.000000
  7
SN0
 71
     0
 72
     5
 11
7.705107
 21
2.169640
  0
ENDSEC
  0
EOF
