  0
SECTION
  2
HEADER
  9
$ACADVER
  1
AC1006
  9
$EXTMIN
 10
1.211320
 20
0.390720
  9
$EXTMAX
 10
8.069600
 20
3.771240
  9
$LTSCALE
 40
0.044000
  9
$PDMODE
 70
    35
  9
$PDSIZE
 40
0.035200
  0
ENDSEC
  0
SECTION
  2
TABLES
  0
TABLE
  2
LTYPE
 70
     9
  0
LTYPE
  2
CONTINUOUS
 70
    64
  3
Solid line
 72
    65
 73
     0
 40
0.000000
  0
LTYPE
  2
DASHED
 70
    64
  3
__ __ __ __ __ __ __ __ __ __ __ __ __ __ __
 72
    65
 73
     2
 40
0.000330
 49
0.000220
 49
-0.000110
  0
LTYPE
  2
HIDDEN
 70
    64
  3
 _ _ _ _ _ _ _ _ _ _ _ _ _ _ _ _ _ _ _ _ _ _
 72
    65
 73
     2
 40
0.000165
 49
0.000110
 49
-0.000055
  0
LTYPE
  2
CENTER
 70
    64
  3
____ _ ____ _ ____ _ ____ _ ____ _ ____ _ ____
 72
    65
 73
     4
 40
0.000880
 49
0.000550
 49
-0.000110
 49
0.000110
 49
-0.000110
  0
LTYPE
  2
PHANTOM
 70
    64
  3
_____ _ _ _____ _ _ _____ _ _ _____ _ _ ____
 72
    65
 73
     6
 40
0.001100
 49
0.000550
 49
-0.000110
 49
0.000110
 49
-0.000110
 49
0.000110
 49
-0.000110
  0
LTYPE
  2
DOT
 70
    64
  3
...............................................
 72
    65
 73
     2
 40
0.000110
 49
0.000000
 49
-0.000110
  0
LTYPE
  2
DASHDOT
 70
    64
  3
__ . __ . __ . __ . __ . __ . __ . __ . __ . __
 72
    65
 73
     4
 40
0.000440
 49
0.000220
 49
-0.000110
 49
0.000000
 49
-0.000110
  0
LTYPE
  2
BORDER
 70
    64
  3
__ __ . __ __ . __ __ . __ __ . __ __ . __ __
 72
    65
 73
     6
 40
0.000770
 49
0.000220
 49
-0.000110
 49
0.000220
 49
-0.000110
 49
0.000000
 49
-0.000110
  0
LTYPE
  2
DIVIDE
 70
    64
  3
__ . . __ . . __ . . __ . . __ . . __ . . __
 72
    65
 73
     6
 40
0.000550
 49
0.000220
 49
-0.000110
 49
0.000000
 49
-0.000110
 49
0.000000
 49
-0.000110
  0
LTYPE
  2
DOTDOT
 70
    64
  3
 . .  . .  . .  . .  . .  . . 
 72
    65
 73
     5
 40
0.000242
 49
-0.000110
 49
0.000000
 49
-0.000110
 49
0.000000
 49
-0.000110
  0
ENDTAB
  0
TABLE
  2
STYLE
 70
     2
  0
STYLE
 70
     0
  2
SN0
 40
0.000000
 41
0.000440
 50
0.000000
 71
     0
 42
0.000000
  3
ROMAND
  0
STYLE
 70
    68
  2
SV0
 40
0.000000
 41
0.000440
 50
0.000000
 71
     0
 42
0.000000
  3
ROMAND
  0
ENDTAB
  0
TABLE
  2
LAYER
 70
     3
  0
LAYER
  2
FOREGROUND
 70
    64
 62
     7
  6
CONTINUOUS
  0
LAYER
  2
BACKGROUND
 70
    65
 62
    -7
  6
CONTINUOUS
  0
LAYER
  2
0
 70
    64
 62
     7
  6
CONTINUOUS
  0
ENDTAB
  0
ENDSEC
  0
SECTION
  2
ENTITIES
  0
POLYLINE
  8
FOREGROUND
  6
CONTINUOUS
 66
     1
 40
0.000000
 41
0.000000
  0
VERTEX
  8
FOREGROUND
  6
CONTINUOUS
 10
0.000000
 20
4.161960
  0
VERTEX
  8
FOREGROUND
  6
CONTINUOUS
 10
8.499920
 20
4.161960
  0
VERTEX
  8
FOREGROUND
  6
CONTINUOUS
 10
8.499920
 20
-6.838040
  0
VERTEX
  8
FOREGROUND
  6
CONTINUOUS
 10
0.000000
 20
-6.838040
  0
VERTEX
  8
FOREGROUND
  6
CONTINUOUS
 10
0.000000
 20
4.161960
  0
SEQEND
  8
0
  0
POLYLINE
  8
FOREGROUND
  6
CONTINUOUS
 66
     1
 40
0.000000
 41
0.000000
  0
VERTEX
  8
FOREGROUND
  6
CONTINUOUS
 10
0.000000
 20
4.161960
  0
VERTEX
  8
FOREGROUND
  6
CONTINUOUS
 10
8.499920
 20
4.161960
  0
VERTEX
  8
FOREGROUND
  6
CONTINUOUS
 10
8.499920
 20
-6.838040
  0
VERTEX
  8
FOREGROUND
  6
CONTINUOUS
 10
0.000000
 20
-6.838040
  0
VERTEX
  8
FOREGROUND
  6
CONTINUOUS
 10
0.000000
 20
4.161960
  0
SEQEND
  8
0
  0
SOLID
  8
0
 62
    15
 10
4.118400
 20
2.609200
 11
4.763880
 21
2.979240
 12
4.186600
 22
2.420880
 13
4.832080
 23
2.790920
  0
POLYLINE
  8
0
  6
CONTINUOUS
 66
     1
 40
0.000000
 41
0.000000
  0
VERTEX
  8
0
  6
CONTINUOUS
 10
4.118400
 20
2.609200
  0
VERTEX
  8
0
  6
CONTINUOUS
 10
4.763880
 20
2.979240
  0
VERTEX
  8
0
  6
CONTINUOUS
 10
4.832080
 20
2.790920
  0
VERTEX
  8
0
  6
CONTINUOUS
 10
4.186600
 20
2.420880
  0
VERTEX
  8
0
  6
CONTINUOUS
 10
4.118400
 20
2.609200
  0
SEQEND
  8
0
  0
SOLID
  8
0
 62
    15
 10
1.212200
 20
3.400320
 11
1.857680
 21
3.770360
 12
2.711720
 22
3.400320
 13
3.357640
 23
3.770360
  0
POLYLINE
  8
0
  6
CONTINUOUS
 66
     1
 40
0.000000
 41
0.000000
  0
VERTEX
  8
0
  6
CONTINUOUS
 10
1.212200
 20
3.400320
  0
VERTEX
  8
0
  6
CONTINUOUS
 10
1.857680
 20
3.770360
  0
VERTEX
  8
0
  6
CONTINUOUS
 10
3.357640
 20
3.770360
  0
VERTEX
  8
0
  6
CONTINUOUS
 10
2.711720
 20
3.400320
  0
VERTEX
  8
0
  6
CONTINUOUS
 10
1.212200
 20
3.400320
  0
SEQEND
  8
0
  0
SOLID
  8
0
 62
    15
 10
2.711720
 20
3.400320
 11
3.357640
 21
3.770360
 12
2.862200
 22
3.395040
 13
3.508120
 23
3.765080
  0
POLYLINE
  8
0
  6
CONTINUOUS
 66
     1
 40
0.000000
 41
0.000000
  0
VERTEX
  8
0
  6
CONTINUOUS
 10
2.711720
 20
3.400320
  0
VERTEX
  8
0
  6
CONTINUOUS
 10
3.357640
 20
3.770360
  0
VERTEX
  8
0
  6
CONTINUOUS
 10
3.508120
 20
3.765080
  0
VERTEX
  8
0
  6
CONTINUOUS
 10
2.862200
 20
3.395040
  0
VERTEX
  8
0
  6
CONTINUOUS
 10
2.711720
 20
3.400320
  0
SEQEND
  8
0
  0
SOLID
  8
0
 62
    15
 10
2.862200
 20
3.395040
 11
3.508120
 21
3.765080
 12
3.005640
 22
3.379200
 13
3.651120
 23
3.749240
  0
POLYLINE
  8
0
  6
CONTINUOUS
 66
     1
 40
0.000000
 41
0.000000
  0
VERTEX
  8
0
  6
CONTINUOUS
 10
2.862200
 20
3.395040
  0
VERTEX
  8
0
  6
CONTINUOUS
 10
3.508120
 20
3.765080
  0
VERTEX
  8
0
  6
CONTINUOUS
 10
3.651120
 20
3.749240
  0
VERTEX
  8
0
  6
CONTINUOUS
 10
3.005640
 20
3.379200
  0
VERTEX
  8
0
  6
CONTINUOUS
 10
2.862200
 20
3.395040
  0
SEQEND
  8
0
  0
SOLID
  8
0
 62
    15
 10
3.005640
 20
3.379200
 11
3.651120
 21
3.749240
 12
3.270080
 22
3.318920
 13
3.915560
 23
3.688960
  0
POLYLINE
  8
0
  6
CONTINUOUS
 66
     1
 40
0.000000
 41
0.000000
  0
VERTEX
  8
0
  6
CONTINUOUS
 10
3.005640
 20
3.379200
  0
VERTEX
  8
0
  6
CONTINUOUS
 10
3.651120
 20
3.749240
  0
VERTEX
  8
0
  6
CONTINUOUS
 10
3.915560
 20
3.688960
  0
VERTEX
  8
0
  6
CONTINUOUS
 10
3.270080
 20
3.318920
  0
VERTEX
  8
0
  6
CONTINUOUS
 10
3.005640
 20
3.379200
  0
SEQEND
  8
0
  0
SOLID
  8
0
 62
    15
 10
3.270080
 20
3.318920
 11
3.915560
 21
3.688960
 12
3.504160
 22
3.224760
 13
4.149640
 23
3.594800
  0
POLYLINE
  8
0
  6
CONTINUOUS
 66
     1
 40
0.000000
 41
0.000000
  0
VERTEX
  8
0
  6
CONTINUOUS
 10
3.270080
 20
3.318920
  0
VERTEX
  8
0
  6
CONTINUOUS
 10
3.915560
 20
3.688960
  0
VERTEX
  8
0
  6
CONTINUOUS
 10
4.149640
 20
3.594800
  0
VERTEX
  8
0
  6
CONTINUOUS
 10
3.504160
 20
3.224760
  0
VERTEX
  8
0
  6
CONTINUOUS
 10
3.270080
 20
3.318920
  0
SEQEND
  8
0
  0
SOLID
  8
0
 62
    15
 10
3.504160
 20
3.224760
 11
4.149640
 21
3.594800
 12
3.707000
 22
3.101560
 13
4.352480
 23
3.471600
  0
POLYLINE
  8
0
  6
CONTINUOUS
 66
     1
 40
0.000000
 41
0.000000
  0
VERTEX
  8
0
  6
CONTINUOUS
 10
3.504160
 20
3.224760
  0
VERTEX
  8
0
  6
CONTINUOUS
 10
4.149640
 20
3.594800
  0
VERTEX
  8
0
  6
CONTINUOUS
 10
4.352480
 20
3.471600
  0
VERTEX
  8
0
  6
CONTINUOUS
 10
3.707000
 20
3.101560
  0
VERTEX
  8
0
  6
CONTINUOUS
 10
3.504160
 20
3.224760
  0
SEQEND
  8
0
  0
SOLID
  8
0
 62
    15
 10
3.707000
 20
3.101560
 11
4.352480
 21
3.471600
 12
3.877720
 22
2.954160
 13
4.523200
 23
3.324640
  0
POLYLINE
  8
0
  6
CONTINUOUS
 66
     1
 40
0.000000
 41
0.000000
  0
VERTEX
  8
0
  6
CONTINUOUS
 10
3.707000
 20
3.101560
  0
VERTEX
  8
0
  6
CONTINUOUS
 10
4.352480
 20
3.471600
  0
VERTEX
  8
0
  6
CONTINUOUS
 10
4.523200
 20
3.324640
  0
VERTEX
  8
0
  6
CONTINUOUS
 10
3.877720
 20
2.954160
  0
VERTEX
  8
0
  6
CONTINUOUS
 10
3.707000
 20
3.101560
  0
SEQEND
  8
0
  0
SOLID
  8
0
 62
    15
 10
3.877720
 20
2.954160
 11
4.523200
 21
3.324640
 12
4.015000
 22
2.788720
 13
4.660480
 23
3.158760
  0
POLYLINE
  8
0
  6
CONTINUOUS
 66
     1
 40
0.000000
 41
0.000000
  0
VERTEX
  8
0
  6
CONTINUOUS
 10
3.877720
 20
2.954160
  0
VERTEX
  8
0
  6
CONTINUOUS
 10
4.523200
 20
3.324640
  0
VERTEX
  8
0
  6
CONTINUOUS
 10
4.660480
 20
3.158760
  0
VERTEX
  8
0
  6
CONTINUOUS
 10
4.015000
 20
2.788720
  0
VERTEX
  8
0
  6
CONTINUOUS
 10
3.877720
 20
2.954160
  0
SEQEND
  8
0
  0
SOLID
  8
0
 62
    15
 10
4.015000
 20
2.788720
 11
4.660480
 21
3.158760
 12
4.118400
 22
2.609200
 13
4.763880
 23
2.979240
  0
POLYLINE
  8
0
  6
CONTINUOUS
 66
     1
 40
0.000000
 41
0.000000
  0
VERTEX
  8
0
  6
CONTINUOUS
 10
4.015000
 20
2.788720
  0
VERTEX
  8
0
  6
CONTINUOUS
 10
4.660480
 20
3.158760
  0
VERTEX
  8
0
  6
CONTINUOUS
 10
4.763880
 20
2.979240
  0
VERTEX
  8
0
  6
CONTINUOUS
 10
4.118400
 20
2.609200
  0
VERTEX
  8
0
  6
CONTINUOUS
 10
4.015000
 20
2.788720
  0
SEQEND
  8
0
  0
SOLID
  8
0
 62
    15
 10
3.356320
 20
1.213080
 11
4.001800
 21
1.583120
 12
3.356320
 22
0.878680
 13
4.001800
 23
1.248720
  0
POLYLINE
  8
0
  6
CONTINUOUS
 66
     1
 40
0.000000
 41
0.000000
  0
VERTEX
  8
0
  6
CONTINUOUS
 10
3.356320
 20
1.213080
  0
VERTEX
  8
0
  6
CONTINUOUS
 10
4.001800
 20
1.583120
  0
VERTEX
  8
0
  6
CONTINUOUS
 10
4.001800
 20
1.248720
  0
VERTEX
  8
0
  6
CONTINUOUS
 10
3.356320
 20
0.878680
  0
VERTEX
  8
0
  6
CONTINUOUS
 10
3.356320
 20
1.213080
  0
SEQEND
  8
0
  0
SOLID
  8
0
 62
    15
 10
4.186600
 20
2.420880
 11
4.832080
 21
2.790920
 12
4.218720
 22
2.229040
 13
4.864640
 23
2.599080
  0
POLYLINE
  8
0
  6
CONTINUOUS
 66
     1
 40
0.000000
 41
0.000000
  0
VERTEX
  8
0
  6
CONTINUOUS
 10
4.186600
 20
2.420880
  0
VERTEX
  8
0
  6
CONTINUOUS
 10
4.832080
 20
2.790920
  0
VERTEX
  8
0
  6
CONTINUOUS
 10
4.864640
 20
2.599080
  0
VERTEX
  8
0
  6
CONTINUOUS
 10
4.218720
 20
2.229040
  0
VERTEX
  8
0
  6
CONTINUOUS
 10
4.186600
 20
2.420880
  0
SEQEND
  8
0
  0
SOLID
  8
0
 62
    15
 10
4.218720
 20
2.229040
 11
4.864640
 21
2.599080
 12
4.214320
 22
2.038960
 13
4.859800
 23
2.409000
  0
POLYLINE
  8
0
  6
CONTINUOUS
 66
     1
 40
0.000000
 41
0.000000
  0
VERTEX
  8
0
  6
CONTINUOUS
 10
4.218720
 20
2.229040
  0
VERTEX
  8
0
  6
CONTINUOUS
 10
4.864640
 20
2.599080
  0
VERTEX
  8
0
  6
CONTINUOUS
 10
4.859800
 20
2.409000
  0
VERTEX
  8
0
  6
CONTINUOUS
 10
4.214320
 20
2.038960
  0
VERTEX
  8
0
  6
CONTINUOUS
 10
4.218720
 20
2.229040
  0
SEQEND
  8
0
  0
SOLID
  8
0
 62
    15
 10
4.214320
 20
2.038960
 11
4.859800
 21
2.409000
 12
4.171640
 22
1.855040
 13
4.817120
 23
2.225520
  0
POLYLINE
  8
0
  6
CONTINUOUS
 66
     1
 40
0.000000
 41
0.000000
  0
VERTEX
  8
0
  6
CONTINUOUS
 10
4.214320
 20
2.038960
  0
VERTEX
  8
0
  6
CONTINUOUS
 10
4.859800
 20
2.409000
  0
VERTEX
  8
0
  6
CONTINUOUS
 10
4.817120
 20
2.225520
  0
VERTEX
  8
0
  6
CONTINUOUS
 10
4.171640
 20
1.855040
  0
VERTEX
  8
0
  6
CONTINUOUS
 10
4.214320
 20
2.038960
  0
SEQEND
  8
0
  0
SOLID
  8
0
 62
    15
 10
4.171640
 20
1.855040
 11
4.817120
 21
2.225520
 12
4.090240
 22
1.683000
 13
4.735720
 23
2.053480
  0
POLYLINE
  8
0
  6
CONTINUOUS
 66
     1
 40
0.000000
 41
0.000000
  0
VERTEX
  8
0
  6
CONTINUOUS
 10
4.171640
 20
1.855040
  0
VERTEX
  8
0
  6
CONTINUOUS
 10
4.817120
 20
2.225520
  0
VERTEX
  8
0
  6
CONTINUOUS
 10
4.735720
 20
2.053480
  0
VERTEX
  8
0
  6
CONTINUOUS
 10
4.090240
 20
1.683000
  0
VERTEX
  8
0
  6
CONTINUOUS
 10
4.171640
 20
1.855040
  0
SEQEND
  8
0
  0
SOLID
  8
0
 62
    15
 10
4.090240
 20
1.683000
 11
4.735720
 21
2.053480
 12
3.968800
 22
1.528120
 13
4.614280
 23
1.898160
  0
POLYLINE
  8
0
  6
CONTINUOUS
 66
     1
 40
0.000000
 41
0.000000
  0
VERTEX
  8
0
  6
CONTINUOUS
 10
4.090240
 20
1.683000
  0
VERTEX
  8
0
  6
CONTINUOUS
 10
4.735720
 20
2.053480
  0
VERTEX
  8
0
  6
CONTINUOUS
 10
4.614280
 20
1.898160
  0
VERTEX
  8
0
  6
CONTINUOUS
 10
3.968800
 20
1.528120
  0
VERTEX
  8
0
  6
CONTINUOUS
 10
4.090240
 20
1.683000
  0
SEQEND
  8
0
  0
SOLID
  8
0
 62
    15
 10
3.892680
 20
1.458160
 11
4.538160
 21
1.828200
 12
3.806440
 22
1.394360
 13
4.451920
 23
1.764400
  0
POLYLINE
  8
0
  6
CONTINUOUS
 66
     1
 40
0.000000
 41
0.000000
  0
VERTEX
  8
0
  6
CONTINUOUS
 10
3.892680
 20
1.458160
  0
VERTEX
  8
0
  6
CONTINUOUS
 10
4.538160
 20
1.828200
  0
VERTEX
  8
0
  6
CONTINUOUS
 10
4.451920
 20
1.764400
  0
VERTEX
  8
0
  6
CONTINUOUS
 10
3.806440
 20
1.394360
  0
VERTEX
  8
0
  6
CONTINUOUS
 10
3.892680
 20
1.458160
  0
SEQEND
  8
0
  0
SOLID
  8
0
 62
    15
 10
3.968800
 20
1.528120
 11
4.614280
 21
1.898160
 12
3.892680
 22
1.458160
 13
4.538160
 23
1.828200
  0
POLYLINE
  8
0
  6
CONTINUOUS
 66
     1
 40
0.000000
 41
0.000000
  0
VERTEX
  8
0
  6
CONTINUOUS
 10
3.968800
 20
1.528120
  0
VERTEX
  8
0
  6
CONTINUOUS
 10
4.614280
 20
1.898160
  0
VERTEX
  8
0
  6
CONTINUOUS
 10
4.538160
 20
1.828200
  0
VERTEX
  8
0
  6
CONTINUOUS
 10
3.892680
 20
1.458160
  0
VERTEX
  8
0
  6
CONTINUOUS
 10
3.968800
 20
1.528120
  0
SEQEND
  8
0
  0
SOLID
  8
0
 62
    15
 10
3.806440
 20
1.394360
 11
4.451920
 21
1.764400
 12
3.709640
 22
1.337600
 13
4.355560
 23
1.707640
  0
POLYLINE
  8
0
  6
CONTINUOUS
 66
     1
 40
0.000000
 41
0.000000
  0
VERTEX
  8
0
  6
CONTINUOUS
 10
3.806440
 20
1.394360
  0
VERTEX
  8
0
  6
CONTINUOUS
 10
4.451920
 20
1.764400
  0
VERTEX
  8
0
  6
CONTINUOUS
 10
4.355560
 20
1.707640
  0
VERTEX
  8
0
  6
CONTINUOUS
 10
3.709640
 20
1.337600
  0
VERTEX
  8
0
  6
CONTINUOUS
 10
3.806440
 20
1.394360
  0
SEQEND
  8
0
  0
SOLID
  8
0
 62
    15
 10
3.355880
 20
1.213080
 11
4.001800
 21
1.583120
 12
3.355880
 22
1.213080
 13
3.356320
 23
1.213080
  0
POLYLINE
  8
0
  6
CONTINUOUS
 66
     1
 40
0.000000
 41
0.000000
  0
VERTEX
  8
0
  6
CONTINUOUS
 10
3.355880
 20
1.213080
  0
VERTEX
  8
0
  6
CONTINUOUS
 10
4.001800
 20
1.583120
  0
VERTEX
  8
0
  6
CONTINUOUS
 10
3.356320
 20
1.213080
  0
VERTEX
  8
0
  6
CONTINUOUS
 10
3.355880
 20
1.213080
  0
SEQEND
  8
0
  0
POLYLINE
  8
0
  6
CONTINUOUS
 66
     1
 40
0.000000
 41
0.000000
  0
VERTEX
  8
0
  6
CONTINUOUS
 10
3.356320
 20
1.213080
  0
VERTEX
  8
0
  6
CONTINUOUS
 10
3.356320
 20
0.878680
  0
VERTEX
  8
0
  6
CONTINUOUS
 10
1.212200
 20
0.878680
  0
VERTEX
  8
0
  6
CONTINUOUS
 10
1.212200
 20
3.400320
  0
VERTEX
  8
0
  6
CONTINUOUS
 10
2.711720
 20
3.400320
  0
VERTEX
  8
0
  6
CONTINUOUS
 10
2.862200
 20
3.395040
  0
VERTEX
  8
0
  6
CONTINUOUS
 10
3.005640
 20
3.379200
  0
VERTEX
  8
0
  6
CONTINUOUS
 10
3.270080
 20
3.318920
  0
VERTEX
  8
0
  6
CONTINUOUS
 10
3.504160
 20
3.224760
  0
VERTEX
  8
0
  6
CONTINUOUS
 10
3.707000
 20
3.101560
  0
VERTEX
  8
0
  6
CONTINUOUS
 10
3.877720
 20
2.954160
  0
VERTEX
  8
0
  6
CONTINUOUS
 10
4.015000
 20
2.788720
  0
VERTEX
  8
0
  6
CONTINUOUS
 10
4.118400
 20
2.609200
  0
VERTEX
  8
0
  6
CONTINUOUS
 10
4.186600
 20
2.420880
  0
VERTEX
  8
0
  6
CONTINUOUS
 10
4.218720
 20
2.229040
  0
VERTEX
  8
0
  6
CONTINUOUS
 10
4.214320
 20
2.038960
  0
VERTEX
  8
0
  6
CONTINUOUS
 10
4.171640
 20
1.855040
  0
VERTEX
  8
0
  6
CONTINUOUS
 10
4.090240
 20
1.683000
  0
VERTEX
  8
0
  6
CONTINUOUS
 10
3.968800
 20
1.528120
  0
VERTEX
  8
0
  6
CONTINUOUS
 10
3.892680
 20
1.458160
  0
VERTEX
  8
0
  6
CONTINUOUS
 10
3.806440
 20
1.394360
  0
VERTEX
  8
0
  6
CONTINUOUS
 10
3.709640
 20
1.337600
  0
VERTEX
  8
0
  6
CONTINUOUS
 10
3.602720
 20
1.287880
  0
VERTEX
  8
0
  6
CONTINUOUS
 10
3.484800
 20
1.246080
  0
VERTEX
  8
0
  6
CONTINUOUS
 10
3.355880
 20
1.213080
  0
VERTEX
  8
0
  6
CONTINUOUS
 10
3.356320
 20
1.213080
  0
SEQEND
  8
0
  0
TEXT
  8
0
 10
2.695880
 20
0.626120
 40
0.137999
  1
BA  1039
 41
1.000000
  7
SN0
 71
     0
 72
     5
 11
3.377936
 21
0.626120
  0
TEXT
  8
0
 10
2.609200
 20
0.434280
 40
0.137999
  1
2-9/16" x 3"
 41
1.000000
  7
SN0
 71
     0
 72
     5
 11
3.464085
 21
0.434280
  0
POLYLINE
  8
0
  6
CONTINUOUS
 66
     1
 40
0.014080
 41
0.014080
  0
VERTEX
  8
0
  6
CONTINUOUS
 10
7.197520
 20
1.523280
  0
VERTEX
  8
0
  6
CONTINUOUS
 10
7.197520
 20
1.189320
  0
VERTEX
  8
0
  6
CONTINUOUS
 10
5.053400
 20
1.189320
  0
VERTEX
  8
0
  6
CONTINUOUS
 10
5.053400
 20
3.710960
  0
VERTEX
  8
0
  6
CONTINUOUS
 10
6.591200
 20
3.710520
  0
VERTEX
  8
0
  6
CONTINUOUS
 10
6.666440
 20
3.707880
  0
VERTEX
  8
0
  6
CONTINUOUS
 10
6.739920
 20
3.702600
  0
VERTEX
  8
0
  6
CONTINUOUS
 10
6.811640
 20
3.694680
  0
VERTEX
  8
0
  6
CONTINUOUS
 10
6.881160
 20
3.684120
  0
VERTEX
  8
0
  6
CONTINUOUS
 10
6.982800
 20
3.664320
  0
VERTEX
  8
0
  6
CONTINUOUS
 10
7.047920
 20
3.648040
  0
VERTEX
  8
0
  6
CONTINUOUS
 10
7.142080
 20
3.619440
  0
VERTEX
  8
0
  6
CONTINUOUS
 10
7.231840
 20
3.586440
  0
VERTEX
  8
0
  6
CONTINUOUS
 10
7.317640
 20
3.548600
  0
VERTEX
  8
0
  6
CONTINUOUS
 10
7.399040
 20
3.506800
  0
VERTEX
  8
0
  6
CONTINUOUS
 10
7.475600
 20
3.461040
  0
VERTEX
  8
0
  6
CONTINUOUS
 10
7.548200
 20
3.411760
  0
VERTEX
  8
0
  6
CONTINUOUS
 10
7.593960
 20
3.377440
  0
VERTEX
  8
0
  6
CONTINUOUS
 10
7.679320
 20
3.303520
  0
VERTEX
  8
0
  6
CONTINUOUS
 10
7.718920
 20
3.264800
  0
VERTEX
  8
0
  6
CONTINUOUS
 10
7.756320
 20
3.225200
  0
VERTEX
  8
0
  6
CONTINUOUS
 10
7.824960
 20
3.142040
  0
VERTEX
  8
0
  6
CONTINUOUS
 10
7.856200
 20
3.098920
  0
VERTEX
  8
0
  6
CONTINUOUS
 10
7.885240
 20
3.055360
  0
VERTEX
  8
0
  6
CONTINUOUS
 10
7.937160
 20
2.965600
  0
VERTEX
  8
0
  6
CONTINUOUS
 10
7.959600
 20
2.919400
  0
VERTEX
  8
0
  6
CONTINUOUS
 10
7.979840
 20
2.873200
  0
VERTEX
  8
0
  6
CONTINUOUS
 10
7.998320
 20
2.826120
  0
VERTEX
  8
0
  6
CONTINUOUS
 10
8.014160
 20
2.779040
  0
VERTEX
  8
0
  6
CONTINUOUS
 10
8.027800
 20
2.731080
  0
VERTEX
  8
0
  6
CONTINUOUS
 10
8.039240
 20
2.683560
  0
VERTEX
  8
0
  6
CONTINUOUS
 10
8.048480
 20
2.635600
  0
VERTEX
  8
0
  6
CONTINUOUS
 10
8.055520
 20
2.587640
  0
VERTEX
  8
0
  6
CONTINUOUS
 10
8.059920
 20
2.539680
  0
VERTEX
  8
0
  6
CONTINUOUS
 10
8.062560
 20
2.491720
  0
VERTEX
  8
0
  6
CONTINUOUS
 10
8.062560
 20
2.443760
  0
VERTEX
  8
0
  6
CONTINUOUS
 10
8.059920
 20
2.396240
  0
VERTEX
  8
0
  6
CONTINUOUS
 10
8.055520
 20
2.349160
  0
VERTEX
  8
0
  6
CONTINUOUS
 10
8.048480
 20
2.302520
  0
VERTEX
  8
0
  6
CONTINUOUS
 10
8.033080
 20
2.233440
  0
VERTEX
  8
0
  6
CONTINUOUS
 10
8.012840
 20
2.165680
  0
VERTEX
  8
0
  6
CONTINUOUS
 10
7.986880
 20
2.099240
  0
VERTEX
  8
0
  6
CONTINUOUS
 10
7.955200
 20
2.035000
  0
VERTEX
  8
0
  6
CONTINUOUS
 10
7.918240
 20
1.972960
  0
VERTEX
  8
0
  6
CONTINUOUS
 10
7.875560
 20
1.913560
  0
VERTEX
  8
0
  6
CONTINUOUS
 10
7.827160
 20
1.856360
  0
VERTEX
  8
0
  6
CONTINUOUS
 10
7.773040
 20
1.802680
  0
VERTEX
  8
0
  6
CONTINUOUS
 10
7.713200
 20
1.752080
  0
VERTEX
  8
0
  6
CONTINUOUS
 10
7.647640
 20
1.704560
  0
VERTEX
  8
0
  6
CONTINUOUS
 10
7.575920
 20
1.661440
  0
VERTEX
  8
0
  6
CONTINUOUS
 10
7.498480
 20
1.621840
  0
VERTEX
  8
0
  6
CONTINUOUS
 10
7.443920
 20
1.598080
  0
VERTEX
  8
0
  6
CONTINUOUS
 10
7.386280
 20
1.576080
  0
VERTEX
  8
0
  6
CONTINUOUS
 10
7.294760
 20
1.547040
  0
VERTEX
  8
0
  6
CONTINUOUS
 10
7.197080
 20
1.523280
  0
VERTEX
  8
0
  6
CONTINUOUS
 10
7.197520
 20
1.523280
  0
SEQEND
  8
0
  0
TEXT
  8
0
 10
5.883680
 20
1.566400
 40
0.137999
  1
BA  1039
 41
1.000000
  7
SN0
 71
     0
 72
     5
 11
6.565736
 21
1.566400
  0
TEXT
  8
0
 10
5.797000
 20
1.374560
 40
0.137999
  1
2-9/16" x 3"
 41
1.000000
  7
SN0
 71
     0
 72
     5
 11
6.651885
 21
1.374560
  0
ENDSEC
  0
EOF
