  0
SECTION
  2
HEADER
  9
$ACADVER
  1
AC1006
  9
$EXTMIN
 10
5.211800
 20
0.422840
  9
$EXTMAX
 10
8.184880
 20
2.574000
  9
$LTSCALE
 40
0.044000
  9
$PDMODE
 70
    35
  9
$PDSIZE
 40
0.035200
  0
ENDSEC
  0
SECTION
  2
TABLES
  0
TABLE
  2
LTYPE
 70
     9
  0
LTYPE
  2
CONTINUOUS
 70
    64
  3
Solid line
 72
    65
 73
     0
 40
0.000000
  0
LTYPE
  2
DASHED
 70
    64
  3
__ __ __ __ __ __ __ __ __ __ __ __ __ __ __
 72
    65
 73
     2
 40
0.000330
 49
0.000220
 49
-0.000110
  0
LTYPE
  2
HIDDEN
 70
    64
  3
 _ _ _ _ _ _ _ _ _ _ _ _ _ _ _ _ _ _ _ _ _ _
 72
    65
 73
     2
 40
0.000165
 49
0.000110
 49
-0.000055
  0
LTYPE
  2
CENTER
 70
    64
  3
____ _ ____ _ ____ _ ____ _ ____ _ ____ _ ____
 72
    65
 73
     4
 40
0.000880
 49
0.000550
 49
-0.000110
 49
0.000110
 49
-0.000110
  0
LTYPE
  2
PHANTOM
 70
    64
  3
_____ _ _ _____ _ _ _____ _ _ _____ _ _ ____
 72
    65
 73
     6
 40
0.001100
 49
0.000550
 49
-0.000110
 49
0.000110
 49
-0.000110
 49
0.000110
 49
-0.000110
  0
LTYPE
  2
DOT
 70
    64
  3
...............................................
 72
    65
 73
     2
 40
0.000110
 49
0.000000
 49
-0.000110
  0
LTYPE
  2
DASHDOT
 70
    64
  3
__ . __ . __ . __ . __ . __ . __ . __ . __ . __
 72
    65
 73
     4
 40
0.000440
 49
0.000220
 49
-0.000110
 49
0.000000
 49
-0.000110
  0
LTYPE
  2
BORDER
 70
    64
  3
__ __ . __ __ . __ __ . __ __ . __ __ . __ __
 72
    65
 73
     6
 40
0.000770
 49
0.000220
 49
-0.000110
 49
0.000220
 49
-0.000110
 49
0.000000
 49
-0.000110
  0
LTYPE
  2
DIVIDE
 70
    64
  3
__ . . __ . . __ . . __ . . __ . . __ . . __
 72
    65
 73
     6
 40
0.000550
 49
0.000220
 49
-0.000110
 49
0.000000
 49
-0.000110
 49
0.000000
 49
-0.000110
  0
LTYPE
  2
DOTDOT
 70
    64
  3
 . .  . .  . .  . .  . .  . . 
 72
    65
 73
     5
 40
0.000242
 49
-0.000110
 49
0.000000
 49
-0.000110
 49
0.000000
 49
-0.000110
  0
ENDTAB
  0
TABLE
  2
STYLE
 70
     2
  0
STYLE
 70
     0
  2
SN0
 40
0.000000
 41
0.000440
 50
0.000000
 71
     0
 42
0.000000
  3
ROMAND
  0
STYLE
 70
    68
  2
SV0
 40
0.000000
 41
0.000440
 50
0.000000
 71
     0
 42
0.000000
  3
ROMAND
  0
ENDTAB
  0
TABLE
  2
LAYER
 70
     3
  0
LAYER
  2
FOREGROUND
 70
    64
 62
     7
  6
CONTINUOUS
  0
LAYER
  2
BACKGROUND
 70
    65
 62
    -7
  6
CONTINUOUS
  0
LAYER
  2
0
 70
    64
 62
     7
  6
CONTINUOUS
  0
ENDTAB
  0
ENDSEC
  0
SECTION
  2
ENTITIES
  0
POLYLINE
  8
FOREGROUND
  6
CONTINUOUS
 66
     1
 40
0.000000
 41
0.000000
  0
VERTEX
  8
FOREGROUND
  6
CONTINUOUS
 10
0.000000
 20
2.996840
  0
VERTEX
  8
FOREGROUND
  6
CONTINUOUS
 10
8.499920
 20
2.996840
  0
VERTEX
  8
FOREGROUND
  6
CONTINUOUS
 10
8.499920
 20
-8.003160
  0
VERTEX
  8
FOREGROUND
  6
CONTINUOUS
 10
0.000000
 20
-8.003160
  0
VERTEX
  8
FOREGROUND
  6
CONTINUOUS
 10
0.000000
 20
2.996840
  0
SEQEND
  8
0
  0
POLYLINE
  8
FOREGROUND
  6
CONTINUOUS
 66
     1
 40
0.000000
 41
0.000000
  0
VERTEX
  8
FOREGROUND
  6
CONTINUOUS
 10
0.000000
 20
2.996840
  0
VERTEX
  8
FOREGROUND
  6
CONTINUOUS
 10
8.499920
 20
2.996840
  0
VERTEX
  8
FOREGROUND
  6
CONTINUOUS
 10
8.499920
 20
-8.003160
  0
VERTEX
  8
FOREGROUND
  6
CONTINUOUS
 10
0.000000
 20
-8.003160
  0
VERTEX
  8
FOREGROUND
  6
CONTINUOUS
 10
0.000000
 20
2.996840
  0
SEQEND
  8
0
  0
SOLID
  8
0
 62
    15
 10
5.821200
 20
1.447600
 11
6.462720
 21
1.818080
 12
5.847160
 22
1.429560
 13
6.488680
 23
1.800040
  0
POLYLINE
  8
0
  6
CONTINUOUS
 66
     1
 40
0.000000
 41
0.000000
  0
VERTEX
  8
0
  6
CONTINUOUS
 10
5.821200
 20
1.447600
  0
VERTEX
  8
0
  6
CONTINUOUS
 10
6.462720
 20
1.818080
  0
VERTEX
  8
0
  6
CONTINUOUS
 10
6.488680
 20
1.800040
  0
VERTEX
  8
0
  6
CONTINUOUS
 10
5.847160
 20
1.429560
  0
VERTEX
  8
0
  6
CONTINUOUS
 10
5.821200
 20
1.447600
  0
SEQEND
  8
0
  0
SOLID
  8
0
 62
    15
 10
5.395720
 20
2.182400
 11
6.037240
 21
2.552880
 12
5.585360
 22
1.992760
 13
6.226880
 23
2.363240
  0
POLYLINE
  8
0
  6
CONTINUOUS
 66
     1
 40
0.000000
 41
0.000000
  0
VERTEX
  8
0
  6
CONTINUOUS
 10
5.395720
 20
2.182400
  0
VERTEX
  8
0
  6
CONTINUOUS
 10
6.037240
 20
2.552880
  0
VERTEX
  8
0
  6
CONTINUOUS
 10
6.226880
 20
2.363240
  0
VERTEX
  8
0
  6
CONTINUOUS
 10
5.585360
 20
1.992760
  0
VERTEX
  8
0
  6
CONTINUOUS
 10
5.395720
 20
2.182400
  0
SEQEND
  8
0
  0
SOLID
  8
0
 62
    15
 10
5.585360
 20
1.992760
 11
6.226880
 21
2.363240
 12
5.553240
 22
1.954480
 13
6.194760
 23
2.324960
  0
POLYLINE
  8
0
  6
CONTINUOUS
 66
     1
 40
0.000000
 41
0.000000
  0
VERTEX
  8
0
  6
CONTINUOUS
 10
5.585360
 20
1.992760
  0
VERTEX
  8
0
  6
CONTINUOUS
 10
6.226880
 20
2.363240
  0
VERTEX
  8
0
  6
CONTINUOUS
 10
6.194760
 20
2.324960
  0
VERTEX
  8
0
  6
CONTINUOUS
 10
5.553240
 20
1.954480
  0
VERTEX
  8
0
  6
CONTINUOUS
 10
5.585360
 20
1.992760
  0
SEQEND
  8
0
  0
SOLID
  8
0
 62
    15
 10
5.553240
 20
1.954480
 11
6.194760
 21
2.324960
 12
5.531680
 22
1.915320
 13
6.173200
 23
2.285360
  0
POLYLINE
  8
0
  6
CONTINUOUS
 66
     1
 40
0.000000
 41
0.000000
  0
VERTEX
  8
0
  6
CONTINUOUS
 10
5.553240
 20
1.954480
  0
VERTEX
  8
0
  6
CONTINUOUS
 10
6.194760
 20
2.324960
  0
VERTEX
  8
0
  6
CONTINUOUS
 10
6.173200
 20
2.285360
  0
VERTEX
  8
0
  6
CONTINUOUS
 10
5.531680
 20
1.915320
  0
VERTEX
  8
0
  6
CONTINUOUS
 10
5.553240
 20
1.954480
  0
SEQEND
  8
0
  0
SOLID
  8
0
 62
    15
 10
5.531680
 20
1.915320
 11
6.173200
 21
2.285360
 12
5.519800
 22
1.875280
 13
6.161320
 23
2.245320
  0
POLYLINE
  8
0
  6
CONTINUOUS
 66
     1
 40
0.000000
 41
0.000000
  0
VERTEX
  8
0
  6
CONTINUOUS
 10
5.531680
 20
1.915320
  0
VERTEX
  8
0
  6
CONTINUOUS
 10
6.173200
 20
2.285360
  0
VERTEX
  8
0
  6
CONTINUOUS
 10
6.161320
 20
2.245320
  0
VERTEX
  8
0
  6
CONTINUOUS
 10
5.519800
 20
1.875280
  0
VERTEX
  8
0
  6
CONTINUOUS
 10
5.531680
 20
1.915320
  0
SEQEND
  8
0
  0
SOLID
  8
0
 62
    15
 10
5.519800
 20
1.875280
 11
6.161320
 21
2.245320
 12
5.516720
 22
1.834800
 13
6.158240
 23
2.205280
  0
POLYLINE
  8
0
  6
CONTINUOUS
 66
     1
 40
0.000000
 41
0.000000
  0
VERTEX
  8
0
  6
CONTINUOUS
 10
5.519800
 20
1.875280
  0
VERTEX
  8
0
  6
CONTINUOUS
 10
6.161320
 20
2.245320
  0
VERTEX
  8
0
  6
CONTINUOUS
 10
6.158240
 20
2.205280
  0
VERTEX
  8
0
  6
CONTINUOUS
 10
5.516720
 20
1.834800
  0
VERTEX
  8
0
  6
CONTINUOUS
 10
5.519800
 20
1.875280
  0
SEQEND
  8
0
  0
SOLID
  8
0
 62
     7
 10
5.516720
 20
1.834800
 11
6.158240
 21
2.205280
 12
5.521560
 22
1.794320
 13
6.162640
 23
2.164800
  0
POLYLINE
  8
0
  6
CONTINUOUS
 66
     1
 40
0.000000
 41
0.000000
  0
VERTEX
  8
0
  6
CONTINUOUS
 10
5.516720
 20
1.834800
  0
VERTEX
  8
0
  6
CONTINUOUS
 10
6.158240
 20
2.205280
  0
VERTEX
  8
0
  6
CONTINUOUS
 10
6.162640
 20
2.164800
  0
VERTEX
  8
0
  6
CONTINUOUS
 10
5.521560
 20
1.794320
  0
VERTEX
  8
0
  6
CONTINUOUS
 10
5.516720
 20
1.834800
  0
SEQEND
  8
0
  0
SOLID
  8
0
 62
     7
 10
5.521560
 20
1.794320
 11
6.162640
 21
2.164800
 12
5.533000
 22
1.754280
 13
6.174080
 23
2.124760
  0
POLYLINE
  8
0
  6
CONTINUOUS
 66
     1
 40
0.000000
 41
0.000000
  0
VERTEX
  8
0
  6
CONTINUOUS
 10
5.521560
 20
1.794320
  0
VERTEX
  8
0
  6
CONTINUOUS
 10
6.162640
 20
2.164800
  0
VERTEX
  8
0
  6
CONTINUOUS
 10
6.174080
 20
2.124760
  0
VERTEX
  8
0
  6
CONTINUOUS
 10
5.533000
 20
1.754280
  0
VERTEX
  8
0
  6
CONTINUOUS
 10
5.521560
 20
1.794320
  0
SEQEND
  8
0
  0
SOLID
  8
0
 62
     7
 10
5.533000
 20
1.754280
 11
6.174080
 21
2.124760
 12
5.550160
 22
1.715120
 13
6.191680
 23
2.085160
  0
POLYLINE
  8
0
  6
CONTINUOUS
 66
     1
 40
0.000000
 41
0.000000
  0
VERTEX
  8
0
  6
CONTINUOUS
 10
5.533000
 20
1.754280
  0
VERTEX
  8
0
  6
CONTINUOUS
 10
6.174080
 20
2.124760
  0
VERTEX
  8
0
  6
CONTINUOUS
 10
6.191680
 20
2.085160
  0
VERTEX
  8
0
  6
CONTINUOUS
 10
5.550160
 20
1.715120
  0
VERTEX
  8
0
  6
CONTINUOUS
 10
5.533000
 20
1.754280
  0
SEQEND
  8
0
  0
SOLID
  8
0
 62
     7
 10
5.550160
 20
1.715120
 11
6.191680
 21
2.085160
 12
5.572600
 22
1.676840
 13
6.214120
 23
2.046880
  0
POLYLINE
  8
0
  6
CONTINUOUS
 66
     1
 40
0.000000
 41
0.000000
  0
VERTEX
  8
0
  6
CONTINUOUS
 10
5.550160
 20
1.715120
  0
VERTEX
  8
0
  6
CONTINUOUS
 10
6.191680
 20
2.085160
  0
VERTEX
  8
0
  6
CONTINUOUS
 10
6.214120
 20
2.046880
  0
VERTEX
  8
0
  6
CONTINUOUS
 10
5.572600
 20
1.676840
  0
VERTEX
  8
0
  6
CONTINUOUS
 10
5.550160
 20
1.715120
  0
SEQEND
  8
0
  0
SOLID
  8
0
 62
     7
 10
5.572600
 20
1.676840
 11
6.214120
 21
2.046880
 12
5.599440
 22
1.639880
 13
6.240520
 23
2.009920
  0
POLYLINE
  8
0
  6
CONTINUOUS
 66
     1
 40
0.000000
 41
0.000000
  0
VERTEX
  8
0
  6
CONTINUOUS
 10
5.572600
 20
1.676840
  0
VERTEX
  8
0
  6
CONTINUOUS
 10
6.214120
 20
2.046880
  0
VERTEX
  8
0
  6
CONTINUOUS
 10
6.240520
 20
2.009920
  0
VERTEX
  8
0
  6
CONTINUOUS
 10
5.599440
 20
1.639880
  0
VERTEX
  8
0
  6
CONTINUOUS
 10
5.572600
 20
1.676840
  0
SEQEND
  8
0
  0
SOLID
  8
0
 62
     7
 10
5.599440
 20
1.639880
 11
6.240520
 21
2.009920
 12
5.628920
 22
1.604240
 13
6.270440
 23
1.974720
  0
POLYLINE
  8
0
  6
CONTINUOUS
 66
     1
 40
0.000000
 41
0.000000
  0
VERTEX
  8
0
  6
CONTINUOUS
 10
5.599440
 20
1.639880
  0
VERTEX
  8
0
  6
CONTINUOUS
 10
6.240520
 20
2.009920
  0
VERTEX
  8
0
  6
CONTINUOUS
 10
6.270440
 20
1.974720
  0
VERTEX
  8
0
  6
CONTINUOUS
 10
5.628920
 20
1.604240
  0
VERTEX
  8
0
  6
CONTINUOUS
 10
5.599440
 20
1.639880
  0
SEQEND
  8
0
  0
SOLID
  8
0
 62
     7
 10
5.628920
 20
1.604240
 11
6.270440
 21
1.974720
 12
5.694040
 22
1.540440
 13
6.335560
 23
1.910480
  0
POLYLINE
  8
0
  6
CONTINUOUS
 66
     1
 40
0.000000
 41
0.000000
  0
VERTEX
  8
0
  6
CONTINUOUS
 10
5.628920
 20
1.604240
  0
VERTEX
  8
0
  6
CONTINUOUS
 10
6.270440
 20
1.974720
  0
VERTEX
  8
0
  6
CONTINUOUS
 10
6.335560
 20
1.910480
  0
VERTEX
  8
0
  6
CONTINUOUS
 10
5.694040
 20
1.540440
  0
VERTEX
  8
0
  6
CONTINUOUS
 10
5.628920
 20
1.604240
  0
SEQEND
  8
0
  0
SOLID
  8
0
 62
     7
 10
5.694040
 20
1.540440
 11
6.335560
 21
1.910480
 12
5.727480
 22
1.512280
 13
6.369000
 23
1.882760
  0
POLYLINE
  8
0
  6
CONTINUOUS
 66
     1
 40
0.000000
 41
0.000000
  0
VERTEX
  8
0
  6
CONTINUOUS
 10
5.694040
 20
1.540440
  0
VERTEX
  8
0
  6
CONTINUOUS
 10
6.335560
 20
1.910480
  0
VERTEX
  8
0
  6
CONTINUOUS
 10
6.369000
 20
1.882760
  0
VERTEX
  8
0
  6
CONTINUOUS
 10
5.727480
 20
1.512280
  0
VERTEX
  8
0
  6
CONTINUOUS
 10
5.694040
 20
1.540440
  0
SEQEND
  8
0
  0
SOLID
  8
0
 62
     7
 10
5.727480
 20
1.512280
 11
6.369000
 21
1.882760
 12
5.760480
 22
1.487200
 13
6.402000
 23
1.857680
  0
POLYLINE
  8
0
  6
CONTINUOUS
 66
     1
 40
0.000000
 41
0.000000
  0
VERTEX
  8
0
  6
CONTINUOUS
 10
5.727480
 20
1.512280
  0
VERTEX
  8
0
  6
CONTINUOUS
 10
6.369000
 20
1.882760
  0
VERTEX
  8
0
  6
CONTINUOUS
 10
6.402000
 20
1.857680
  0
VERTEX
  8
0
  6
CONTINUOUS
 10
5.760480
 20
1.487200
  0
VERTEX
  8
0
  6
CONTINUOUS
 10
5.727480
 20
1.512280
  0
SEQEND
  8
0
  0
SOLID
  8
0
 62
    15
 10
5.760480
 20
1.487200
 11
6.402000
 21
1.857680
 12
5.792160
 22
1.465640
 13
6.433680
 23
1.835680
  0
POLYLINE
  8
0
  6
CONTINUOUS
 66
     1
 40
0.000000
 41
0.000000
  0
VERTEX
  8
0
  6
CONTINUOUS
 10
5.760480
 20
1.487200
  0
VERTEX
  8
0
  6
CONTINUOUS
 10
6.402000
 20
1.857680
  0
VERTEX
  8
0
  6
CONTINUOUS
 10
6.433680
 20
1.835680
  0
VERTEX
  8
0
  6
CONTINUOUS
 10
5.792160
 20
1.465640
  0
VERTEX
  8
0
  6
CONTINUOUS
 10
5.760480
 20
1.487200
  0
SEQEND
  8
0
  0
SOLID
  8
0
 62
    15
 10
5.792160
 20
1.465640
 11
6.433680
 21
1.835680
 12
5.821200
 22
1.447600
 13
6.462720
 23
1.818080
  0
POLYLINE
  8
0
  6
CONTINUOUS
 66
     1
 40
0.000000
 41
0.000000
  0
VERTEX
  8
0
  6
CONTINUOUS
 10
5.792160
 20
1.465640
  0
VERTEX
  8
0
  6
CONTINUOUS
 10
6.433680
 20
1.835680
  0
VERTEX
  8
0
  6
CONTINUOUS
 10
6.462720
 20
1.818080
  0
VERTEX
  8
0
  6
CONTINUOUS
 10
5.821200
 20
1.447600
  0
VERTEX
  8
0
  6
CONTINUOUS
 10
5.792160
 20
1.465640
  0
SEQEND
  8
0
  0
SOLID
  8
0
 62
    15
 10
5.264600
 20
2.182400
 11
5.905680
 21
2.552880
 12
5.395720
 22
2.182400
 13
6.037240
 23
2.552880
  0
POLYLINE
  8
0
  6
CONTINUOUS
 66
     1
 40
0.000000
 41
0.000000
  0
VERTEX
  8
0
  6
CONTINUOUS
 10
5.264600
 20
2.182400
  0
VERTEX
  8
0
  6
CONTINUOUS
 10
5.905680
 20
2.552880
  0
VERTEX
  8
0
  6
CONTINUOUS
 10
6.037240
 20
2.552880
  0
VERTEX
  8
0
  6
CONTINUOUS
 10
5.395720
 20
2.182400
  0
VERTEX
  8
0
  6
CONTINUOUS
 10
5.264600
 20
2.182400
  0
SEQEND
  8
0
  0
SOLID
  8
0
 62
     7
 10
5.847160
 20
1.429560
 11
6.488680
 21
1.800040
 12
5.870480
 22
1.408000
 13
6.511560
 23
1.778040
  0
POLYLINE
  8
0
  6
CONTINUOUS
 66
     1
 40
0.000000
 41
0.000000
  0
VERTEX
  8
0
  6
CONTINUOUS
 10
5.847160
 20
1.429560
  0
VERTEX
  8
0
  6
CONTINUOUS
 10
6.488680
 20
1.800040
  0
VERTEX
  8
0
  6
CONTINUOUS
 10
6.511560
 20
1.778040
  0
VERTEX
  8
0
  6
CONTINUOUS
 10
5.870480
 20
1.408000
  0
VERTEX
  8
0
  6
CONTINUOUS
 10
5.847160
 20
1.429560
  0
SEQEND
  8
0
  0
SOLID
  8
0
 62
     7
 10
5.870480
 20
1.408000
 11
6.511560
 21
1.778040
 12
5.890280
 22
1.382480
 13
6.531360
 23
1.752960
  0
POLYLINE
  8
0
  6
CONTINUOUS
 66
     1
 40
0.000000
 41
0.000000
  0
VERTEX
  8
0
  6
CONTINUOUS
 10
5.870480
 20
1.408000
  0
VERTEX
  8
0
  6
CONTINUOUS
 10
6.511560
 20
1.778040
  0
VERTEX
  8
0
  6
CONTINUOUS
 10
6.531360
 20
1.752960
  0
VERTEX
  8
0
  6
CONTINUOUS
 10
5.890280
 20
1.382480
  0
VERTEX
  8
0
  6
CONTINUOUS
 10
5.870480
 20
1.408000
  0
SEQEND
  8
0
  0
SOLID
  8
0
 62
     7
 10
5.890280
 20
1.382480
 11
6.531360
 21
1.752960
 12
5.906560
 22
1.354320
 13
6.548080
 23
1.724800
  0
POLYLINE
  8
0
  6
CONTINUOUS
 66
     1
 40
0.000000
 41
0.000000
  0
VERTEX
  8
0
  6
CONTINUOUS
 10
5.890280
 20
1.382480
  0
VERTEX
  8
0
  6
CONTINUOUS
 10
6.531360
 20
1.752960
  0
VERTEX
  8
0
  6
CONTINUOUS
 10
6.548080
 20
1.724800
  0
VERTEX
  8
0
  6
CONTINUOUS
 10
5.906560
 20
1.354320
  0
VERTEX
  8
0
  6
CONTINUOUS
 10
5.890280
 20
1.382480
  0
SEQEND
  8
0
  0
SOLID
  8
0
 62
     7
 10
5.906560
 20
1.354320
 11
6.548080
 21
1.724800
 12
5.919320
 22
1.323960
 13
6.560840
 23
1.694440
  0
POLYLINE
  8
0
  6
CONTINUOUS
 66
     1
 40
0.000000
 41
0.000000
  0
VERTEX
  8
0
  6
CONTINUOUS
 10
5.906560
 20
1.354320
  0
VERTEX
  8
0
  6
CONTINUOUS
 10
6.548080
 20
1.724800
  0
VERTEX
  8
0
  6
CONTINUOUS
 10
6.560840
 20
1.694440
  0
VERTEX
  8
0
  6
CONTINUOUS
 10
5.919320
 20
1.323960
  0
VERTEX
  8
0
  6
CONTINUOUS
 10
5.906560
 20
1.354320
  0
SEQEND
  8
0
  0
SOLID
  8
0
 62
     7
 10
5.919320
 20
1.323960
 11
6.560840
 21
1.694440
 12
5.928560
 22
1.291840
 13
6.570080
 23
1.661880
  0
POLYLINE
  8
0
  6
CONTINUOUS
 66
     1
 40
0.000000
 41
0.000000
  0
VERTEX
  8
0
  6
CONTINUOUS
 10
5.919320
 20
1.323960
  0
VERTEX
  8
0
  6
CONTINUOUS
 10
6.560840
 20
1.694440
  0
VERTEX
  8
0
  6
CONTINUOUS
 10
6.570080
 20
1.661880
  0
VERTEX
  8
0
  6
CONTINUOUS
 10
5.928560
 20
1.291840
  0
VERTEX
  8
0
  6
CONTINUOUS
 10
5.919320
 20
1.323960
  0
SEQEND
  8
0
  0
SOLID
  8
0
 62
    15
 10
5.928560
 20
1.291840
 11
6.570080
 21
1.661880
 12
5.933840
 22
1.257960
 13
6.575360
 23
1.628000
  0
POLYLINE
  8
0
  6
CONTINUOUS
 66
     1
 40
0.000000
 41
0.000000
  0
VERTEX
  8
0
  6
CONTINUOUS
 10
5.928560
 20
1.291840
  0
VERTEX
  8
0
  6
CONTINUOUS
 10
6.570080
 20
1.661880
  0
VERTEX
  8
0
  6
CONTINUOUS
 10
6.575360
 20
1.628000
  0
VERTEX
  8
0
  6
CONTINUOUS
 10
5.933840
 20
1.257960
  0
VERTEX
  8
0
  6
CONTINUOUS
 10
5.928560
 20
1.291840
  0
SEQEND
  8
0
  0
SOLID
  8
0
 62
    15
 10
5.933840
 20
1.257960
 11
6.575360
 21
1.628000
 12
5.935160
 22
1.223200
 13
6.576680
 23
1.593680
  0
POLYLINE
  8
0
  6
CONTINUOUS
 66
     1
 40
0.000000
 41
0.000000
  0
VERTEX
  8
0
  6
CONTINUOUS
 10
5.933840
 20
1.257960
  0
VERTEX
  8
0
  6
CONTINUOUS
 10
6.575360
 20
1.628000
  0
VERTEX
  8
0
  6
CONTINUOUS
 10
6.576680
 20
1.593680
  0
VERTEX
  8
0
  6
CONTINUOUS
 10
5.935160
 20
1.223200
  0
VERTEX
  8
0
  6
CONTINUOUS
 10
5.933840
 20
1.257960
  0
SEQEND
  8
0
  0
SOLID
  8
0
 62
    15
 10
5.935160
 20
1.223200
 11
6.576680
 21
1.593680
 12
5.932520
 22
1.188000
 13
6.574040
 23
1.558480
  0
POLYLINE
  8
0
  6
CONTINUOUS
 66
     1
 40
0.000000
 41
0.000000
  0
VERTEX
  8
0
  6
CONTINUOUS
 10
5.935160
 20
1.223200
  0
VERTEX
  8
0
  6
CONTINUOUS
 10
6.576680
 20
1.593680
  0
VERTEX
  8
0
  6
CONTINUOUS
 10
6.574040
 20
1.558480
  0
VERTEX
  8
0
  6
CONTINUOUS
 10
5.932520
 20
1.188000
  0
VERTEX
  8
0
  6
CONTINUOUS
 10
5.935160
 20
1.223200
  0
SEQEND
  8
0
  0
SOLID
  8
0
 62
    15
 10
5.932520
 20
1.188000
 11
6.574040
 21
1.558480
 12
5.925480
 22
1.153240
 13
6.566560
 23
1.523280
  0
POLYLINE
  8
0
  6
CONTINUOUS
 66
     1
 40
0.000000
 41
0.000000
  0
VERTEX
  8
0
  6
CONTINUOUS
 10
5.932520
 20
1.188000
  0
VERTEX
  8
0
  6
CONTINUOUS
 10
6.574040
 20
1.558480
  0
VERTEX
  8
0
  6
CONTINUOUS
 10
6.566560
 20
1.523280
  0
VERTEX
  8
0
  6
CONTINUOUS
 10
5.925480
 20
1.153240
  0
VERTEX
  8
0
  6
CONTINUOUS
 10
5.932520
 20
1.188000
  0
SEQEND
  8
0
  0
SOLID
  8
0
 62
    15
 10
5.925480
 20
1.153240
 11
6.566560
 21
1.523280
 12
5.913600
 22
1.118480
 13
6.555120
 23
1.488960
  0
POLYLINE
  8
0
  6
CONTINUOUS
 66
     1
 40
0.000000
 41
0.000000
  0
VERTEX
  8
0
  6
CONTINUOUS
 10
5.925480
 20
1.153240
  0
VERTEX
  8
0
  6
CONTINUOUS
 10
6.566560
 20
1.523280
  0
VERTEX
  8
0
  6
CONTINUOUS
 10
6.555120
 20
1.488960
  0
VERTEX
  8
0
  6
CONTINUOUS
 10
5.913600
 20
1.118480
  0
VERTEX
  8
0
  6
CONTINUOUS
 10
5.925480
 20
1.153240
  0
SEQEND
  8
0
  0
SOLID
  8
0
 62
    15
 10
5.913600
 20
1.118480
 11
6.555120
 21
1.488960
 12
5.897320
 22
1.085480
 13
6.538840
 23
1.455520
  0
POLYLINE
  8
0
  6
CONTINUOUS
 66
     1
 40
0.000000
 41
0.000000
  0
VERTEX
  8
0
  6
CONTINUOUS
 10
5.913600
 20
1.118480
  0
VERTEX
  8
0
  6
CONTINUOUS
 10
6.555120
 20
1.488960
  0
VERTEX
  8
0
  6
CONTINUOUS
 10
6.538840
 20
1.455520
  0
VERTEX
  8
0
  6
CONTINUOUS
 10
5.897320
 20
1.085480
  0
VERTEX
  8
0
  6
CONTINUOUS
 10
5.913600
 20
1.118480
  0
SEQEND
  8
0
  0
SOLID
  8
0
 62
    15
 10
5.897320
 20
1.085480
 11
6.538840
 21
1.455520
 12
5.876200
 22
1.053360
 13
6.517720
 23
1.423840
  0
POLYLINE
  8
0
  6
CONTINUOUS
 66
     1
 40
0.000000
 41
0.000000
  0
VERTEX
  8
0
  6
CONTINUOUS
 10
5.897320
 20
1.085480
  0
VERTEX
  8
0
  6
CONTINUOUS
 10
6.538840
 20
1.455520
  0
VERTEX
  8
0
  6
CONTINUOUS
 10
6.517720
 20
1.423840
  0
VERTEX
  8
0
  6
CONTINUOUS
 10
5.876200
 20
1.053360
  0
VERTEX
  8
0
  6
CONTINUOUS
 10
5.897320
 20
1.085480
  0
SEQEND
  8
0
  0
SOLID
  8
0
 62
    15
 10
5.876200
 20
1.053360
 11
6.517720
 21
1.423840
 12
5.850240
 22
1.023440
 13
6.491760
 23
1.393920
  0
POLYLINE
  8
0
  6
CONTINUOUS
 66
     1
 40
0.000000
 41
0.000000
  0
VERTEX
  8
0
  6
CONTINUOUS
 10
5.876200
 20
1.053360
  0
VERTEX
  8
0
  6
CONTINUOUS
 10
6.517720
 20
1.423840
  0
VERTEX
  8
0
  6
CONTINUOUS
 10
6.491760
 20
1.393920
  0
VERTEX
  8
0
  6
CONTINUOUS
 10
5.850240
 20
1.023440
  0
VERTEX
  8
0
  6
CONTINUOUS
 10
5.876200
 20
1.053360
  0
SEQEND
  8
0
  0
SOLID
  8
0
 62
    15
 10
5.850240
 20
1.023440
 11
6.491760
 21
1.393920
 12
5.819000
 22
0.996160
 13
6.460520
 23
1.366640
  0
POLYLINE
  8
0
  6
CONTINUOUS
 66
     1
 40
0.000000
 41
0.000000
  0
VERTEX
  8
0
  6
CONTINUOUS
 10
5.850240
 20
1.023440
  0
VERTEX
  8
0
  6
CONTINUOUS
 10
6.491760
 20
1.393920
  0
VERTEX
  8
0
  6
CONTINUOUS
 10
6.460520
 20
1.366640
  0
VERTEX
  8
0
  6
CONTINUOUS
 10
5.819000
 20
0.996160
  0
VERTEX
  8
0
  6
CONTINUOUS
 10
5.850240
 20
1.023440
  0
SEQEND
  8
0
  0
SOLID
  8
0
 62
    15
 10
5.819000
 20
0.996160
 11
6.460520
 21
1.366640
 12
5.782480
 22
0.971960
 13
6.424000
 23
1.342440
  0
POLYLINE
  8
0
  6
CONTINUOUS
 66
     1
 40
0.000000
 41
0.000000
  0
VERTEX
  8
0
  6
CONTINUOUS
 10
5.819000
 20
0.996160
  0
VERTEX
  8
0
  6
CONTINUOUS
 10
6.460520
 20
1.366640
  0
VERTEX
  8
0
  6
CONTINUOUS
 10
6.424000
 20
1.342440
  0
VERTEX
  8
0
  6
CONTINUOUS
 10
5.782480
 20
0.971960
  0
VERTEX
  8
0
  6
CONTINUOUS
 10
5.819000
 20
0.996160
  0
SEQEND
  8
0
  0
SOLID
  8
0
 62
    15
 10
5.782480
 20
0.971960
 11
6.424000
 21
1.342440
 12
5.782480
 22
0.883080
 13
6.424000
 23
1.253560
  0
POLYLINE
  8
0
  6
CONTINUOUS
 66
     1
 40
0.000000
 41
0.000000
  0
VERTEX
  8
0
  6
CONTINUOUS
 10
5.782480
 20
0.971960
  0
VERTEX
  8
0
  6
CONTINUOUS
 10
6.424000
 20
1.342440
  0
VERTEX
  8
0
  6
CONTINUOUS
 10
6.424000
 20
1.253560
  0
VERTEX
  8
0
  6
CONTINUOUS
 10
5.782480
 20
0.883080
  0
VERTEX
  8
0
  6
CONTINUOUS
 10
5.782480
 20
0.971960
  0
SEQEND
  8
0
  0
SOLID
  8
0
 62
    15
 10
5.782480
 20
0.883080
 11
6.424000
 21
1.253560
 12
5.782480
 22
0.883080
 13
6.424000
 23
1.253120
  0
POLYLINE
  8
0
  6
CONTINUOUS
 66
     1
 40
0.000000
 41
0.000000
  0
VERTEX
  8
0
  6
CONTINUOUS
 10
5.782480
 20
0.883080
  0
VERTEX
  8
0
  6
CONTINUOUS
 10
6.424000
 20
1.253560
  0
VERTEX
  8
0
  6
CONTINUOUS
 10
6.424000
 20
1.253120
  0
VERTEX
  8
0
  6
CONTINUOUS
 10
5.782480
 20
0.883080
  0
SEQEND
  8
0
  0
POLYLINE
  8
0
  6
CONTINUOUS
 66
     1
 40
0.000000
 41
0.000000
  0
VERTEX
  8
0
  6
CONTINUOUS
 10
5.782480
 20
0.883080
  0
VERTEX
  8
0
  6
CONTINUOUS
 10
5.264600
 20
0.883080
  0
VERTEX
  8
0
  6
CONTINUOUS
 10
5.264600
 20
2.182400
  0
VERTEX
  8
0
  6
CONTINUOUS
 10
5.395720
 20
2.182400
  0
VERTEX
  8
0
  6
CONTINUOUS
 10
5.585360
 20
1.992760
  0
VERTEX
  8
0
  6
CONTINUOUS
 10
5.553240
 20
1.954480
  0
VERTEX
  8
0
  6
CONTINUOUS
 10
5.531680
 20
1.915320
  0
VERTEX
  8
0
  6
CONTINUOUS
 10
5.519800
 20
1.875280
  0
VERTEX
  8
0
  6
CONTINUOUS
 10
5.516720
 20
1.834800
  0
VERTEX
  8
0
  6
CONTINUOUS
 10
5.521560
 20
1.794320
  0
VERTEX
  8
0
  6
CONTINUOUS
 10
5.533000
 20
1.754280
  0
VERTEX
  8
0
  6
CONTINUOUS
 10
5.550160
 20
1.715120
  0
VERTEX
  8
0
  6
CONTINUOUS
 10
5.572600
 20
1.676840
  0
VERTEX
  8
0
  6
CONTINUOUS
 10
5.599440
 20
1.639880
  0
VERTEX
  8
0
  6
CONTINUOUS
 10
5.628920
 20
1.604240
  0
VERTEX
  8
0
  6
CONTINUOUS
 10
5.694040
 20
1.540440
  0
VERTEX
  8
0
  6
CONTINUOUS
 10
5.727480
 20
1.512280
  0
VERTEX
  8
0
  6
CONTINUOUS
 10
5.760480
 20
1.487200
  0
VERTEX
  8
0
  6
CONTINUOUS
 10
5.792160
 20
1.465640
  0
VERTEX
  8
0
  6
CONTINUOUS
 10
5.821200
 20
1.447600
  0
VERTEX
  8
0
  6
CONTINUOUS
 10
5.847160
 20
1.429560
  0
VERTEX
  8
0
  6
CONTINUOUS
 10
5.870480
 20
1.408000
  0
VERTEX
  8
0
  6
CONTINUOUS
 10
5.890280
 20
1.382480
  0
VERTEX
  8
0
  6
CONTINUOUS
 10
5.906560
 20
1.354320
  0
VERTEX
  8
0
  6
CONTINUOUS
 10
5.919320
 20
1.323960
  0
VERTEX
  8
0
  6
CONTINUOUS
 10
5.928560
 20
1.291840
  0
VERTEX
  8
0
  6
CONTINUOUS
 10
5.933840
 20
1.257960
  0
VERTEX
  8
0
  6
CONTINUOUS
 10
5.935160
 20
1.223200
  0
VERTEX
  8
0
  6
CONTINUOUS
 10
5.932520
 20
1.188000
  0
VERTEX
  8
0
  6
CONTINUOUS
 10
5.925480
 20
1.153240
  0
VERTEX
  8
0
  6
CONTINUOUS
 10
5.913600
 20
1.118480
  0
VERTEX
  8
0
  6
CONTINUOUS
 10
5.897320
 20
1.085480
  0
VERTEX
  8
0
  6
CONTINUOUS
 10
5.876200
 20
1.053360
  0
VERTEX
  8
0
  6
CONTINUOUS
 10
5.850240
 20
1.023440
  0
VERTEX
  8
0
  6
CONTINUOUS
 10
5.819000
 20
0.996160
  0
VERTEX
  8
0
  6
CONTINUOUS
 10
5.782480
 20
0.971960
  0
VERTEX
  8
0
  6
CONTINUOUS
 10
5.782480
 20
0.883080
  0
SEQEND
  8
0
  0
TEXT
  8
0
 10
5.579200
 20
0.658680
 40
0.138179
  1
BA  1038
 41
1.000000
  7
SN0
 71
     0
 72
     5
 11
6.262116
 21
0.658680
  0
TEXT
  8
0
 10
5.331040
 20
0.466840
 40
0.138179
  1
11/16" x 1-5/16"
 41
1.000000
  7
SN0
 71
     0
 72
     5
 11
6.509420
 21
0.466840
  0
POLYLINE
  8
0
  6
CONTINUOUS
 66
     1
 40
0.014080
 41
0.014080
  0
VERTEX
  8
0
  6
CONTINUOUS
 10
6.787880
 20
2.413840
  0
VERTEX
  8
0
  6
CONTINUOUS
 10
6.876760
 20
2.413840
  0
VERTEX
  8
0
  6
CONTINUOUS
 10
6.900960
 20
2.450360
  0
VERTEX
  8
0
  6
CONTINUOUS
 10
6.928240
 20
2.481600
  0
VERTEX
  8
0
  6
CONTINUOUS
 10
6.958160
 20
2.507560
  0
VERTEX
  8
0
  6
CONTINUOUS
 10
6.990280
 20
2.528680
  0
VERTEX
  8
0
  6
CONTINUOUS
 10
7.023280
 20
2.544960
  0
VERTEX
  8
0
  6
CONTINUOUS
 10
7.058040
 20
2.556400
  0
VERTEX
  8
0
  6
CONTINUOUS
 10
7.092800
 20
2.563880
  0
VERTEX
  8
0
  6
CONTINUOUS
 10
7.128000
 20
2.566520
  0
VERTEX
  8
0
  6
CONTINUOUS
 10
7.145600
 20
2.566520
  0
VERTEX
  8
0
  6
CONTINUOUS
 10
7.179920
 20
2.563000
  0
VERTEX
  8
0
  6
CONTINUOUS
 10
7.212920
 20
2.555960
  0
VERTEX
  8
0
  6
CONTINUOUS
 10
7.259560
 20
2.537920
  0
VERTEX
  8
0
  6
CONTINUOUS
 10
7.287280
 20
2.521640
  0
VERTEX
  8
0
  6
CONTINUOUS
 10
7.312800
 20
2.501840
  0
VERTEX
  8
0
  6
CONTINUOUS
 10
7.334360
 20
2.478520
  0
VERTEX
  8
0
  6
CONTINUOUS
 10
7.352400
 20
2.452560
  0
VERTEX
  8
0
  6
CONTINUOUS
 10
7.392000
 20
2.391840
  0
VERTEX
  8
0
  6
CONTINUOUS
 10
7.430720
 20
2.342120
  0
VERTEX
  8
0
  6
CONTINUOUS
 10
7.476040
 20
2.292400
  0
VERTEX
  8
0
  6
CONTINUOUS
 10
7.526640
 20
2.245320
  0
VERTEX
  8
0
  6
CONTINUOUS
 10
7.581640
 20
2.203960
  0
VERTEX
  8
0
  6
CONTINUOUS
 10
7.619920
 20
2.181520
  0
VERTEX
  8
0
  6
CONTINUOUS
 10
7.659520
 20
2.164360
  0
VERTEX
  8
0
  6
CONTINUOUS
 10
7.679320
 20
2.157760
  0
VERTEX
  8
0
  6
CONTINUOUS
 10
7.719800
 20
2.149400
  0
VERTEX
  8
0
  6
CONTINUOUS
 10
7.740040
 20
2.148080
  0
VERTEX
  8
0
  6
CONTINUOUS
 10
7.760280
 20
2.148520
  0
VERTEX
  8
0
  6
CONTINUOUS
 10
7.780080
 20
2.151160
  0
VERTEX
  8
0
  6
CONTINUOUS
 10
7.800320
 20
2.156000
  0
VERTEX
  8
0
  6
CONTINUOUS
 10
7.820120
 20
2.163040
  0
VERTEX
  8
0
  6
CONTINUOUS
 10
7.850040
 20
2.178440
  0
VERTEX
  8
0
  6
CONTINUOUS
 10
7.879080
 20
2.199120
  0
VERTEX
  8
0
  6
CONTINUOUS
 10
7.898000
 20
2.216720
  0
VERTEX
  8
0
  6
CONTINUOUS
 10
8.087200
 20
2.027080
  0
VERTEX
  8
0
  6
CONTINUOUS
 10
8.087200
 20
1.895520
  0
VERTEX
  8
0
  6
CONTINUOUS
 10
6.787880
 20
1.895520
  0
VERTEX
  8
0
  6
CONTINUOUS
 10
6.787880
 20
2.413840
  0
SEQEND
  8
0
  0
TEXT
  8
0
 10
7.135040
 20
1.633280
 40
0.138179
  1
BA  1038
 41
1.000000
  7
SN0
 71
     0
 72
     5
 11
7.817956
 21
1.633280
  0
TEXT
  8
0
 10
6.886880
 20
1.441440
 40
0.138179
  1
11/16" x 1-5/16"
 41
1.000000
  7
SN0
 71
     0
 72
     5
 11
8.065260
 21
1.441440
  0
ENDSEC
  0
EOF
