  0
SECTION
  2
HEADER
  9
$ACADVER
  1
AC1006
  9
$EXTMIN
 10
1.064800
 20
0.391160
  9
$EXTMAX
 10
8.116240
 20
7.988640
  9
$LTSCALE
 40
0.044000
  9
$PDMODE
 70
    35
  9
$PDSIZE
 40
0.035200
  0
ENDSEC
  0
SECTION
  2
TABLES
  0
TABLE
  2
LTYPE
 70
     9
  0
LTYPE
  2
CONTINUOUS
 70
    64
  3
Solid line
 72
    65
 73
     0
 40
0.000000
  0
LTYPE
  2
DASHED
 70
    64
  3
__ __ __ __ __ __ __ __ __ __ __ __ __ __ __
 72
    65
 73
     2
 40
0.000330
 49
0.000220
 49
-0.000110
  0
LTYPE
  2
HIDDEN
 70
    64
  3
 _ _ _ _ _ _ _ _ _ _ _ _ _ _ _ _ _ _ _ _ _ _
 72
    65
 73
     2
 40
0.000165
 49
0.000110
 49
-0.000055
  0
LTYPE
  2
CENTER
 70
    64
  3
____ _ ____ _ ____ _ ____ _ ____ _ ____ _ ____
 72
    65
 73
     4
 40
0.000880
 49
0.000550
 49
-0.000110
 49
0.000110
 49
-0.000110
  0
LTYPE
  2
PHANTOM
 70
    64
  3
_____ _ _ _____ _ _ _____ _ _ _____ _ _ ____
 72
    65
 73
     6
 40
0.001100
 49
0.000550
 49
-0.000110
 49
0.000110
 49
-0.000110
 49
0.000110
 49
-0.000110
  0
LTYPE
  2
DOT
 70
    64
  3
...............................................
 72
    65
 73
     2
 40
0.000110
 49
0.000000
 49
-0.000110
  0
LTYPE
  2
DASHDOT
 70
    64
  3
__ . __ . __ . __ . __ . __ . __ . __ . __ . __
 72
    65
 73
     4
 40
0.000440
 49
0.000220
 49
-0.000110
 49
0.000000
 49
-0.000110
  0
LTYPE
  2
BORDER
 70
    64
  3
__ __ . __ __ . __ __ . __ __ . __ __ . __ __
 72
    65
 73
     6
 40
0.000770
 49
0.000220
 49
-0.000110
 49
0.000220
 49
-0.000110
 49
0.000000
 49
-0.000110
  0
LTYPE
  2
DIVIDE
 70
    64
  3
__ . . __ . . __ . . __ . . __ . . __ . . __
 72
    65
 73
     6
 40
0.000550
 49
0.000220
 49
-0.000110
 49
0.000000
 49
-0.000110
 49
0.000000
 49
-0.000110
  0
LTYPE
  2
DOTDOT
 70
    64
  3
 . .  . .  . .  . .  . .  . . 
 72
    65
 73
     5
 40
0.000242
 49
-0.000110
 49
0.000000
 49
-0.000110
 49
0.000000
 49
-0.000110
  0
ENDTAB
  0
TABLE
  2
STYLE
 70
     2
  0
STYLE
 70
     0
  2
SN0
 40
0.000000
 41
0.000440
 50
0.000000
 71
     0
 42
0.000000
  3
ROMAND
  0
STYLE
 70
    68
  2
SV0
 40
0.000000
 41
0.000440
 50
0.000000
 71
     0
 42
0.000000
  3
ROMAND
  0
ENDTAB
  0
TABLE
  2
LAYER
 70
     3
  0
LAYER
  2
FOREGROUND
 70
    64
 62
     7
  6
CONTINUOUS
  0
LAYER
  2
BACKGROUND
 70
    65
 62
    -7
  6
CONTINUOUS
  0
LAYER
  2
0
 70
    64
 62
     7
  6
CONTINUOUS
  0
ENDTAB
  0
ENDSEC
  0
SECTION
  2
ENTITIES
  0
POLYLINE
  8
FOREGROUND
  6
CONTINUOUS
 66
     1
 40
0.000000
 41
0.000000
  0
VERTEX
  8
FOREGROUND
  6
CONTINUOUS
 10
0.000000
 20
8.379800
  0
VERTEX
  8
FOREGROUND
  6
CONTINUOUS
 10
8.499920
 20
8.379800
  0
VERTEX
  8
FOREGROUND
  6
CONTINUOUS
 10
8.499920
 20
-2.620200
  0
VERTEX
  8
FOREGROUND
  6
CONTINUOUS
 10
0.000000
 20
-2.620200
  0
VERTEX
  8
FOREGROUND
  6
CONTINUOUS
 10
0.000000
 20
8.379800
  0
SEQEND
  8
0
  0
POLYLINE
  8
FOREGROUND
  6
CONTINUOUS
 66
     1
 40
0.000000
 41
0.000000
  0
VERTEX
  8
FOREGROUND
  6
CONTINUOUS
 10
0.000000
 20
8.379800
  0
VERTEX
  8
FOREGROUND
  6
CONTINUOUS
 10
8.499920
 20
8.379800
  0
VERTEX
  8
FOREGROUND
  6
CONTINUOUS
 10
8.499920
 20
-2.620200
  0
VERTEX
  8
FOREGROUND
  6
CONTINUOUS
 10
0.000000
 20
-2.620200
  0
VERTEX
  8
FOREGROUND
  6
CONTINUOUS
 10
0.000000
 20
8.379800
  0
SEQEND
  8
0
  0
SOLID
  8
0
 62
    15
 10
3.625600
 20
4.199360
 11
4.253920
 21
3.798080
 12
3.629560
 22
4.175160
 13
4.257440
 23
3.773880
  0
POLYLINE
  8
0
  6
CONTINUOUS
 66
     1
 40
0.000000
 41
0.000000
  0
VERTEX
  8
0
  6
CONTINUOUS
 10
3.625600
 20
4.199360
  0
VERTEX
  8
0
  6
CONTINUOUS
 10
4.253920
 20
3.798080
  0
VERTEX
  8
0
  6
CONTINUOUS
 10
4.257440
 20
3.773880
  0
VERTEX
  8
0
  6
CONTINUOUS
 10
3.629560
 20
4.175160
  0
VERTEX
  8
0
  6
CONTINUOUS
 10
3.625600
 20
4.199360
  0
SEQEND
  8
0
  0
SOLID
  8
0
 62
    15
 10
5.481960
 20
5.992360
 11
6.110280
 21
5.591080
 12
5.356560
 22
5.992360
 13
5.984880
 23
5.591080
  0
POLYLINE
  8
0
  6
CONTINUOUS
 66
     1
 40
0.000000
 41
0.000000
  0
VERTEX
  8
0
  6
CONTINUOUS
 10
5.481960
 20
5.992360
  0
VERTEX
  8
0
  6
CONTINUOUS
 10
6.110280
 20
5.591080
  0
VERTEX
  8
0
  6
CONTINUOUS
 10
5.984880
 20
5.591080
  0
VERTEX
  8
0
  6
CONTINUOUS
 10
5.356560
 20
5.992360
  0
VERTEX
  8
0
  6
CONTINUOUS
 10
5.481960
 20
5.992360
  0
SEQEND
  8
0
  0
SOLID
  8
0
 62
    15
 10
5.356560
 20
5.992360
 11
5.984880
 21
5.591080
 12
5.356560
 22
5.878400
 13
5.984880
 23
5.477120
  0
POLYLINE
  8
0
  6
CONTINUOUS
 66
     1
 40
0.000000
 41
0.000000
  0
VERTEX
  8
0
  6
CONTINUOUS
 10
5.356560
 20
5.992360
  0
VERTEX
  8
0
  6
CONTINUOUS
 10
5.984880
 20
5.591080
  0
VERTEX
  8
0
  6
CONTINUOUS
 10
5.984880
 20
5.477120
  0
VERTEX
  8
0
  6
CONTINUOUS
 10
5.356560
 20
5.878400
  0
VERTEX
  8
0
  6
CONTINUOUS
 10
5.356560
 20
5.992360
  0
SEQEND
  8
0
  0
SOLID
  8
0
 62
    15
 10
5.356560
 20
5.878400
 11
5.984880
 21
5.477120
 12
5.179240
 22
5.878400
 13
5.807120
 23
5.477120
  0
POLYLINE
  8
0
  6
CONTINUOUS
 66
     1
 40
0.000000
 41
0.000000
  0
VERTEX
  8
0
  6
CONTINUOUS
 10
5.356560
 20
5.878400
  0
VERTEX
  8
0
  6
CONTINUOUS
 10
5.984880
 20
5.477120
  0
VERTEX
  8
0
  6
CONTINUOUS
 10
5.807120
 20
5.477120
  0
VERTEX
  8
0
  6
CONTINUOUS
 10
5.179240
 20
5.878400
  0
VERTEX
  8
0
  6
CONTINUOUS
 10
5.356560
 20
5.878400
  0
SEQEND
  8
0
  0
SOLID
  8
0
 62
    15
 10
5.179240
 20
5.878400
 11
5.807120
 21
5.477120
 12
5.099600
 22
5.657520
 13
5.727480
 23
5.256240
  0
POLYLINE
  8
0
  6
CONTINUOUS
 66
     1
 40
0.000000
 41
0.000000
  0
VERTEX
  8
0
  6
CONTINUOUS
 10
5.179240
 20
5.878400
  0
VERTEX
  8
0
  6
CONTINUOUS
 10
5.807120
 20
5.477120
  0
VERTEX
  8
0
  6
CONTINUOUS
 10
5.727480
 20
5.256240
  0
VERTEX
  8
0
  6
CONTINUOUS
 10
5.099600
 20
5.657520
  0
VERTEX
  8
0
  6
CONTINUOUS
 10
5.179240
 20
5.878400
  0
SEQEND
  8
0
  0
SOLID
  8
0
 62
    15
 10
5.099600
 20
5.657520
 11
5.727480
 21
5.256240
 12
4.986080
 22
5.472280
 13
5.614400
 23
5.071000
  0
POLYLINE
  8
0
  6
CONTINUOUS
 66
     1
 40
0.000000
 41
0.000000
  0
VERTEX
  8
0
  6
CONTINUOUS
 10
5.099600
 20
5.657520
  0
VERTEX
  8
0
  6
CONTINUOUS
 10
5.727480
 20
5.256240
  0
VERTEX
  8
0
  6
CONTINUOUS
 10
5.614400
 20
5.071000
  0
VERTEX
  8
0
  6
CONTINUOUS
 10
4.986080
 20
5.472280
  0
VERTEX
  8
0
  6
CONTINUOUS
 10
5.099600
 20
5.657520
  0
SEQEND
  8
0
  0
SOLID
  8
0
 62
    15
 10
4.986080
 20
5.472280
 11
5.614400
 21
5.071000
 12
4.849240
 22
5.318720
 13
5.477120
 23
4.917440
  0
POLYLINE
  8
0
  6
CONTINUOUS
 66
     1
 40
0.000000
 41
0.000000
  0
VERTEX
  8
0
  6
CONTINUOUS
 10
4.986080
 20
5.472280
  0
VERTEX
  8
0
  6
CONTINUOUS
 10
5.614400
 20
5.071000
  0
VERTEX
  8
0
  6
CONTINUOUS
 10
5.477120
 20
4.917440
  0
VERTEX
  8
0
  6
CONTINUOUS
 10
4.849240
 20
5.318720
  0
VERTEX
  8
0
  6
CONTINUOUS
 10
4.986080
 20
5.472280
  0
SEQEND
  8
0
  0
SOLID
  8
0
 62
    15
 10
4.849240
 20
5.318720
 11
5.477120
 21
4.917440
 12
4.697880
 22
5.193320
 13
5.326200
 23
4.792040
  0
POLYLINE
  8
0
  6
CONTINUOUS
 66
     1
 40
0.000000
 41
0.000000
  0
VERTEX
  8
0
  6
CONTINUOUS
 10
4.849240
 20
5.318720
  0
VERTEX
  8
0
  6
CONTINUOUS
 10
5.477120
 20
4.917440
  0
VERTEX
  8
0
  6
CONTINUOUS
 10
5.326200
 20
4.792040
  0
VERTEX
  8
0
  6
CONTINUOUS
 10
4.697880
 20
5.193320
  0
VERTEX
  8
0
  6
CONTINUOUS
 10
4.849240
 20
5.318720
  0
SEQEND
  8
0
  0
SOLID
  8
0
 62
    15
 10
4.697880
 20
5.193320
 11
5.326200
 21
4.792040
 12
4.543000
 22
5.091680
 13
5.171320
 23
4.690400
  0
POLYLINE
  8
0
  6
CONTINUOUS
 66
     1
 40
0.000000
 41
0.000000
  0
VERTEX
  8
0
  6
CONTINUOUS
 10
4.697880
 20
5.193320
  0
VERTEX
  8
0
  6
CONTINUOUS
 10
5.326200
 20
4.792040
  0
VERTEX
  8
0
  6
CONTINUOUS
 10
5.171320
 20
4.690400
  0
VERTEX
  8
0
  6
CONTINUOUS
 10
4.543000
 20
5.091680
  0
VERTEX
  8
0
  6
CONTINUOUS
 10
4.697880
 20
5.193320
  0
SEQEND
  8
0
  0
SOLID
  8
0
 62
    15
 10
4.543000
 20
5.091680
 11
5.171320
 21
4.690400
 12
4.393400
 22
5.009840
 13
5.021720
 23
4.608560
  0
POLYLINE
  8
0
  6
CONTINUOUS
 66
     1
 40
0.000000
 41
0.000000
  0
VERTEX
  8
0
  6
CONTINUOUS
 10
4.543000
 20
5.091680
  0
VERTEX
  8
0
  6
CONTINUOUS
 10
5.171320
 20
4.690400
  0
VERTEX
  8
0
  6
CONTINUOUS
 10
5.021720
 20
4.608560
  0
VERTEX
  8
0
  6
CONTINUOUS
 10
4.393400
 20
5.009840
  0
VERTEX
  8
0
  6
CONTINUOUS
 10
4.543000
 20
5.091680
  0
SEQEND
  8
0
  0
SOLID
  8
0
 62
    15
 10
4.393400
 20
5.009840
 11
5.021720
 21
4.608560
 12
4.259640
 22
4.944280
 13
4.887960
 23
4.543000
  0
POLYLINE
  8
0
  6
CONTINUOUS
 66
     1
 40
0.000000
 41
0.000000
  0
VERTEX
  8
0
  6
CONTINUOUS
 10
4.393400
 20
5.009840
  0
VERTEX
  8
0
  6
CONTINUOUS
 10
5.021720
 20
4.608560
  0
VERTEX
  8
0
  6
CONTINUOUS
 10
4.887960
 20
4.543000
  0
VERTEX
  8
0
  6
CONTINUOUS
 10
4.259640
 20
4.944280
  0
VERTEX
  8
0
  6
CONTINUOUS
 10
4.393400
 20
5.009840
  0
SEQEND
  8
0
  0
SOLID
  8
0
 62
    15
 10
4.259640
 20
4.944280
 11
4.887960
 21
4.543000
 12
4.229720
 22
4.930200
 13
4.858040
 23
4.528920
  0
POLYLINE
  8
0
  6
CONTINUOUS
 66
     1
 40
0.000000
 41
0.000000
  0
VERTEX
  8
0
  6
CONTINUOUS
 10
4.259640
 20
4.944280
  0
VERTEX
  8
0
  6
CONTINUOUS
 10
4.887960
 20
4.543000
  0
VERTEX
  8
0
  6
CONTINUOUS
 10
4.858040
 20
4.528920
  0
VERTEX
  8
0
  6
CONTINUOUS
 10
4.229720
 20
4.930200
  0
VERTEX
  8
0
  6
CONTINUOUS
 10
4.259640
 20
4.944280
  0
SEQEND
  8
0
  0
SOLID
  8
0
 62
    15
 10
4.229720
 20
4.930200
 11
4.858040
 21
4.528920
 12
4.201560
 22
4.916560
 13
4.829880
 23
4.515280
  0
POLYLINE
  8
0
  6
CONTINUOUS
 66
     1
 40
0.000000
 41
0.000000
  0
VERTEX
  8
0
  6
CONTINUOUS
 10
4.229720
 20
4.930200
  0
VERTEX
  8
0
  6
CONTINUOUS
 10
4.858040
 20
4.528920
  0
VERTEX
  8
0
  6
CONTINUOUS
 10
4.829880
 20
4.515280
  0
VERTEX
  8
0
  6
CONTINUOUS
 10
4.201560
 20
4.916560
  0
VERTEX
  8
0
  6
CONTINUOUS
 10
4.229720
 20
4.930200
  0
SEQEND
  8
0
  0
SOLID
  8
0
 62
    15
 10
4.201560
 20
4.916560
 11
4.829880
 21
4.515280
 12
4.151400
 22
4.891040
 13
4.779280
 23
4.489760
  0
POLYLINE
  8
0
  6
CONTINUOUS
 66
     1
 40
0.000000
 41
0.000000
  0
VERTEX
  8
0
  6
CONTINUOUS
 10
4.201560
 20
4.916560
  0
VERTEX
  8
0
  6
CONTINUOUS
 10
4.829880
 20
4.515280
  0
VERTEX
  8
0
  6
CONTINUOUS
 10
4.779280
 20
4.489760
  0
VERTEX
  8
0
  6
CONTINUOUS
 10
4.151400
 20
4.891040
  0
VERTEX
  8
0
  6
CONTINUOUS
 10
4.201560
 20
4.916560
  0
SEQEND
  8
0
  0
SOLID
  8
0
 62
    15
 10
4.151400
 20
4.891040
 11
4.779280
 21
4.489760
 12
4.107400
 22
4.869920
 13
4.735720
 23
4.468640
  0
POLYLINE
  8
0
  6
CONTINUOUS
 66
     1
 40
0.000000
 41
0.000000
  0
VERTEX
  8
0
  6
CONTINUOUS
 10
4.151400
 20
4.891040
  0
VERTEX
  8
0
  6
CONTINUOUS
 10
4.779280
 20
4.489760
  0
VERTEX
  8
0
  6
CONTINUOUS
 10
4.735720
 20
4.468640
  0
VERTEX
  8
0
  6
CONTINUOUS
 10
4.107400
 20
4.869920
  0
VERTEX
  8
0
  6
CONTINUOUS
 10
4.151400
 20
4.891040
  0
SEQEND
  8
0
  0
SOLID
  8
0
 62
    15
 10
4.107400
 20
4.869920
 11
4.735720
 21
4.468640
 12
4.081000
 22
4.857600
 13
4.709320
 23
4.456320
  0
POLYLINE
  8
0
  6
CONTINUOUS
 66
     1
 40
0.000000
 41
0.000000
  0
VERTEX
  8
0
  6
CONTINUOUS
 10
4.107400
 20
4.869920
  0
VERTEX
  8
0
  6
CONTINUOUS
 10
4.735720
 20
4.468640
  0
VERTEX
  8
0
  6
CONTINUOUS
 10
4.709320
 20
4.456320
  0
VERTEX
  8
0
  6
CONTINUOUS
 10
4.081000
 20
4.857600
  0
VERTEX
  8
0
  6
CONTINUOUS
 10
4.107400
 20
4.869920
  0
SEQEND
  8
0
  0
SOLID
  8
0
 62
    15
 10
4.081000
 20
4.857600
 11
4.709320
 21
4.456320
 12
4.051960
 22
4.843960
 13
4.680280
 23
4.442680
  0
POLYLINE
  8
0
  6
CONTINUOUS
 66
     1
 40
0.000000
 41
0.000000
  0
VERTEX
  8
0
  6
CONTINUOUS
 10
4.081000
 20
4.857600
  0
VERTEX
  8
0
  6
CONTINUOUS
 10
4.709320
 20
4.456320
  0
VERTEX
  8
0
  6
CONTINUOUS
 10
4.680280
 20
4.442680
  0
VERTEX
  8
0
  6
CONTINUOUS
 10
4.051960
 20
4.843960
  0
VERTEX
  8
0
  6
CONTINUOUS
 10
4.081000
 20
4.857600
  0
SEQEND
  8
0
  0
SOLID
  8
0
 62
    15
 10
4.051960
 20
4.843960
 11
4.680280
 21
4.442680
 12
3.919520
 22
4.773120
 13
4.547840
 23
4.371840
  0
POLYLINE
  8
0
  6
CONTINUOUS
 66
     1
 40
0.000000
 41
0.000000
  0
VERTEX
  8
0
  6
CONTINUOUS
 10
4.051960
 20
4.843960
  0
VERTEX
  8
0
  6
CONTINUOUS
 10
4.680280
 20
4.442680
  0
VERTEX
  8
0
  6
CONTINUOUS
 10
4.547840
 20
4.371840
  0
VERTEX
  8
0
  6
CONTINUOUS
 10
3.919520
 20
4.773120
  0
VERTEX
  8
0
  6
CONTINUOUS
 10
4.051960
 20
4.843960
  0
SEQEND
  8
0
  0
SOLID
  8
0
 62
    15
 10
3.919520
 20
4.773120
 11
4.547840
 21
4.371840
 12
3.780040
 22
4.670600
 13
4.408360
 23
4.269320
  0
POLYLINE
  8
0
  6
CONTINUOUS
 66
     1
 40
0.000000
 41
0.000000
  0
VERTEX
  8
0
  6
CONTINUOUS
 10
3.919520
 20
4.773120
  0
VERTEX
  8
0
  6
CONTINUOUS
 10
4.547840
 20
4.371840
  0
VERTEX
  8
0
  6
CONTINUOUS
 10
4.408360
 20
4.269320
  0
VERTEX
  8
0
  6
CONTINUOUS
 10
3.780040
 20
4.670600
  0
VERTEX
  8
0
  6
CONTINUOUS
 10
3.919520
 20
4.773120
  0
SEQEND
  8
0
  0
SOLID
  8
0
 62
    15
 10
3.780040
 20
4.670600
 11
4.408360
 21
4.269320
 12
3.715800
 22
4.605040
 13
4.344120
 23
4.203760
  0
POLYLINE
  8
0
  6
CONTINUOUS
 66
     1
 40
0.000000
 41
0.000000
  0
VERTEX
  8
0
  6
CONTINUOUS
 10
3.780040
 20
4.670600
  0
VERTEX
  8
0
  6
CONTINUOUS
 10
4.408360
 20
4.269320
  0
VERTEX
  8
0
  6
CONTINUOUS
 10
4.344120
 20
4.203760
  0
VERTEX
  8
0
  6
CONTINUOUS
 10
3.715800
 20
4.605040
  0
VERTEX
  8
0
  6
CONTINUOUS
 10
3.780040
 20
4.670600
  0
SEQEND
  8
0
  0
SOLID
  8
0
 62
    15
 10
3.715800
 20
4.605040
 11
4.344120
 21
4.203760
 12
3.659040
 22
4.528040
 13
4.287360
 23
4.126760
  0
POLYLINE
  8
0
  6
CONTINUOUS
 66
     1
 40
0.000000
 41
0.000000
  0
VERTEX
  8
0
  6
CONTINUOUS
 10
3.715800
 20
4.605040
  0
VERTEX
  8
0
  6
CONTINUOUS
 10
4.344120
 20
4.203760
  0
VERTEX
  8
0
  6
CONTINUOUS
 10
4.287360
 20
4.126760
  0
VERTEX
  8
0
  6
CONTINUOUS
 10
3.659040
 20
4.528040
  0
VERTEX
  8
0
  6
CONTINUOUS
 10
3.715800
 20
4.605040
  0
SEQEND
  8
0
  0
SOLID
  8
0
 62
    15
 10
3.659040
 20
4.528040
 11
4.287360
 21
4.126760
 12
3.619880
 22
4.429040
 13
4.248200
 23
4.027760
  0
POLYLINE
  8
0
  6
CONTINUOUS
 66
     1
 40
0.000000
 41
0.000000
  0
VERTEX
  8
0
  6
CONTINUOUS
 10
3.659040
 20
4.528040
  0
VERTEX
  8
0
  6
CONTINUOUS
 10
4.287360
 20
4.126760
  0
VERTEX
  8
0
  6
CONTINUOUS
 10
4.248200
 20
4.027760
  0
VERTEX
  8
0
  6
CONTINUOUS
 10
3.619880
 20
4.429040
  0
VERTEX
  8
0
  6
CONTINUOUS
 10
3.659040
 20
4.528040
  0
SEQEND
  8
0
  0
SOLID
  8
0
 62
    15
 10
3.619880
 20
4.429040
 11
4.248200
 21
4.027760
 12
3.611960
 22
4.326080
 13
4.240280
 23
3.924800
  0
POLYLINE
  8
0
  6
CONTINUOUS
 66
     1
 40
0.000000
 41
0.000000
  0
VERTEX
  8
0
  6
CONTINUOUS
 10
3.619880
 20
4.429040
  0
VERTEX
  8
0
  6
CONTINUOUS
 10
4.248200
 20
4.027760
  0
VERTEX
  8
0
  6
CONTINUOUS
 10
4.240280
 20
3.924800
  0
VERTEX
  8
0
  6
CONTINUOUS
 10
3.611960
 20
4.326080
  0
VERTEX
  8
0
  6
CONTINUOUS
 10
3.619880
 20
4.429040
  0
SEQEND
  8
0
  0
SOLID
  8
0
 62
    15
 10
3.611960
 20
4.326080
 11
4.240280
 21
3.924800
 12
3.622080
 22
4.224440
 13
4.250400
 23
3.823160
  0
POLYLINE
  8
0
  6
CONTINUOUS
 66
     1
 40
0.000000
 41
0.000000
  0
VERTEX
  8
0
  6
CONTINUOUS
 10
3.611960
 20
4.326080
  0
VERTEX
  8
0
  6
CONTINUOUS
 10
4.240280
 20
3.924800
  0
VERTEX
  8
0
  6
CONTINUOUS
 10
4.250400
 20
3.823160
  0
VERTEX
  8
0
  6
CONTINUOUS
 10
3.622080
 20
4.224440
  0
VERTEX
  8
0
  6
CONTINUOUS
 10
3.611960
 20
4.326080
  0
SEQEND
  8
0
  0
SOLID
  8
0
 62
    15
 10
3.622080
 20
4.224440
 11
4.250400
 21
3.823160
 12
3.625600
 22
4.199360
 13
4.253920
 23
3.798080
  0
POLYLINE
  8
0
  6
CONTINUOUS
 66
     1
 40
0.000000
 41
0.000000
  0
VERTEX
  8
0
  6
CONTINUOUS
 10
3.622080
 20
4.224440
  0
VERTEX
  8
0
  6
CONTINUOUS
 10
4.250400
 20
3.823160
  0
VERTEX
  8
0
  6
CONTINUOUS
 10
4.253920
 20
3.798080
  0
VERTEX
  8
0
  6
CONTINUOUS
 10
3.625600
 20
4.199360
  0
VERTEX
  8
0
  6
CONTINUOUS
 10
3.622080
 20
4.224440
  0
SEQEND
  8
0
  0
SOLID
  8
0
 62
    15
 10
5.482840
 20
6.385280
 11
6.111160
 21
5.983560
 12
5.481960
 22
5.992360
 13
6.110280
 23
5.591080
  0
POLYLINE
  8
0
  6
CONTINUOUS
 66
     1
 40
0.000000
 41
0.000000
  0
VERTEX
  8
0
  6
CONTINUOUS
 10
5.482840
 20
6.385280
  0
VERTEX
  8
0
  6
CONTINUOUS
 10
6.111160
 20
5.983560
  0
VERTEX
  8
0
  6
CONTINUOUS
 10
6.110280
 20
5.591080
  0
VERTEX
  8
0
  6
CONTINUOUS
 10
5.481960
 20
5.992360
  0
VERTEX
  8
0
  6
CONTINUOUS
 10
5.482840
 20
6.385280
  0
SEQEND
  8
0
  0
SOLID
  8
0
 62
    15
 10
3.629560
 20
4.175160
 11
4.257440
 21
3.773880
 12
3.636160
 22
4.128080
 13
4.264480
 23
3.726800
  0
POLYLINE
  8
0
  6
CONTINUOUS
 66
     1
 40
0.000000
 41
0.000000
  0
VERTEX
  8
0
  6
CONTINUOUS
 10
3.629560
 20
4.175160
  0
VERTEX
  8
0
  6
CONTINUOUS
 10
4.257440
 20
3.773880
  0
VERTEX
  8
0
  6
CONTINUOUS
 10
4.264480
 20
3.726800
  0
VERTEX
  8
0
  6
CONTINUOUS
 10
3.636160
 20
4.128080
  0
VERTEX
  8
0
  6
CONTINUOUS
 10
3.629560
 20
4.175160
  0
SEQEND
  8
0
  0
SOLID
  8
0
 62
    15
 10
3.636160
 20
4.128080
 11
4.264480
 21
3.726800
 12
3.641440
 22
4.042280
 13
4.269760
 23
3.641000
  0
POLYLINE
  8
0
  6
CONTINUOUS
 66
     1
 40
0.000000
 41
0.000000
  0
VERTEX
  8
0
  6
CONTINUOUS
 10
3.636160
 20
4.128080
  0
VERTEX
  8
0
  6
CONTINUOUS
 10
4.264480
 20
3.726800
  0
VERTEX
  8
0
  6
CONTINUOUS
 10
4.269760
 20
3.641000
  0
VERTEX
  8
0
  6
CONTINUOUS
 10
3.641440
 20
4.042280
  0
VERTEX
  8
0
  6
CONTINUOUS
 10
3.636160
 20
4.128080
  0
SEQEND
  8
0
  0
SOLID
  8
0
 62
    15
 10
3.641440
 20
4.042280
 11
4.269760
 21
3.641000
 12
3.624280
 22
3.971880
 13
4.252600
 23
3.570600
  0
POLYLINE
  8
0
  6
CONTINUOUS
 66
     1
 40
0.000000
 41
0.000000
  0
VERTEX
  8
0
  6
CONTINUOUS
 10
3.641440
 20
4.042280
  0
VERTEX
  8
0
  6
CONTINUOUS
 10
4.269760
 20
3.641000
  0
VERTEX
  8
0
  6
CONTINUOUS
 10
4.252600
 20
3.570600
  0
VERTEX
  8
0
  6
CONTINUOUS
 10
3.624280
 20
3.971880
  0
VERTEX
  8
0
  6
CONTINUOUS
 10
3.641440
 20
4.042280
  0
SEQEND
  8
0
  0
SOLID
  8
0
 62
    15
 10
3.624280
 20
3.971880
 11
4.252600
 21
3.570600
 12
3.571480
 22
3.922160
 13
4.199360
 23
3.520880
  0
POLYLINE
  8
0
  6
CONTINUOUS
 66
     1
 40
0.000000
 41
0.000000
  0
VERTEX
  8
0
  6
CONTINUOUS
 10
3.624280
 20
3.971880
  0
VERTEX
  8
0
  6
CONTINUOUS
 10
4.252600
 20
3.570600
  0
VERTEX
  8
0
  6
CONTINUOUS
 10
4.199360
 20
3.520880
  0
VERTEX
  8
0
  6
CONTINUOUS
 10
3.571480
 20
3.922160
  0
VERTEX
  8
0
  6
CONTINUOUS
 10
3.624280
 20
3.971880
  0
SEQEND
  8
0
  0
SOLID
  8
0
 62
    15
 10
3.571480
 20
3.922160
 11
4.199360
 21
3.520880
 12
3.527040
 22
3.906320
 13
4.155360
 23
3.505040
  0
POLYLINE
  8
0
  6
CONTINUOUS
 66
     1
 40
0.000000
 41
0.000000
  0
VERTEX
  8
0
  6
CONTINUOUS
 10
3.571480
 20
3.922160
  0
VERTEX
  8
0
  6
CONTINUOUS
 10
4.199360
 20
3.520880
  0
VERTEX
  8
0
  6
CONTINUOUS
 10
4.155360
 20
3.505040
  0
VERTEX
  8
0
  6
CONTINUOUS
 10
3.527040
 20
3.906320
  0
VERTEX
  8
0
  6
CONTINUOUS
 10
3.571480
 20
3.922160
  0
SEQEND
  8
0
  0
SOLID
  8
0
 62
    15
 10
3.527040
 20
3.906320
 11
4.155360
 21
3.505040
 12
3.468960
 22
3.897520
 13
4.097280
 23
3.496240
  0
POLYLINE
  8
0
  6
CONTINUOUS
 66
     1
 40
0.000000
 41
0.000000
  0
VERTEX
  8
0
  6
CONTINUOUS
 10
3.527040
 20
3.906320
  0
VERTEX
  8
0
  6
CONTINUOUS
 10
4.155360
 20
3.505040
  0
VERTEX
  8
0
  6
CONTINUOUS
 10
4.097280
 20
3.496240
  0
VERTEX
  8
0
  6
CONTINUOUS
 10
3.468960
 20
3.897520
  0
VERTEX
  8
0
  6
CONTINUOUS
 10
3.527040
 20
3.906320
  0
SEQEND
  8
0
  0
SOLID
  8
0
 62
    15
 10
3.468960
 20
3.897520
 11
4.097280
 21
3.496240
 12
3.502840
 22
3.843400
 13
4.131160
 23
3.442120
  0
POLYLINE
  8
0
  6
CONTINUOUS
 66
     1
 40
0.000000
 41
0.000000
  0
VERTEX
  8
0
  6
CONTINUOUS
 10
3.468960
 20
3.897520
  0
VERTEX
  8
0
  6
CONTINUOUS
 10
4.097280
 20
3.496240
  0
VERTEX
  8
0
  6
CONTINUOUS
 10
4.131160
 20
3.442120
  0
VERTEX
  8
0
  6
CONTINUOUS
 10
3.502840
 20
3.843400
  0
VERTEX
  8
0
  6
CONTINUOUS
 10
3.468960
 20
3.897520
  0
SEQEND
  8
0
  0
SOLID
  8
0
 62
    15
 10
3.502840
 20
3.843400
 11
4.131160
 21
3.442120
 12
3.519120
 22
3.791480
 13
4.147440
 23
3.390200
  0
POLYLINE
  8
0
  6
CONTINUOUS
 66
     1
 40
0.000000
 41
0.000000
  0
VERTEX
  8
0
  6
CONTINUOUS
 10
3.502840
 20
3.843400
  0
VERTEX
  8
0
  6
CONTINUOUS
 10
4.131160
 20
3.442120
  0
VERTEX
  8
0
  6
CONTINUOUS
 10
4.147440
 20
3.390200
  0
VERTEX
  8
0
  6
CONTINUOUS
 10
3.519120
 20
3.791480
  0
VERTEX
  8
0
  6
CONTINUOUS
 10
3.502840
 20
3.843400
  0
SEQEND
  8
0
  0
SOLID
  8
0
 62
    15
 10
3.519120
 20
3.791480
 11
4.147440
 21
3.390200
 12
3.519560
 22
3.741760
 13
4.147440
 23
3.340480
  0
POLYLINE
  8
0
  6
CONTINUOUS
 66
     1
 40
0.000000
 41
0.000000
  0
VERTEX
  8
0
  6
CONTINUOUS
 10
3.519120
 20
3.791480
  0
VERTEX
  8
0
  6
CONTINUOUS
 10
4.147440
 20
3.390200
  0
VERTEX
  8
0
  6
CONTINUOUS
 10
4.147440
 20
3.340480
  0
VERTEX
  8
0
  6
CONTINUOUS
 10
3.519560
 20
3.741760
  0
VERTEX
  8
0
  6
CONTINUOUS
 10
3.519120
 20
3.791480
  0
SEQEND
  8
0
  0
SOLID
  8
0
 62
    15
 10
3.519560
 20
3.741760
 11
4.147440
 21
3.340480
 12
3.505920
 22
3.694240
 13
4.134240
 23
3.292960
  0
POLYLINE
  8
0
  6
CONTINUOUS
 66
     1
 40
0.000000
 41
0.000000
  0
VERTEX
  8
0
  6
CONTINUOUS
 10
3.519560
 20
3.741760
  0
VERTEX
  8
0
  6
CONTINUOUS
 10
4.147440
 20
3.340480
  0
VERTEX
  8
0
  6
CONTINUOUS
 10
4.134240
 20
3.292960
  0
VERTEX
  8
0
  6
CONTINUOUS
 10
3.505920
 20
3.694240
  0
VERTEX
  8
0
  6
CONTINUOUS
 10
3.519560
 20
3.741760
  0
SEQEND
  8
0
  0
SOLID
  8
0
 62
    15
 10
3.505920
 20
3.694240
 11
4.134240
 21
3.292960
 12
3.446960
 22
3.608440
 13
4.075280
 23
3.207160
  0
POLYLINE
  8
0
  6
CONTINUOUS
 66
     1
 40
0.000000
 41
0.000000
  0
VERTEX
  8
0
  6
CONTINUOUS
 10
3.505920
 20
3.694240
  0
VERTEX
  8
0
  6
CONTINUOUS
 10
4.134240
 20
3.292960
  0
VERTEX
  8
0
  6
CONTINUOUS
 10
4.075280
 20
3.207160
  0
VERTEX
  8
0
  6
CONTINUOUS
 10
3.446960
 20
3.608440
  0
VERTEX
  8
0
  6
CONTINUOUS
 10
3.505920
 20
3.694240
  0
SEQEND
  8
0
  0
SOLID
  8
0
 62
    15
 10
3.446960
 20
3.608440
 11
4.075280
 21
3.207160
 12
3.358960
 22
3.536280
 13
3.987280
 23
3.135000
  0
POLYLINE
  8
0
  6
CONTINUOUS
 66
     1
 40
0.000000
 41
0.000000
  0
VERTEX
  8
0
  6
CONTINUOUS
 10
3.446960
 20
3.608440
  0
VERTEX
  8
0
  6
CONTINUOUS
 10
4.075280
 20
3.207160
  0
VERTEX
  8
0
  6
CONTINUOUS
 10
3.987280
 20
3.135000
  0
VERTEX
  8
0
  6
CONTINUOUS
 10
3.358960
 20
3.536280
  0
VERTEX
  8
0
  6
CONTINUOUS
 10
3.446960
 20
3.608440
  0
SEQEND
  8
0
  0
SOLID
  8
0
 62
    15
 10
3.358960
 20
3.536280
 11
3.987280
 21
3.135000
 12
3.281960
 22
3.475560
 13
3.909840
 23
3.074280
  0
POLYLINE
  8
0
  6
CONTINUOUS
 66
     1
 40
0.000000
 41
0.000000
  0
VERTEX
  8
0
  6
CONTINUOUS
 10
3.358960
 20
3.536280
  0
VERTEX
  8
0
  6
CONTINUOUS
 10
3.987280
 20
3.135000
  0
VERTEX
  8
0
  6
CONTINUOUS
 10
3.909840
 20
3.074280
  0
VERTEX
  8
0
  6
CONTINUOUS
 10
3.281960
 20
3.475560
  0
VERTEX
  8
0
  6
CONTINUOUS
 10
3.358960
 20
3.536280
  0
SEQEND
  8
0
  0
SOLID
  8
0
 62
    15
 10
3.281960
 20
3.475560
 11
3.909840
 21
3.074280
 12
3.237080
 22
3.413080
 13
3.865400
 23
3.011800
  0
POLYLINE
  8
0
  6
CONTINUOUS
 66
     1
 40
0.000000
 41
0.000000
  0
VERTEX
  8
0
  6
CONTINUOUS
 10
3.281960
 20
3.475560
  0
VERTEX
  8
0
  6
CONTINUOUS
 10
3.909840
 20
3.074280
  0
VERTEX
  8
0
  6
CONTINUOUS
 10
3.865400
 20
3.011800
  0
VERTEX
  8
0
  6
CONTINUOUS
 10
3.237080
 20
3.413080
  0
VERTEX
  8
0
  6
CONTINUOUS
 10
3.281960
 20
3.475560
  0
SEQEND
  8
0
  0
SOLID
  8
0
 62
    15
 10
3.237080
 20
3.413080
 11
3.865400
 21
3.011800
 12
3.215080
 22
3.336960
 13
3.842960
 23
2.935680
  0
POLYLINE
  8
0
  6
CONTINUOUS
 66
     1
 40
0.000000
 41
0.000000
  0
VERTEX
  8
0
  6
CONTINUOUS
 10
3.237080
 20
3.413080
  0
VERTEX
  8
0
  6
CONTINUOUS
 10
3.865400
 20
3.011800
  0
VERTEX
  8
0
  6
CONTINUOUS
 10
3.842960
 20
2.935680
  0
VERTEX
  8
0
  6
CONTINUOUS
 10
3.215080
 20
3.336960
  0
VERTEX
  8
0
  6
CONTINUOUS
 10
3.237080
 20
3.413080
  0
SEQEND
  8
0
  0
SOLID
  8
0
 62
    15
 10
3.215080
 20
3.336960
 11
3.842960
 21
2.935680
 12
3.204080
 22
3.235320
 13
3.832400
 23
2.834040
  0
POLYLINE
  8
0
  6
CONTINUOUS
 66
     1
 40
0.000000
 41
0.000000
  0
VERTEX
  8
0
  6
CONTINUOUS
 10
3.215080
 20
3.336960
  0
VERTEX
  8
0
  6
CONTINUOUS
 10
3.842960
 20
2.935680
  0
VERTEX
  8
0
  6
CONTINUOUS
 10
3.832400
 20
2.834040
  0
VERTEX
  8
0
  6
CONTINUOUS
 10
3.204080
 20
3.235320
  0
VERTEX
  8
0
  6
CONTINUOUS
 10
3.215080
 20
3.336960
  0
SEQEND
  8
0
  0
SOLID
  8
0
 62
    15
 10
3.204080
 20
3.235320
 11
3.832400
 21
2.834040
 12
3.128840
 22
3.235760
 13
3.757160
 23
2.834040
  0
POLYLINE
  8
0
  6
CONTINUOUS
 66
     1
 40
0.000000
 41
0.000000
  0
VERTEX
  8
0
  6
CONTINUOUS
 10
3.204080
 20
3.235320
  0
VERTEX
  8
0
  6
CONTINUOUS
 10
3.832400
 20
2.834040
  0
VERTEX
  8
0
  6
CONTINUOUS
 10
3.757160
 20
2.834040
  0
VERTEX
  8
0
  6
CONTINUOUS
 10
3.128840
 20
3.235760
  0
VERTEX
  8
0
  6
CONTINUOUS
 10
3.204080
 20
3.235320
  0
SEQEND
  8
0
  0
SOLID
  8
0
 62
    15
 10
3.128840
 20
3.235760
 11
3.757160
 21
2.834040
 12
3.128840
 22
3.109920
 13
3.757160
 23
2.708640
  0
POLYLINE
  8
0
  6
CONTINUOUS
 66
     1
 40
0.000000
 41
0.000000
  0
VERTEX
  8
0
  6
CONTINUOUS
 10
3.128840
 20
3.235760
  0
VERTEX
  8
0
  6
CONTINUOUS
 10
3.757160
 20
2.834040
  0
VERTEX
  8
0
  6
CONTINUOUS
 10
3.757160
 20
2.708640
  0
VERTEX
  8
0
  6
CONTINUOUS
 10
3.128840
 20
3.109920
  0
VERTEX
  8
0
  6
CONTINUOUS
 10
3.128840
 20
3.235760
  0
SEQEND
  8
0
  0
SOLID
  8
0
 62
    15
 10
3.128840
 20
3.109920
 11
3.757160
 21
2.708640
 12
3.025440
 22
3.101120
 13
3.653760
 23
2.699840
  0
POLYLINE
  8
0
  6
CONTINUOUS
 66
     1
 40
0.000000
 41
0.000000
  0
VERTEX
  8
0
  6
CONTINUOUS
 10
3.128840
 20
3.109920
  0
VERTEX
  8
0
  6
CONTINUOUS
 10
3.757160
 20
2.708640
  0
VERTEX
  8
0
  6
CONTINUOUS
 10
3.653760
 20
2.699840
  0
VERTEX
  8
0
  6
CONTINUOUS
 10
3.025440
 20
3.101120
  0
VERTEX
  8
0
  6
CONTINUOUS
 10
3.128840
 20
3.109920
  0
SEQEND
  8
0
  0
SOLID
  8
0
 62
    15
 10
3.025440
 20
3.101120
 11
3.653760
 21
2.699840
 12
2.939640
 22
3.066360
 13
3.567960
 23
2.665080
  0
POLYLINE
  8
0
  6
CONTINUOUS
 66
     1
 40
0.000000
 41
0.000000
  0
VERTEX
  8
0
  6
CONTINUOUS
 10
3.025440
 20
3.101120
  0
VERTEX
  8
0
  6
CONTINUOUS
 10
3.653760
 20
2.699840
  0
VERTEX
  8
0
  6
CONTINUOUS
 10
3.567960
 20
2.665080
  0
VERTEX
  8
0
  6
CONTINUOUS
 10
2.939640
 20
3.066360
  0
VERTEX
  8
0
  6
CONTINUOUS
 10
3.025440
 20
3.101120
  0
SEQEND
  8
0
  0
SOLID
  8
0
 62
    15
 10
2.939640
 20
3.066360
 11
3.567960
 21
2.665080
 12
2.906200
 22
3.035560
 13
3.534080
 23
2.634280
  0
POLYLINE
  8
0
  6
CONTINUOUS
 66
     1
 40
0.000000
 41
0.000000
  0
VERTEX
  8
0
  6
CONTINUOUS
 10
2.939640
 20
3.066360
  0
VERTEX
  8
0
  6
CONTINUOUS
 10
3.567960
 20
2.665080
  0
VERTEX
  8
0
  6
CONTINUOUS
 10
3.534080
 20
2.634280
  0
VERTEX
  8
0
  6
CONTINUOUS
 10
2.906200
 20
3.035560
  0
VERTEX
  8
0
  6
CONTINUOUS
 10
2.939640
 20
3.066360
  0
SEQEND
  8
0
  0
SOLID
  8
0
 62
    15
 10
2.906200
 20
3.035560
 11
3.534080
 21
2.634280
 12
2.880680
 22
2.993320
 13
3.508560
 23
2.592040
  0
POLYLINE
  8
0
  6
CONTINUOUS
 66
     1
 40
0.000000
 41
0.000000
  0
VERTEX
  8
0
  6
CONTINUOUS
 10
2.906200
 20
3.035560
  0
VERTEX
  8
0
  6
CONTINUOUS
 10
3.534080
 20
2.634280
  0
VERTEX
  8
0
  6
CONTINUOUS
 10
3.508560
 20
2.592040
  0
VERTEX
  8
0
  6
CONTINUOUS
 10
2.880680
 20
2.993320
  0
VERTEX
  8
0
  6
CONTINUOUS
 10
2.906200
 20
3.035560
  0
SEQEND
  8
0
  0
SOLID
  8
0
 62
    15
 10
2.880680
 20
2.993320
 11
3.508560
 21
2.592040
 12
2.864400
 22
2.938320
 13
3.492280
 23
2.537040
  0
POLYLINE
  8
0
  6
CONTINUOUS
 66
     1
 40
0.000000
 41
0.000000
  0
VERTEX
  8
0
  6
CONTINUOUS
 10
2.880680
 20
2.993320
  0
VERTEX
  8
0
  6
CONTINUOUS
 10
3.508560
 20
2.592040
  0
VERTEX
  8
0
  6
CONTINUOUS
 10
3.492280
 20
2.537040
  0
VERTEX
  8
0
  6
CONTINUOUS
 10
2.864400
 20
2.938320
  0
VERTEX
  8
0
  6
CONTINUOUS
 10
2.880680
 20
2.993320
  0
SEQEND
  8
0
  0
SOLID
  8
0
 62
    15
 10
2.864400
 20
2.938320
 11
3.492280
 21
2.537040
 12
2.858680
 22
2.869240
 13
3.486560
 23
2.467960
  0
POLYLINE
  8
0
  6
CONTINUOUS
 66
     1
 40
0.000000
 41
0.000000
  0
VERTEX
  8
0
  6
CONTINUOUS
 10
2.864400
 20
2.938320
  0
VERTEX
  8
0
  6
CONTINUOUS
 10
3.492280
 20
2.537040
  0
VERTEX
  8
0
  6
CONTINUOUS
 10
3.486560
 20
2.467960
  0
VERTEX
  8
0
  6
CONTINUOUS
 10
2.858680
 20
2.869240
  0
VERTEX
  8
0
  6
CONTINUOUS
 10
2.864400
 20
2.938320
  0
SEQEND
  8
0
  0
SOLID
  8
0
 62
    15
 10
2.858680
 20
2.869240
 11
3.486560
 21
2.467960
 12
2.603920
 22
2.869680
 13
3.232240
 23
2.468400
  0
POLYLINE
  8
0
  6
CONTINUOUS
 66
     1
 40
0.000000
 41
0.000000
  0
VERTEX
  8
0
  6
CONTINUOUS
 10
2.858680
 20
2.869240
  0
VERTEX
  8
0
  6
CONTINUOUS
 10
3.486560
 20
2.467960
  0
VERTEX
  8
0
  6
CONTINUOUS
 10
3.232240
 20
2.468400
  0
VERTEX
  8
0
  6
CONTINUOUS
 10
2.603920
 20
2.869680
  0
VERTEX
  8
0
  6
CONTINUOUS
 10
2.858680
 20
2.869240
  0
SEQEND
  8
0
  0
POLYLINE
  8
0
  6
CONTINUOUS
 66
     1
 40
0.000000
 41
0.000000
  0
VERTEX
  8
0
  6
CONTINUOUS
 10
2.604800
 20
3.778280
  0
VERTEX
  8
0
  6
CONTINUOUS
 10
4.724280
 20
6.386160
  0
VERTEX
  8
0
  6
CONTINUOUS
 10
5.482840
 20
6.385280
  0
VERTEX
  8
0
  6
CONTINUOUS
 10
5.481960
 20
5.992360
  0
VERTEX
  8
0
  6
CONTINUOUS
 10
5.356560
 20
5.992360
  0
VERTEX
  8
0
  6
CONTINUOUS
 10
5.356560
 20
5.878400
  0
VERTEX
  8
0
  6
CONTINUOUS
 10
5.179240
 20
5.878400
  0
VERTEX
  8
0
  6
CONTINUOUS
 10
5.099600
 20
5.657520
  0
VERTEX
  8
0
  6
CONTINUOUS
 10
4.986080
 20
5.472280
  0
VERTEX
  8
0
  6
CONTINUOUS
 10
4.849240
 20
5.318720
  0
VERTEX
  8
0
  6
CONTINUOUS
 10
4.697880
 20
5.193320
  0
VERTEX
  8
0
  6
CONTINUOUS
 10
4.543000
 20
5.091680
  0
VERTEX
  8
0
  6
CONTINUOUS
 10
4.393400
 20
5.009840
  0
VERTEX
  8
0
  6
CONTINUOUS
 10
4.081000
 20
4.857600
  0
VERTEX
  8
0
  6
CONTINUOUS
 10
4.051960
 20
4.843960
  0
VERTEX
  8
0
  6
CONTINUOUS
 10
3.919520
 20
4.773120
  0
VERTEX
  8
0
  6
CONTINUOUS
 10
3.780040
 20
4.670600
  0
VERTEX
  8
0
  6
CONTINUOUS
 10
3.715800
 20
4.605040
  0
VERTEX
  8
0
  6
CONTINUOUS
 10
3.659040
 20
4.528040
  0
VERTEX
  8
0
  6
CONTINUOUS
 10
3.619880
 20
4.429040
  0
VERTEX
  8
0
  6
CONTINUOUS
 10
3.611960
 20
4.326080
  0
VERTEX
  8
0
  6
CONTINUOUS
 10
3.622080
 20
4.224440
  0
VERTEX
  8
0
  6
CONTINUOUS
 10
3.636160
 20
4.128080
  0
VERTEX
  8
0
  6
CONTINUOUS
 10
3.641440
 20
4.042280
  0
VERTEX
  8
0
  6
CONTINUOUS
 10
3.624280
 20
3.971880
  0
VERTEX
  8
0
  6
CONTINUOUS
 10
3.571480
 20
3.922160
  0
VERTEX
  8
0
  6
CONTINUOUS
 10
3.527040
 20
3.906320
  0
VERTEX
  8
0
  6
CONTINUOUS
 10
3.468960
 20
3.897520
  0
VERTEX
  8
0
  6
CONTINUOUS
 10
3.502840
 20
3.843400
  0
VERTEX
  8
0
  6
CONTINUOUS
 10
3.519120
 20
3.791480
  0
VERTEX
  8
0
  6
CONTINUOUS
 10
3.519560
 20
3.741760
  0
VERTEX
  8
0
  6
CONTINUOUS
 10
3.505920
 20
3.694240
  0
VERTEX
  8
0
  6
CONTINUOUS
 10
3.446960
 20
3.608440
  0
VERTEX
  8
0
  6
CONTINUOUS
 10
3.358960
 20
3.536280
  0
VERTEX
  8
0
  6
CONTINUOUS
 10
3.281960
 20
3.475560
  0
VERTEX
  8
0
  6
CONTINUOUS
 10
3.237080
 20
3.413080
  0
VERTEX
  8
0
  6
CONTINUOUS
 10
3.215080
 20
3.336960
  0
VERTEX
  8
0
  6
CONTINUOUS
 10
3.204080
 20
3.235320
  0
VERTEX
  8
0
  6
CONTINUOUS
 10
3.128840
 20
3.235760
  0
VERTEX
  8
0
  6
CONTINUOUS
 10
3.128840
 20
3.109920
  0
VERTEX
  8
0
  6
CONTINUOUS
 10
3.025440
 20
3.101120
  0
VERTEX
  8
0
  6
CONTINUOUS
 10
2.939640
 20
3.066360
  0
VERTEX
  8
0
  6
CONTINUOUS
 10
2.906200
 20
3.035560
  0
VERTEX
  8
0
  6
CONTINUOUS
 10
2.880680
 20
2.993320
  0
VERTEX
  8
0
  6
CONTINUOUS
 10
2.864400
 20
2.938320
  0
VERTEX
  8
0
  6
CONTINUOUS
 10
2.858680
 20
2.869240
  0
VERTEX
  8
0
  6
CONTINUOUS
 10
2.603920
 20
2.869680
  0
VERTEX
  8
0
  6
CONTINUOUS
 10
2.604800
 20
3.778280
  0
SEQEND
  8
0
  0
TEXT
  8
0
 10
4.661800
 20
2.673440
 40
0.138248
  1
BA  1037
 41
1.000000
  7
SN0
 71
     0
 72
     5
 11
5.344434
 21
2.673440
  0
TEXT
  8
0
 10
4.552240
 20
2.482040
 40
0.138248
  1
7/8" x 4-1/2"
 41
1.000000
  7
SN0
 71
     0
 72
     5
 11
5.452921
 21
2.482040
  0
POLYLINE
  8
0
  6
CONTINUOUS
 66
     1
 40
0.014080
 41
0.014080
  0
VERTEX
  8
0
  6
CONTINUOUS
 10
7.401240
 20
7.141200
  0
VERTEX
  8
0
  6
CONTINUOUS
 10
4.040080
 20
7.141200
  0
VERTEX
  8
0
  6
CONTINUOUS
 10
3.562680
 20
7.730800
  0
VERTEX
  8
0
  6
CONTINUOUS
 10
3.868040
 20
7.978080
  0
VERTEX
  8
0
  6
CONTINUOUS
 10
3.947240
 20
7.880400
  0
VERTEX
  8
0
  6
CONTINUOUS
 10
4.035680
 20
7.952560
  0
VERTEX
  8
0
  6
CONTINUOUS
 10
4.147440
 20
7.814400
  0
VERTEX
  8
0
  6
CONTINUOUS
 10
4.203320
 20
7.839040
  0
VERTEX
  8
0
  6
CONTINUOUS
 10
4.286480
 20
7.868960
  0
VERTEX
  8
0
  6
CONTINUOUS
 10
4.341480
 20
7.885240
  0
VERTEX
  8
0
  6
CONTINUOUS
 10
4.423320
 20
7.903280
  0
VERTEX
  8
0
  6
CONTINUOUS
 10
4.504280
 20
7.915160
  0
VERTEX
  8
0
  6
CONTINUOUS
 10
4.557520
 20
7.919560
  0
VERTEX
  8
0
  6
CONTINUOUS
 10
4.636720
 20
7.921760
  0
VERTEX
  8
0
  6
CONTINUOUS
 10
4.688200
 20
7.920440
  0
VERTEX
  8
0
  6
CONTINUOUS
 10
4.739240
 20
7.916920
  0
VERTEX
  8
0
  6
CONTINUOUS
 10
4.789840
 20
7.911200
  0
VERTEX
  8
0
  6
CONTINUOUS
 10
4.839120
 20
7.904160
  0
VERTEX
  8
0
  6
CONTINUOUS
 10
4.887960
 20
7.895360
  0
VERTEX
  8
0
  6
CONTINUOUS
 10
4.982560
 20
7.873360
  0
VERTEX
  8
0
  6
CONTINUOUS
 10
5.072760
 20
7.846960
  0
VERTEX
  8
0
  6
CONTINUOUS
 10
5.159000
 20
7.817040
  0
VERTEX
  8
0
  6
CONTINUOUS
 10
5.240400
 20
7.785360
  0
VERTEX
  8
0
  6
CONTINUOUS
 10
5.387360
 20
7.720680
  0
VERTEX
  8
0
  6
CONTINUOUS
 10
5.726160
 20
7.563160
  0
VERTEX
  8
0
  6
CONTINUOUS
 10
5.799640
 20
7.534120
  0
VERTEX
  8
0
  6
CONTINUOUS
 10
5.880160
 20
7.509040
  0
VERTEX
  8
0
  6
CONTINUOUS
 10
5.944840
 20
7.494520
  0
VERTEX
  8
0
  6
CONTINUOUS
 10
6.012600
 20
7.484840
  0
VERTEX
  8
0
  6
CONTINUOUS
 10
6.058800
 20
7.482200
  0
VERTEX
  8
0
  6
CONTINUOUS
 10
6.082120
 20
7.481760
  0
VERTEX
  8
0
  6
CONTINUOUS
 10
6.129640
 20
7.483960
  0
VERTEX
  8
0
  6
CONTINUOUS
 10
6.167480
 20
7.488800
  0
VERTEX
  8
0
  6
CONTINUOUS
 10
6.194320
 20
7.494520
  0
VERTEX
  8
0
  6
CONTINUOUS
 10
6.231720
 20
7.507720
  0
VERTEX
  8
0
  6
CONTINUOUS
 10
6.255480
 20
7.518720
  0
VERTEX
  8
0
  6
CONTINUOUS
 10
6.299480
 20
7.545560
  0
VERTEX
  8
0
  6
CONTINUOUS
 10
6.340400
 20
7.577240
  0
VERTEX
  8
0
  6
CONTINUOUS
 10
6.377800
 20
7.612440
  0
VERTEX
  8
0
  6
CONTINUOUS
 10
6.494840
 20
7.737840
  0
VERTEX
  8
0
  6
CONTINUOUS
 10
6.526080
 20
7.766880
  0
VERTEX
  8
0
  6
CONTINUOUS
 10
6.557760
 20
7.790200
  0
VERTEX
  8
0
  6
CONTINUOUS
 10
6.590320
 20
7.806040
  0
VERTEX
  8
0
  6
CONTINUOUS
 10
6.615840
 20
7.811760
  0
VERTEX
  8
0
  6
CONTINUOUS
 10
6.633440
 20
7.812200
  0
VERTEX
  8
0
  6
CONTINUOUS
 10
6.660720
 20
7.807800
  0
VERTEX
  8
0
  6
CONTINUOUS
 10
6.689320
 20
7.795920
  0
VERTEX
  8
0
  6
CONTINUOUS
 10
6.719680
 20
7.776560
  0
VERTEX
  8
0
  6
CONTINUOUS
 10
6.763240
 20
7.736960
  0
VERTEX
  8
0
  6
CONTINUOUS
 10
6.772040
 20
7.769080
  0
VERTEX
  8
0
  6
CONTINUOUS
 10
6.783480
 20
7.797240
  0
VERTEX
  8
0
  6
CONTINUOUS
 10
6.797560
 20
7.821880
  0
VERTEX
  8
0
  6
CONTINUOUS
 10
6.813840
 20
7.842560
  0
VERTEX
  8
0
  6
CONTINUOUS
 10
6.832320
 20
7.860160
  0
VERTEX
  8
0
  6
CONTINUOUS
 10
6.852560
 20
7.874240
  0
VERTEX
  8
0
  6
CONTINUOUS
 10
6.874120
 20
7.885680
  0
VERTEX
  8
0
  6
CONTINUOUS
 10
6.909760
 20
7.897120
  0
VERTEX
  8
0
  6
CONTINUOUS
 10
6.934840
 20
7.901520
  0
VERTEX
  8
0
  6
CONTINUOUS
 10
6.974440
 20
7.903280
  0
VERTEX
  8
0
  6
CONTINUOUS
 10
7.001280
 20
7.901960
  0
VERTEX
  8
0
  6
CONTINUOUS
 10
7.029000
 20
7.898880
  0
VERTEX
  8
0
  6
CONTINUOUS
 10
7.085320
 20
7.887000
  0
VERTEX
  8
0
  6
CONTINUOUS
 10
7.164520
 20
7.865000
  0
VERTEX
  8
0
  6
CONTINUOUS
 10
7.187400
 20
7.860600
  0
VERTEX
  8
0
  6
CONTINUOUS
 10
7.229200
 20
7.856640
  0
VERTEX
  8
0
  6
CONTINUOUS
 10
7.248560
 20
7.857080
  0
VERTEX
  8
0
  6
CONTINUOUS
 10
7.285520
 20
7.862800
  0
VERTEX
  8
0
  6
CONTINUOUS
 10
7.321160
 20
7.874680
  0
VERTEX
  8
0
  6
CONTINUOUS
 10
7.358560
 20
7.893160
  0
VERTEX
  8
0
  6
CONTINUOUS
 10
7.420600
 20
7.932760
  0
VERTEX
  8
0
  6
CONTINUOUS
 10
7.443920
 20
7.949040
  0
VERTEX
  8
0
  6
CONTINUOUS
 10
7.491440
 20
7.890520
  0
VERTEX
  8
0
  6
CONTINUOUS
 10
7.589120
 20
7.969280
  0
VERTEX
  8
0
  6
CONTINUOUS
 10
7.623880
 20
7.929240
  0
VERTEX
  8
0
  6
CONTINUOUS
 10
7.641920
 20
7.911200
  0
VERTEX
  8
0
  6
CONTINUOUS
 10
7.680200
 20
7.880400
  0
VERTEX
  8
0
  6
CONTINUOUS
 10
7.710560
 20
7.862360
  0
VERTEX
  8
0
  6
CONTINUOUS
 10
7.742240
 20
7.850040
  0
VERTEX
  8
0
  6
CONTINUOUS
 10
7.775680
 20
7.844320
  0
VERTEX
  8
0
  6
CONTINUOUS
 10
7.799440
 20
7.844320
  0
VERTEX
  8
0
  6
CONTINUOUS
 10
7.823640
 20
7.847400
  0
VERTEX
  8
0
  6
CONTINUOUS
 10
7.849160
 20
7.854440
  0
VERTEX
  8
0
  6
CONTINUOUS
 10
7.889200
 20
7.872480
  0
VERTEX
  8
0
  6
CONTINUOUS
 10
7.917360
 20
7.889640
  0
VERTEX
  8
0
  6
CONTINUOUS
 10
7.946400
 20
7.911640
  0
VERTEX
  8
0
  6
CONTINUOUS
 10
8.106560
 20
7.713640
  0
VERTEX
  8
0
  6
CONTINUOUS
 10
7.401240
 20
7.141200
  0
SEQEND
  8
0
  0
TEXT
  8
0
 10
4.372280
 20
7.454480
 40
0.138248
  1
BA  1037
 41
1.000000
  7
SN0
 71
     0
 72
     5
 11
5.054914
 21
7.454480
  0
TEXT
  8
0
 10
4.262720
 20
7.262640
 40
0.138248
  1
7/8" x 4-1/2"
 41
1.000000
  7
SN0
 71
     0
 72
     5
 11
5.163401
 21
7.262640
  0
TEXT
  8
0
 10
1.066120
 20
0.913880
 40
0.316890
  1
BA 1041 is the same profile as 1037 
 41
1.000000
  7
SN0
 71
     0
 72
     5
 11
7.278579
 21
0.913880
  0
TEXT
  8
0
 10
2.561680
 20
0.473440
 40
0.316890
  1
but tilted 16.5 deg.
 41
1.000000
  7
SN0
 71
     0
 72
     5
 11
5.688043
 21
0.473440
  0
ENDSEC
  0
EOF
