  0
SECTION
  2
HEADER
  9
$ACADVER
  1
AC1006
  9
$EXTMIN
 10
2.666400
 20
1.705880
  9
$EXTMAX
 10
6.180680
 20
4.648600
  9
$LTSCALE
 40
0.044000
  9
$PDMODE
 70
    35
  9
$PDSIZE
 40
0.035200
  0
ENDSEC
  0
SECTION
  2
TABLES
  0
TABLE
  2
LTYPE
 70
     9
  0
LTYPE
  2
CONTINUOUS
 70
    64
  3
Solid line
 72
    65
 73
     0
 40
0.000000
  0
LTYPE
  2
DASHED
 70
    64
  3
__ __ __ __ __ __ __ __ __ __ __ __ __ __ __
 72
    65
 73
     2
 40
0.000330
 49
0.000220
 49
-0.000110
  0
LTYPE
  2
HIDDEN
 70
    64
  3
 _ _ _ _ _ _ _ _ _ _ _ _ _ _ _ _ _ _ _ _ _ _
 72
    65
 73
     2
 40
0.000165
 49
0.000110
 49
-0.000055
  0
LTYPE
  2
CENTER
 70
    64
  3
____ _ ____ _ ____ _ ____ _ ____ _ ____ _ ____
 72
    65
 73
     4
 40
0.000880
 49
0.000550
 49
-0.000110
 49
0.000110
 49
-0.000110
  0
LTYPE
  2
PHANTOM
 70
    64
  3
_____ _ _ _____ _ _ _____ _ _ _____ _ _ ____
 72
    65
 73
     6
 40
0.001100
 49
0.000550
 49
-0.000110
 49
0.000110
 49
-0.000110
 49
0.000110
 49
-0.000110
  0
LTYPE
  2
DOT
 70
    64
  3
...............................................
 72
    65
 73
     2
 40
0.000110
 49
0.000000
 49
-0.000110
  0
LTYPE
  2
DASHDOT
 70
    64
  3
__ . __ . __ . __ . __ . __ . __ . __ . __ . __
 72
    65
 73
     4
 40
0.000440
 49
0.000220
 49
-0.000110
 49
0.000000
 49
-0.000110
  0
LTYPE
  2
BORDER
 70
    64
  3
__ __ . __ __ . __ __ . __ __ . __ __ . __ __
 72
    65
 73
     6
 40
0.000770
 49
0.000220
 49
-0.000110
 49
0.000220
 49
-0.000110
 49
0.000000
 49
-0.000110
  0
LTYPE
  2
DIVIDE
 70
    64
  3
__ . . __ . . __ . . __ . . __ . . __ . . __
 72
    65
 73
     6
 40
0.000550
 49
0.000220
 49
-0.000110
 49
0.000000
 49
-0.000110
 49
0.000000
 49
-0.000110
  0
LTYPE
  2
DOTDOT
 70
    64
  3
 . .  . .  . .  . .  . .  . . 
 72
    65
 73
     5
 40
0.000242
 49
-0.000110
 49
0.000000
 49
-0.000110
 49
0.000000
 49
-0.000110
  0
ENDTAB
  0
TABLE
  2
STYLE
 70
     2
  0
STYLE
 70
     0
  2
SN0
 40
0.000000
 41
0.000440
 50
0.000000
 71
     0
 42
0.000000
  3
ROMAND
  0
STYLE
 70
    68
  2
SV0
 40
0.000000
 41
0.000440
 50
0.000000
 71
     0
 42
0.000000
  3
ROMAND
  0
ENDTAB
  0
TABLE
  2
LAYER
 70
     3
  0
LAYER
  2
FOREGROUND
 70
    64
 62
     7
  6
CONTINUOUS
  0
LAYER
  2
BACKGROUND
 70
    65
 62
    -7
  6
CONTINUOUS
  0
LAYER
  2
0
 70
    64
 62
     7
  6
CONTINUOUS
  0
ENDTAB
  0
ENDSEC
  0
SECTION
  2
ENTITIES
  0
POLYLINE
  8
FOREGROUND
  6
CONTINUOUS
 66
     1
 40
0.000000
 41
0.000000
  0
VERTEX
  8
FOREGROUND
  6
CONTINUOUS
 10
0.000000
 20
6.354480
  0
VERTEX
  8
FOREGROUND
  6
CONTINUOUS
 10
8.499920
 20
6.354480
  0
VERTEX
  8
FOREGROUND
  6
CONTINUOUS
 10
8.499920
 20
-4.645520
  0
VERTEX
  8
FOREGROUND
  6
CONTINUOUS
 10
0.000000
 20
-4.645520
  0
VERTEX
  8
FOREGROUND
  6
CONTINUOUS
 10
0.000000
 20
6.354480
  0
SEQEND
  8
0
  0
POLYLINE
  8
FOREGROUND
  6
CONTINUOUS
 66
     1
 40
0.000000
 41
0.000000
  0
VERTEX
  8
FOREGROUND
  6
CONTINUOUS
 10
0.000000
 20
6.354480
  0
VERTEX
  8
FOREGROUND
  6
CONTINUOUS
 10
8.499920
 20
6.354480
  0
VERTEX
  8
FOREGROUND
  6
CONTINUOUS
 10
8.499920
 20
-4.645520
  0
VERTEX
  8
FOREGROUND
  6
CONTINUOUS
 10
0.000000
 20
-4.645520
  0
VERTEX
  8
FOREGROUND
  6
CONTINUOUS
 10
0.000000
 20
6.354480
  0
SEQEND
  8
0
  0
SOLID
  8
0
 62
    15
 10
4.418920
 20
2.887280
 11
4.418040
 21
3.626480
 12
4.438720
 22
2.887720
 13
4.438280
 23
3.626920
  0
POLYLINE
  8
0
  6
CONTINUOUS
 66
     1
 40
0.000000
 41
0.000000
  0
VERTEX
  8
0
  6
CONTINUOUS
 10
4.418920
 20
2.887280
  0
VERTEX
  8
0
  6
CONTINUOUS
 10
4.418040
 20
3.626480
  0
VERTEX
  8
0
  6
CONTINUOUS
 10
4.438280
 20
3.626920
  0
VERTEX
  8
0
  6
CONTINUOUS
 10
4.438720
 20
2.887720
  0
VERTEX
  8
0
  6
CONTINUOUS
 10
4.418920
 20
2.887280
  0
SEQEND
  8
0
  0
SOLID
  8
0
 62
    15
 10
2.694560
 20
2.174040
 11
2.693680
 21
2.913240
 12
2.694560
 22
2.923360
 13
2.693680
 23
3.663000
  0
POLYLINE
  8
0
  6
CONTINUOUS
 66
     1
 40
0.000000
 41
0.000000
  0
VERTEX
  8
0
  6
CONTINUOUS
 10
2.694560
 20
2.174040
  0
VERTEX
  8
0
  6
CONTINUOUS
 10
2.693680
 20
2.913240
  0
VERTEX
  8
0
  6
CONTINUOUS
 10
2.693680
 20
3.663000
  0
VERTEX
  8
0
  6
CONTINUOUS
 10
2.694560
 20
2.923360
  0
VERTEX
  8
0
  6
CONTINUOUS
 10
2.694560
 20
2.174040
  0
SEQEND
  8
0
  0
SOLID
  8
0
 62
    15
 10
3.215960
 20
2.923360
 11
3.215080
 21
3.663000
 12
3.219040
 22
2.910160
 13
3.218160
 23
3.649800
  0
POLYLINE
  8
0
  6
CONTINUOUS
 66
     1
 40
0.000000
 41
0.000000
  0
VERTEX
  8
0
  6
CONTINUOUS
 10
3.215960
 20
2.923360
  0
VERTEX
  8
0
  6
CONTINUOUS
 10
3.215080
 20
3.663000
  0
VERTEX
  8
0
  6
CONTINUOUS
 10
3.218160
 20
3.649800
  0
VERTEX
  8
0
  6
CONTINUOUS
 10
3.219040
 20
2.910160
  0
VERTEX
  8
0
  6
CONTINUOUS
 10
3.215960
 20
2.923360
  0
SEQEND
  8
0
  0
SOLID
  8
0
 62
    15
 10
3.219040
 20
2.910160
 11
3.218160
 21
3.649800
 12
3.227400
 22
2.890360
 13
3.226960
 23
3.629560
  0
POLYLINE
  8
0
  6
CONTINUOUS
 66
     1
 40
0.000000
 41
0.000000
  0
VERTEX
  8
0
  6
CONTINUOUS
 10
3.219040
 20
2.910160
  0
VERTEX
  8
0
  6
CONTINUOUS
 10
3.218160
 20
3.649800
  0
VERTEX
  8
0
  6
CONTINUOUS
 10
3.226960
 20
3.629560
  0
VERTEX
  8
0
  6
CONTINUOUS
 10
3.227400
 20
2.890360
  0
VERTEX
  8
0
  6
CONTINUOUS
 10
3.219040
 20
2.910160
  0
SEQEND
  8
0
  0
SOLID
  8
0
 62
    15
 10
3.227400
 20
2.890360
 11
3.226960
 21
3.629560
 12
3.241480
 22
2.865720
 13
3.241040
 23
3.605360
  0
POLYLINE
  8
0
  6
CONTINUOUS
 66
     1
 40
0.000000
 41
0.000000
  0
VERTEX
  8
0
  6
CONTINUOUS
 10
3.227400
 20
2.890360
  0
VERTEX
  8
0
  6
CONTINUOUS
 10
3.226960
 20
3.629560
  0
VERTEX
  8
0
  6
CONTINUOUS
 10
3.241040
 20
3.605360
  0
VERTEX
  8
0
  6
CONTINUOUS
 10
3.241480
 20
2.865720
  0
VERTEX
  8
0
  6
CONTINUOUS
 10
3.227400
 20
2.890360
  0
SEQEND
  8
0
  0
SOLID
  8
0
 62
    15
 10
3.241480
 20
2.865720
 11
3.241040
 21
3.605360
 12
3.260840
 22
2.840200
 13
3.259960
 23
3.579400
  0
POLYLINE
  8
0
  6
CONTINUOUS
 66
     1
 40
0.000000
 41
0.000000
  0
VERTEX
  8
0
  6
CONTINUOUS
 10
3.241480
 20
2.865720
  0
VERTEX
  8
0
  6
CONTINUOUS
 10
3.241040
 20
3.605360
  0
VERTEX
  8
0
  6
CONTINUOUS
 10
3.259960
 20
3.579400
  0
VERTEX
  8
0
  6
CONTINUOUS
 10
3.260840
 20
2.840200
  0
VERTEX
  8
0
  6
CONTINUOUS
 10
3.241480
 20
2.865720
  0
SEQEND
  8
0
  0
SOLID
  8
0
 62
    15
 10
3.260840
 20
2.840200
 11
3.259960
 21
3.579400
 12
3.285040
 22
2.815560
 13
3.284160
 23
3.554760
  0
POLYLINE
  8
0
  6
CONTINUOUS
 66
     1
 40
0.000000
 41
0.000000
  0
VERTEX
  8
0
  6
CONTINUOUS
 10
3.260840
 20
2.840200
  0
VERTEX
  8
0
  6
CONTINUOUS
 10
3.259960
 20
3.579400
  0
VERTEX
  8
0
  6
CONTINUOUS
 10
3.284160
 20
3.554760
  0
VERTEX
  8
0
  6
CONTINUOUS
 10
3.285040
 20
2.815560
  0
VERTEX
  8
0
  6
CONTINUOUS
 10
3.260840
 20
2.840200
  0
SEQEND
  8
0
  0
SOLID
  8
0
 62
    15
 10
3.285040
 20
2.815560
 11
3.284160
 21
3.554760
 12
3.314080
 22
2.794440
 13
3.313200
 23
3.534080
  0
POLYLINE
  8
0
  6
CONTINUOUS
 66
     1
 40
0.000000
 41
0.000000
  0
VERTEX
  8
0
  6
CONTINUOUS
 10
3.285040
 20
2.815560
  0
VERTEX
  8
0
  6
CONTINUOUS
 10
3.284160
 20
3.554760
  0
VERTEX
  8
0
  6
CONTINUOUS
 10
3.313200
 20
3.534080
  0
VERTEX
  8
0
  6
CONTINUOUS
 10
3.314080
 20
2.794440
  0
VERTEX
  8
0
  6
CONTINUOUS
 10
3.285040
 20
2.815560
  0
SEQEND
  8
0
  0
SOLID
  8
0
 62
    15
 10
3.314080
 20
2.794440
 11
3.313200
 21
3.534080
 12
3.347080
 22
2.780360
 13
3.346200
 23
3.519560
  0
POLYLINE
  8
0
  6
CONTINUOUS
 66
     1
 40
0.000000
 41
0.000000
  0
VERTEX
  8
0
  6
CONTINUOUS
 10
3.314080
 20
2.794440
  0
VERTEX
  8
0
  6
CONTINUOUS
 10
3.313200
 20
3.534080
  0
VERTEX
  8
0
  6
CONTINUOUS
 10
3.346200
 20
3.519560
  0
VERTEX
  8
0
  6
CONTINUOUS
 10
3.347080
 20
2.780360
  0
VERTEX
  8
0
  6
CONTINUOUS
 10
3.314080
 20
2.794440
  0
SEQEND
  8
0
  0
SOLID
  8
0
 62
    15
 10
3.347080
 20
2.780360
 11
3.346200
 21
3.519560
 12
3.384480
 22
2.775520
 13
3.383600
 23
3.514720
  0
POLYLINE
  8
0
  6
CONTINUOUS
 66
     1
 40
0.000000
 41
0.000000
  0
VERTEX
  8
0
  6
CONTINUOUS
 10
3.347080
 20
2.780360
  0
VERTEX
  8
0
  6
CONTINUOUS
 10
3.346200
 20
3.519560
  0
VERTEX
  8
0
  6
CONTINUOUS
 10
3.383600
 20
3.514720
  0
VERTEX
  8
0
  6
CONTINUOUS
 10
3.384480
 20
2.775520
  0
VERTEX
  8
0
  6
CONTINUOUS
 10
3.347080
 20
2.780360
  0
SEQEND
  8
0
  0
SOLID
  8
0
 62
    15
 10
3.384480
 20
2.775520
 11
3.383600
 21
3.514720
 12
3.421880
 22
2.779480
 13
3.421000
 23
3.519120
  0
POLYLINE
  8
0
  6
CONTINUOUS
 66
     1
 40
0.000000
 41
0.000000
  0
VERTEX
  8
0
  6
CONTINUOUS
 10
3.384480
 20
2.775520
  0
VERTEX
  8
0
  6
CONTINUOUS
 10
3.383600
 20
3.514720
  0
VERTEX
  8
0
  6
CONTINUOUS
 10
3.421000
 20
3.519120
  0
VERTEX
  8
0
  6
CONTINUOUS
 10
3.421880
 20
2.779480
  0
VERTEX
  8
0
  6
CONTINUOUS
 10
3.384480
 20
2.775520
  0
SEQEND
  8
0
  0
SOLID
  8
0
 62
    15
 10
3.421880
 20
2.779480
 11
3.421000
 21
3.519120
 12
3.456640
 22
2.790040
 13
3.455760
 23
3.529240
  0
POLYLINE
  8
0
  6
CONTINUOUS
 66
     1
 40
0.000000
 41
0.000000
  0
VERTEX
  8
0
  6
CONTINUOUS
 10
3.421880
 20
2.779480
  0
VERTEX
  8
0
  6
CONTINUOUS
 10
3.421000
 20
3.519120
  0
VERTEX
  8
0
  6
CONTINUOUS
 10
3.455760
 20
3.529240
  0
VERTEX
  8
0
  6
CONTINUOUS
 10
3.456640
 20
2.790040
  0
VERTEX
  8
0
  6
CONTINUOUS
 10
3.421880
 20
2.779480
  0
SEQEND
  8
0
  0
SOLID
  8
0
 62
    15
 10
3.456640
 20
2.790040
 11
3.455760
 21
3.529240
 12
3.520440
 22
2.820400
 13
3.519560
 23
3.559600
  0
POLYLINE
  8
0
  6
CONTINUOUS
 66
     1
 40
0.000000
 41
0.000000
  0
VERTEX
  8
0
  6
CONTINUOUS
 10
3.456640
 20
2.790040
  0
VERTEX
  8
0
  6
CONTINUOUS
 10
3.455760
 20
3.529240
  0
VERTEX
  8
0
  6
CONTINUOUS
 10
3.519560
 20
3.559600
  0
VERTEX
  8
0
  6
CONTINUOUS
 10
3.520440
 20
2.820400
  0
VERTEX
  8
0
  6
CONTINUOUS
 10
3.456640
 20
2.790040
  0
SEQEND
  8
0
  0
SOLID
  8
0
 62
    15
 10
3.520440
 20
2.820400
 11
3.519560
 21
3.559600
 12
3.535840
 22
2.828760
 13
3.534960
 23
3.567960
  0
POLYLINE
  8
0
  6
CONTINUOUS
 66
     1
 40
0.000000
 41
0.000000
  0
VERTEX
  8
0
  6
CONTINUOUS
 10
3.520440
 20
2.820400
  0
VERTEX
  8
0
  6
CONTINUOUS
 10
3.519560
 20
3.559600
  0
VERTEX
  8
0
  6
CONTINUOUS
 10
3.534960
 20
3.567960
  0
VERTEX
  8
0
  6
CONTINUOUS
 10
3.535840
 20
2.828760
  0
VERTEX
  8
0
  6
CONTINUOUS
 10
3.520440
 20
2.820400
  0
SEQEND
  8
0
  0
SOLID
  8
0
 62
    15
 10
3.535840
 20
2.828760
 11
3.534960
 21
3.567960
 12
3.551240
 22
2.836680
 13
3.550360
 23
3.575880
  0
POLYLINE
  8
0
  6
CONTINUOUS
 66
     1
 40
0.000000
 41
0.000000
  0
VERTEX
  8
0
  6
CONTINUOUS
 10
3.535840
 20
2.828760
  0
VERTEX
  8
0
  6
CONTINUOUS
 10
3.534960
 20
3.567960
  0
VERTEX
  8
0
  6
CONTINUOUS
 10
3.550360
 20
3.575880
  0
VERTEX
  8
0
  6
CONTINUOUS
 10
3.551240
 20
2.836680
  0
VERTEX
  8
0
  6
CONTINUOUS
 10
3.535840
 20
2.828760
  0
SEQEND
  8
0
  0
SOLID
  8
0
 62
    15
 10
3.551240
 20
2.836680
 11
3.550360
 21
3.575880
 12
3.582480
 22
2.851200
 13
3.582040
 23
3.590400
  0
POLYLINE
  8
0
  6
CONTINUOUS
 66
     1
 40
0.000000
 41
0.000000
  0
VERTEX
  8
0
  6
CONTINUOUS
 10
3.551240
 20
2.836680
  0
VERTEX
  8
0
  6
CONTINUOUS
 10
3.550360
 20
3.575880
  0
VERTEX
  8
0
  6
CONTINUOUS
 10
3.582040
 20
3.590400
  0
VERTEX
  8
0
  6
CONTINUOUS
 10
3.582480
 20
2.851200
  0
VERTEX
  8
0
  6
CONTINUOUS
 10
3.551240
 20
2.836680
  0
SEQEND
  8
0
  0
SOLID
  8
0
 62
    15
 10
3.582480
 20
2.851200
 11
3.582040
 21
3.590400
 12
3.615480
 22
2.861760
 13
3.614600
 23
3.600960
  0
POLYLINE
  8
0
  6
CONTINUOUS
 66
     1
 40
0.000000
 41
0.000000
  0
VERTEX
  8
0
  6
CONTINUOUS
 10
3.582480
 20
2.851200
  0
VERTEX
  8
0
  6
CONTINUOUS
 10
3.582040
 20
3.590400
  0
VERTEX
  8
0
  6
CONTINUOUS
 10
3.614600
 20
3.600960
  0
VERTEX
  8
0
  6
CONTINUOUS
 10
3.615480
 20
2.861760
  0
VERTEX
  8
0
  6
CONTINUOUS
 10
3.582480
 20
2.851200
  0
SEQEND
  8
0
  0
SOLID
  8
0
 62
    15
 10
3.615480
 20
2.861760
 11
3.614600
 21
3.600960
 12
3.649800
 22
2.866160
 13
3.648920
 23
3.605360
  0
POLYLINE
  8
0
  6
CONTINUOUS
 66
     1
 40
0.000000
 41
0.000000
  0
VERTEX
  8
0
  6
CONTINUOUS
 10
3.615480
 20
2.861760
  0
VERTEX
  8
0
  6
CONTINUOUS
 10
3.614600
 20
3.600960
  0
VERTEX
  8
0
  6
CONTINUOUS
 10
3.648920
 20
3.605360
  0
VERTEX
  8
0
  6
CONTINUOUS
 10
3.649800
 20
2.866160
  0
VERTEX
  8
0
  6
CONTINUOUS
 10
3.615480
 20
2.861760
  0
SEQEND
  8
0
  0
SOLID
  8
0
 62
    15
 10
3.649800
 20
2.866160
 11
3.648920
 21
3.605360
 12
3.683240
 22
2.865280
 13
3.682360
 23
3.604480
  0
POLYLINE
  8
0
  6
CONTINUOUS
 66
     1
 40
0.000000
 41
0.000000
  0
VERTEX
  8
0
  6
CONTINUOUS
 10
3.649800
 20
2.866160
  0
VERTEX
  8
0
  6
CONTINUOUS
 10
3.648920
 20
3.605360
  0
VERTEX
  8
0
  6
CONTINUOUS
 10
3.682360
 20
3.604480
  0
VERTEX
  8
0
  6
CONTINUOUS
 10
3.683240
 20
2.865280
  0
VERTEX
  8
0
  6
CONTINUOUS
 10
3.649800
 20
2.866160
  0
SEQEND
  8
0
  0
SOLID
  8
0
 62
    15
 10
3.683240
 20
2.865280
 11
3.682360
 21
3.604480
 12
3.711400
 22
2.860440
 13
3.710520
 23
3.599640
  0
POLYLINE
  8
0
  6
CONTINUOUS
 66
     1
 40
0.000000
 41
0.000000
  0
VERTEX
  8
0
  6
CONTINUOUS
 10
3.683240
 20
2.865280
  0
VERTEX
  8
0
  6
CONTINUOUS
 10
3.682360
 20
3.604480
  0
VERTEX
  8
0
  6
CONTINUOUS
 10
3.710520
 20
3.599640
  0
VERTEX
  8
0
  6
CONTINUOUS
 10
3.711400
 20
2.860440
  0
VERTEX
  8
0
  6
CONTINUOUS
 10
3.683240
 20
2.865280
  0
SEQEND
  8
0
  0
SOLID
  8
0
 62
    15
 10
3.711400
 20
2.860440
 11
3.710520
 21
3.599640
 12
3.734280
 22
2.853400
 13
3.733840
 23
3.592600
  0
POLYLINE
  8
0
  6
CONTINUOUS
 66
     1
 40
0.000000
 41
0.000000
  0
VERTEX
  8
0
  6
CONTINUOUS
 10
3.711400
 20
2.860440
  0
VERTEX
  8
0
  6
CONTINUOUS
 10
3.710520
 20
3.599640
  0
VERTEX
  8
0
  6
CONTINUOUS
 10
3.733840
 20
3.592600
  0
VERTEX
  8
0
  6
CONTINUOUS
 10
3.734280
 20
2.853400
  0
VERTEX
  8
0
  6
CONTINUOUS
 10
3.711400
 20
2.860440
  0
SEQEND
  8
0
  0
SOLID
  8
0
 62
    15
 10
3.734280
 20
2.853400
 11
3.733840
 21
3.592600
 12
3.753200
 22
2.843720
 13
3.752320
 23
3.582920
  0
POLYLINE
  8
0
  6
CONTINUOUS
 66
     1
 40
0.000000
 41
0.000000
  0
VERTEX
  8
0
  6
CONTINUOUS
 10
3.734280
 20
2.853400
  0
VERTEX
  8
0
  6
CONTINUOUS
 10
3.733840
 20
3.592600
  0
VERTEX
  8
0
  6
CONTINUOUS
 10
3.752320
 20
3.582920
  0
VERTEX
  8
0
  6
CONTINUOUS
 10
3.753200
 20
2.843720
  0
VERTEX
  8
0
  6
CONTINUOUS
 10
3.734280
 20
2.853400
  0
SEQEND
  8
0
  0
SOLID
  8
0
 62
    15
 10
3.753200
 20
2.843720
 11
3.752320
 21
3.582920
 12
3.767720
 22
2.832720
 13
3.766840
 23
3.571920
  0
POLYLINE
  8
0
  6
CONTINUOUS
 66
     1
 40
0.000000
 41
0.000000
  0
VERTEX
  8
0
  6
CONTINUOUS
 10
3.753200
 20
2.843720
  0
VERTEX
  8
0
  6
CONTINUOUS
 10
3.752320
 20
3.582920
  0
VERTEX
  8
0
  6
CONTINUOUS
 10
3.766840
 20
3.571920
  0
VERTEX
  8
0
  6
CONTINUOUS
 10
3.767720
 20
2.832720
  0
VERTEX
  8
0
  6
CONTINUOUS
 10
3.753200
 20
2.843720
  0
SEQEND
  8
0
  0
SOLID
  8
0
 62
    15
 10
3.767720
 20
2.832720
 11
3.766840
 21
3.571920
 12
3.778280
 22
2.820840
 13
3.777400
 23
3.560480
  0
POLYLINE
  8
0
  6
CONTINUOUS
 66
     1
 40
0.000000
 41
0.000000
  0
VERTEX
  8
0
  6
CONTINUOUS
 10
3.767720
 20
2.832720
  0
VERTEX
  8
0
  6
CONTINUOUS
 10
3.766840
 20
3.571920
  0
VERTEX
  8
0
  6
CONTINUOUS
 10
3.777400
 20
3.560480
  0
VERTEX
  8
0
  6
CONTINUOUS
 10
3.778280
 20
2.820840
  0
VERTEX
  8
0
  6
CONTINUOUS
 10
3.767720
 20
2.832720
  0
SEQEND
  8
0
  0
SOLID
  8
0
 62
    15
 10
3.778280
 20
2.820840
 11
3.777400
 21
3.560480
 12
3.788840
 22
2.797960
 13
3.787960
 23
3.537600
  0
POLYLINE
  8
0
  6
CONTINUOUS
 66
     1
 40
0.000000
 41
0.000000
  0
VERTEX
  8
0
  6
CONTINUOUS
 10
3.778280
 20
2.820840
  0
VERTEX
  8
0
  6
CONTINUOUS
 10
3.777400
 20
3.560480
  0
VERTEX
  8
0
  6
CONTINUOUS
 10
3.787960
 20
3.537600
  0
VERTEX
  8
0
  6
CONTINUOUS
 10
3.788840
 20
2.797960
  0
VERTEX
  8
0
  6
CONTINUOUS
 10
3.778280
 20
2.820840
  0
SEQEND
  8
0
  0
SOLID
  8
0
 62
    15
 10
3.788840
 20
2.797960
 11
3.787960
 21
3.537600
 12
3.805560
 22
2.816440
 13
3.804680
 23
3.556080
  0
POLYLINE
  8
0
  6
CONTINUOUS
 66
     1
 40
0.000000
 41
0.000000
  0
VERTEX
  8
0
  6
CONTINUOUS
 10
3.788840
 20
2.797960
  0
VERTEX
  8
0
  6
CONTINUOUS
 10
3.787960
 20
3.537600
  0
VERTEX
  8
0
  6
CONTINUOUS
 10
3.804680
 20
3.556080
  0
VERTEX
  8
0
  6
CONTINUOUS
 10
3.805560
 20
2.816440
  0
VERTEX
  8
0
  6
CONTINUOUS
 10
3.788840
 20
2.797960
  0
SEQEND
  8
0
  0
SOLID
  8
0
 62
    15
 10
3.805560
 20
2.816440
 11
3.804680
 21
3.556080
 12
3.818760
 22
2.830520
 13
3.817880
 23
3.569720
  0
POLYLINE
  8
0
  6
CONTINUOUS
 66
     1
 40
0.000000
 41
0.000000
  0
VERTEX
  8
0
  6
CONTINUOUS
 10
3.805560
 20
2.816440
  0
VERTEX
  8
0
  6
CONTINUOUS
 10
3.804680
 20
3.556080
  0
VERTEX
  8
0
  6
CONTINUOUS
 10
3.817880
 20
3.569720
  0
VERTEX
  8
0
  6
CONTINUOUS
 10
3.818760
 20
2.830520
  0
VERTEX
  8
0
  6
CONTINUOUS
 10
3.805560
 20
2.816440
  0
SEQEND
  8
0
  0
SOLID
  8
0
 62
    15
 10
3.818760
 20
2.830520
 11
3.817880
 21
3.569720
 12
3.830200
 22
2.839760
 13
3.829320
 23
3.579400
  0
POLYLINE
  8
0
  6
CONTINUOUS
 66
     1
 40
0.000000
 41
0.000000
  0
VERTEX
  8
0
  6
CONTINUOUS
 10
3.818760
 20
2.830520
  0
VERTEX
  8
0
  6
CONTINUOUS
 10
3.817880
 20
3.569720
  0
VERTEX
  8
0
  6
CONTINUOUS
 10
3.829320
 20
3.579400
  0
VERTEX
  8
0
  6
CONTINUOUS
 10
3.830200
 20
2.839760
  0
VERTEX
  8
0
  6
CONTINUOUS
 10
3.818760
 20
2.830520
  0
SEQEND
  8
0
  0
SOLID
  8
0
 62
    15
 10
3.830200
 20
2.839760
 11
3.829320
 21
3.579400
 12
3.840760
 22
2.844160
 13
3.839880
 23
3.583360
  0
POLYLINE
  8
0
  6
CONTINUOUS
 66
     1
 40
0.000000
 41
0.000000
  0
VERTEX
  8
0
  6
CONTINUOUS
 10
3.830200
 20
2.839760
  0
VERTEX
  8
0
  6
CONTINUOUS
 10
3.829320
 20
3.579400
  0
VERTEX
  8
0
  6
CONTINUOUS
 10
3.839880
 20
3.583360
  0
VERTEX
  8
0
  6
CONTINUOUS
 10
3.840760
 20
2.844160
  0
VERTEX
  8
0
  6
CONTINUOUS
 10
3.830200
 20
2.839760
  0
SEQEND
  8
0
  0
SOLID
  8
0
 62
    15
 10
3.840760
 20
2.844160
 11
3.839880
 21
3.583360
 12
3.851760
 22
2.843280
 13
3.850880
 23
3.582480
  0
POLYLINE
  8
0
  6
CONTINUOUS
 66
     1
 40
0.000000
 41
0.000000
  0
VERTEX
  8
0
  6
CONTINUOUS
 10
3.840760
 20
2.844160
  0
VERTEX
  8
0
  6
CONTINUOUS
 10
3.839880
 20
3.583360
  0
VERTEX
  8
0
  6
CONTINUOUS
 10
3.850880
 20
3.582480
  0
VERTEX
  8
0
  6
CONTINUOUS
 10
3.851760
 20
2.843280
  0
VERTEX
  8
0
  6
CONTINUOUS
 10
3.840760
 20
2.844160
  0
SEQEND
  8
0
  0
SOLID
  8
0
 62
    15
 10
3.851760
 20
2.843280
 11
3.850880
 21
3.582480
 12
3.864080
 22
2.836680
 13
3.863200
 23
3.575880
  0
POLYLINE
  8
0
  6
CONTINUOUS
 66
     1
 40
0.000000
 41
0.000000
  0
VERTEX
  8
0
  6
CONTINUOUS
 10
3.851760
 20
2.843280
  0
VERTEX
  8
0
  6
CONTINUOUS
 10
3.850880
 20
3.582480
  0
VERTEX
  8
0
  6
CONTINUOUS
 10
3.863200
 20
3.575880
  0
VERTEX
  8
0
  6
CONTINUOUS
 10
3.864080
 20
2.836680
  0
VERTEX
  8
0
  6
CONTINUOUS
 10
3.851760
 20
2.843280
  0
SEQEND
  8
0
  0
SOLID
  8
0
 62
    15
 10
3.864080
 20
2.836680
 11
3.863200
 21
3.575880
 12
3.879040
 22
2.823920
 13
3.878160
 23
3.563120
  0
POLYLINE
  8
0
  6
CONTINUOUS
 66
     1
 40
0.000000
 41
0.000000
  0
VERTEX
  8
0
  6
CONTINUOUS
 10
3.864080
 20
2.836680
  0
VERTEX
  8
0
  6
CONTINUOUS
 10
3.863200
 20
3.575880
  0
VERTEX
  8
0
  6
CONTINUOUS
 10
3.878160
 20
3.563120
  0
VERTEX
  8
0
  6
CONTINUOUS
 10
3.879040
 20
2.823920
  0
VERTEX
  8
0
  6
CONTINUOUS
 10
3.864080
 20
2.836680
  0
SEQEND
  8
0
  0
SOLID
  8
0
 62
    15
 10
3.879040
 20
2.823920
 11
3.878160
 21
3.563120
 12
3.897960
 22
2.805440
 13
3.897080
 23
3.544640
  0
POLYLINE
  8
0
  6
CONTINUOUS
 66
     1
 40
0.000000
 41
0.000000
  0
VERTEX
  8
0
  6
CONTINUOUS
 10
3.879040
 20
2.823920
  0
VERTEX
  8
0
  6
CONTINUOUS
 10
3.878160
 20
3.563120
  0
VERTEX
  8
0
  6
CONTINUOUS
 10
3.897080
 20
3.544640
  0
VERTEX
  8
0
  6
CONTINUOUS
 10
3.897960
 20
2.805440
  0
VERTEX
  8
0
  6
CONTINUOUS
 10
3.879040
 20
2.823920
  0
SEQEND
  8
0
  0
SOLID
  8
0
 62
    15
 10
3.897960
 20
2.805440
 11
3.897080
 21
3.544640
 12
3.921280
 22
2.788720
 13
3.920400
 23
3.527920
  0
POLYLINE
  8
0
  6
CONTINUOUS
 66
     1
 40
0.000000
 41
0.000000
  0
VERTEX
  8
0
  6
CONTINUOUS
 10
3.897960
 20
2.805440
  0
VERTEX
  8
0
  6
CONTINUOUS
 10
3.897080
 20
3.544640
  0
VERTEX
  8
0
  6
CONTINUOUS
 10
3.920400
 20
3.527920
  0
VERTEX
  8
0
  6
CONTINUOUS
 10
3.921280
 20
2.788720
  0
VERTEX
  8
0
  6
CONTINUOUS
 10
3.897960
 20
2.805440
  0
SEQEND
  8
0
  0
SOLID
  8
0
 62
    15
 10
3.921280
 20
2.788720
 11
3.920400
 21
3.527920
 12
3.947240
 22
2.781240
 13
3.946360
 23
3.520440
  0
POLYLINE
  8
0
  6
CONTINUOUS
 66
     1
 40
0.000000
 41
0.000000
  0
VERTEX
  8
0
  6
CONTINUOUS
 10
3.921280
 20
2.788720
  0
VERTEX
  8
0
  6
CONTINUOUS
 10
3.920400
 20
3.527920
  0
VERTEX
  8
0
  6
CONTINUOUS
 10
3.946360
 20
3.520440
  0
VERTEX
  8
0
  6
CONTINUOUS
 10
3.947240
 20
2.781240
  0
VERTEX
  8
0
  6
CONTINUOUS
 10
3.921280
 20
2.788720
  0
SEQEND
  8
0
  0
SOLID
  8
0
 62
    15
 10
3.947240
 20
2.781240
 11
3.946360
 21
3.520440
 12
3.974520
 22
2.781240
 13
3.973640
 23
3.520440
  0
POLYLINE
  8
0
  6
CONTINUOUS
 66
     1
 40
0.000000
 41
0.000000
  0
VERTEX
  8
0
  6
CONTINUOUS
 10
3.947240
 20
2.781240
  0
VERTEX
  8
0
  6
CONTINUOUS
 10
3.946360
 20
3.520440
  0
VERTEX
  8
0
  6
CONTINUOUS
 10
3.973640
 20
3.520440
  0
VERTEX
  8
0
  6
CONTINUOUS
 10
3.974520
 20
2.781240
  0
VERTEX
  8
0
  6
CONTINUOUS
 10
3.947240
 20
2.781240
  0
SEQEND
  8
0
  0
SOLID
  8
0
 62
    15
 10
3.974520
 20
2.781240
 11
3.973640
 21
3.520440
 12
4.002240
 22
2.787400
 13
4.001360
 23
3.526600
  0
POLYLINE
  8
0
  6
CONTINUOUS
 66
     1
 40
0.000000
 41
0.000000
  0
VERTEX
  8
0
  6
CONTINUOUS
 10
3.974520
 20
2.781240
  0
VERTEX
  8
0
  6
CONTINUOUS
 10
3.973640
 20
3.520440
  0
VERTEX
  8
0
  6
CONTINUOUS
 10
4.001360
 20
3.526600
  0
VERTEX
  8
0
  6
CONTINUOUS
 10
4.002240
 20
2.787400
  0
VERTEX
  8
0
  6
CONTINUOUS
 10
3.974520
 20
2.781240
  0
SEQEND
  8
0
  0
SOLID
  8
0
 62
    15
 10
4.002240
 20
2.787400
 11
4.001360
 21
3.526600
 12
4.028200
 22
2.797520
 13
4.027320
 23
3.536720
  0
POLYLINE
  8
0
  6
CONTINUOUS
 66
     1
 40
0.000000
 41
0.000000
  0
VERTEX
  8
0
  6
CONTINUOUS
 10
4.002240
 20
2.787400
  0
VERTEX
  8
0
  6
CONTINUOUS
 10
4.001360
 20
3.526600
  0
VERTEX
  8
0
  6
CONTINUOUS
 10
4.027320
 20
3.536720
  0
VERTEX
  8
0
  6
CONTINUOUS
 10
4.028200
 20
2.797520
  0
VERTEX
  8
0
  6
CONTINUOUS
 10
4.002240
 20
2.787400
  0
SEQEND
  8
0
  0
SOLID
  8
0
 62
    15
 10
4.028200
 20
2.797520
 11
4.027320
 21
3.536720
 12
4.051960
 22
2.810280
 13
4.051080
 23
3.549480
  0
POLYLINE
  8
0
  6
CONTINUOUS
 66
     1
 40
0.000000
 41
0.000000
  0
VERTEX
  8
0
  6
CONTINUOUS
 10
4.028200
 20
2.797520
  0
VERTEX
  8
0
  6
CONTINUOUS
 10
4.027320
 20
3.536720
  0
VERTEX
  8
0
  6
CONTINUOUS
 10
4.051080
 20
3.549480
  0
VERTEX
  8
0
  6
CONTINUOUS
 10
4.051960
 20
2.810280
  0
VERTEX
  8
0
  6
CONTINUOUS
 10
4.028200
 20
2.797520
  0
SEQEND
  8
0
  0
SOLID
  8
0
 62
    15
 10
4.051960
 20
2.810280
 11
4.051080
 21
3.549480
 12
4.071320
 22
2.823480
 13
4.070440
 23
3.563120
  0
POLYLINE
  8
0
  6
CONTINUOUS
 66
     1
 40
0.000000
 41
0.000000
  0
VERTEX
  8
0
  6
CONTINUOUS
 10
4.051960
 20
2.810280
  0
VERTEX
  8
0
  6
CONTINUOUS
 10
4.051080
 20
3.549480
  0
VERTEX
  8
0
  6
CONTINUOUS
 10
4.070440
 20
3.563120
  0
VERTEX
  8
0
  6
CONTINUOUS
 10
4.071320
 20
2.823480
  0
VERTEX
  8
0
  6
CONTINUOUS
 10
4.051960
 20
2.810280
  0
SEQEND
  8
0
  0
SOLID
  8
0
 62
    15
 10
4.071320
 20
2.823480
 11
4.070440
 21
3.563120
 12
4.085840
 22
2.836240
 13
4.084960
 23
3.575440
  0
POLYLINE
  8
0
  6
CONTINUOUS
 66
     1
 40
0.000000
 41
0.000000
  0
VERTEX
  8
0
  6
CONTINUOUS
 10
4.071320
 20
2.823480
  0
VERTEX
  8
0
  6
CONTINUOUS
 10
4.070440
 20
3.563120
  0
VERTEX
  8
0
  6
CONTINUOUS
 10
4.084960
 20
3.575440
  0
VERTEX
  8
0
  6
CONTINUOUS
 10
4.085840
 20
2.836240
  0
VERTEX
  8
0
  6
CONTINUOUS
 10
4.071320
 20
2.823480
  0
SEQEND
  8
0
  0
SOLID
  8
0
 62
    15
 10
4.085840
 20
2.836240
 11
4.084960
 21
3.575440
 12
4.146560
 22
2.762320
 13
4.145680
 23
3.501520
  0
POLYLINE
  8
0
  6
CONTINUOUS
 66
     1
 40
0.000000
 41
0.000000
  0
VERTEX
  8
0
  6
CONTINUOUS
 10
4.085840
 20
2.836240
  0
VERTEX
  8
0
  6
CONTINUOUS
 10
4.084960
 20
3.575440
  0
VERTEX
  8
0
  6
CONTINUOUS
 10
4.145680
 20
3.501520
  0
VERTEX
  8
0
  6
CONTINUOUS
 10
4.146560
 20
2.762320
  0
VERTEX
  8
0
  6
CONTINUOUS
 10
4.085840
 20
2.836240
  0
SEQEND
  8
0
  0
SOLID
  8
0
 62
    15
 10
4.146560
 20
2.762320
 11
4.145680
 21
3.501520
 12
4.184840
 22
2.801480
 13
4.183960
 23
3.540680
  0
POLYLINE
  8
0
  6
CONTINUOUS
 66
     1
 40
0.000000
 41
0.000000
  0
VERTEX
  8
0
  6
CONTINUOUS
 10
4.146560
 20
2.762320
  0
VERTEX
  8
0
  6
CONTINUOUS
 10
4.145680
 20
3.501520
  0
VERTEX
  8
0
  6
CONTINUOUS
 10
4.183960
 20
3.540680
  0
VERTEX
  8
0
  6
CONTINUOUS
 10
4.184840
 20
2.801480
  0
VERTEX
  8
0
  6
CONTINUOUS
 10
4.146560
 20
2.762320
  0
SEQEND
  8
0
  0
SOLID
  8
0
 62
    15
 10
4.184840
 20
2.801480
 11
4.183960
 21
3.540680
 12
4.226640
 22
2.831840
 13
4.225760
 23
3.571040
  0
POLYLINE
  8
0
  6
CONTINUOUS
 66
     1
 40
0.000000
 41
0.000000
  0
VERTEX
  8
0
  6
CONTINUOUS
 10
4.184840
 20
2.801480
  0
VERTEX
  8
0
  6
CONTINUOUS
 10
4.183960
 20
3.540680
  0
VERTEX
  8
0
  6
CONTINUOUS
 10
4.225760
 20
3.571040
  0
VERTEX
  8
0
  6
CONTINUOUS
 10
4.226640
 20
2.831840
  0
VERTEX
  8
0
  6
CONTINUOUS
 10
4.184840
 20
2.801480
  0
SEQEND
  8
0
  0
SOLID
  8
0
 62
    15
 10
4.226640
 20
2.831840
 11
4.225760
 21
3.571040
 12
4.270200
 22
2.853840
 13
4.269320
 23
3.593040
  0
POLYLINE
  8
0
  6
CONTINUOUS
 66
     1
 40
0.000000
 41
0.000000
  0
VERTEX
  8
0
  6
CONTINUOUS
 10
4.226640
 20
2.831840
  0
VERTEX
  8
0
  6
CONTINUOUS
 10
4.225760
 20
3.571040
  0
VERTEX
  8
0
  6
CONTINUOUS
 10
4.269320
 20
3.593040
  0
VERTEX
  8
0
  6
CONTINUOUS
 10
4.270200
 20
2.853840
  0
VERTEX
  8
0
  6
CONTINUOUS
 10
4.226640
 20
2.831840
  0
SEQEND
  8
0
  0
SOLID
  8
0
 62
    15
 10
4.270200
 20
2.853840
 11
4.269320
 21
3.593040
 12
4.313320
 22
2.869240
 13
4.312440
 23
3.608440
  0
POLYLINE
  8
0
  6
CONTINUOUS
 66
     1
 40
0.000000
 41
0.000000
  0
VERTEX
  8
0
  6
CONTINUOUS
 10
4.270200
 20
2.853840
  0
VERTEX
  8
0
  6
CONTINUOUS
 10
4.269320
 20
3.593040
  0
VERTEX
  8
0
  6
CONTINUOUS
 10
4.312440
 20
3.608440
  0
VERTEX
  8
0
  6
CONTINUOUS
 10
4.313320
 20
2.869240
  0
VERTEX
  8
0
  6
CONTINUOUS
 10
4.270200
 20
2.853840
  0
SEQEND
  8
0
  0
SOLID
  8
0
 62
    15
 10
4.313320
 20
2.869240
 11
4.312440
 21
3.608440
 12
4.353800
 22
2.879360
 13
4.353360
 23
3.618560
  0
POLYLINE
  8
0
  6
CONTINUOUS
 66
     1
 40
0.000000
 41
0.000000
  0
VERTEX
  8
0
  6
CONTINUOUS
 10
4.313320
 20
2.869240
  0
VERTEX
  8
0
  6
CONTINUOUS
 10
4.312440
 20
3.608440
  0
VERTEX
  8
0
  6
CONTINUOUS
 10
4.353360
 20
3.618560
  0
VERTEX
  8
0
  6
CONTINUOUS
 10
4.353800
 20
2.879360
  0
VERTEX
  8
0
  6
CONTINUOUS
 10
4.313320
 20
2.869240
  0
SEQEND
  8
0
  0
SOLID
  8
0
 62
    15
 10
4.353800
 20
2.879360
 11
4.353360
 21
3.618560
 12
4.389880
 22
2.884640
 13
4.389000
 23
3.623840
  0
POLYLINE
  8
0
  6
CONTINUOUS
 66
     1
 40
0.000000
 41
0.000000
  0
VERTEX
  8
0
  6
CONTINUOUS
 10
4.353800
 20
2.879360
  0
VERTEX
  8
0
  6
CONTINUOUS
 10
4.353360
 20
3.618560
  0
VERTEX
  8
0
  6
CONTINUOUS
 10
4.389000
 20
3.623840
  0
VERTEX
  8
0
  6
CONTINUOUS
 10
4.389880
 20
2.884640
  0
VERTEX
  8
0
  6
CONTINUOUS
 10
4.353800
 20
2.879360
  0
SEQEND
  8
0
  0
SOLID
  8
0
 62
    15
 10
4.389880
 20
2.884640
 11
4.389000
 21
3.623840
 12
4.418920
 22
2.887280
 13
4.418040
 23
3.626480
  0
POLYLINE
  8
0
  6
CONTINUOUS
 66
     1
 40
0.000000
 41
0.000000
  0
VERTEX
  8
0
  6
CONTINUOUS
 10
4.389880
 20
2.884640
  0
VERTEX
  8
0
  6
CONTINUOUS
 10
4.389000
 20
3.623840
  0
VERTEX
  8
0
  6
CONTINUOUS
 10
4.418040
 20
3.626480
  0
VERTEX
  8
0
  6
CONTINUOUS
 10
4.418920
 20
2.887280
  0
VERTEX
  8
0
  6
CONTINUOUS
 10
4.389880
 20
2.884640
  0
SEQEND
  8
0
  0
SOLID
  8
0
 62
    15
 10
2.694560
 20
2.923360
 11
2.693680
 21
3.663000
 12
3.215960
 22
2.923360
 13
3.215080
 23
3.663000
  0
POLYLINE
  8
0
  6
CONTINUOUS
 66
     1
 40
0.000000
 41
0.000000
  0
VERTEX
  8
0
  6
CONTINUOUS
 10
2.694560
 20
2.923360
  0
VERTEX
  8
0
  6
CONTINUOUS
 10
2.693680
 20
3.663000
  0
VERTEX
  8
0
  6
CONTINUOUS
 10
3.215080
 20
3.663000
  0
VERTEX
  8
0
  6
CONTINUOUS
 10
3.215960
 20
2.923360
  0
VERTEX
  8
0
  6
CONTINUOUS
 10
2.694560
 20
2.923360
  0
SEQEND
  8
0
  0
SOLID
  8
0
 62
    15
 10
4.438720
 20
2.887720
 11
4.438280
 21
3.626920
 12
4.455440
 22
2.887280
 13
4.454560
 23
3.626480
  0
POLYLINE
  8
0
  6
CONTINUOUS
 66
     1
 40
0.000000
 41
0.000000
  0
VERTEX
  8
0
  6
CONTINUOUS
 10
4.438720
 20
2.887720
  0
VERTEX
  8
0
  6
CONTINUOUS
 10
4.438280
 20
3.626920
  0
VERTEX
  8
0
  6
CONTINUOUS
 10
4.454560
 20
3.626480
  0
VERTEX
  8
0
  6
CONTINUOUS
 10
4.455440
 20
2.887280
  0
VERTEX
  8
0
  6
CONTINUOUS
 10
4.438720
 20
2.887720
  0
SEQEND
  8
0
  0
SOLID
  8
0
 62
    15
 10
4.455440
 20
2.887280
 11
4.454560
 21
3.626480
 12
4.484480
 22
2.884640
 13
4.483600
 23
3.624280
  0
POLYLINE
  8
0
  6
CONTINUOUS
 66
     1
 40
0.000000
 41
0.000000
  0
VERTEX
  8
0
  6
CONTINUOUS
 10
4.455440
 20
2.887280
  0
VERTEX
  8
0
  6
CONTINUOUS
 10
4.454560
 20
3.626480
  0
VERTEX
  8
0
  6
CONTINUOUS
 10
4.483600
 20
3.624280
  0
VERTEX
  8
0
  6
CONTINUOUS
 10
4.484480
 20
2.884640
  0
VERTEX
  8
0
  6
CONTINUOUS
 10
4.455440
 20
2.887280
  0
SEQEND
  8
0
  0
SOLID
  8
0
 62
    15
 10
4.484480
 20
2.884640
 11
4.483600
 21
3.624280
 12
4.520120
 22
2.879360
 13
4.519240
 23
3.618560
  0
POLYLINE
  8
0
  6
CONTINUOUS
 66
     1
 40
0.000000
 41
0.000000
  0
VERTEX
  8
0
  6
CONTINUOUS
 10
4.484480
 20
2.884640
  0
VERTEX
  8
0
  6
CONTINUOUS
 10
4.483600
 20
3.624280
  0
VERTEX
  8
0
  6
CONTINUOUS
 10
4.519240
 20
3.618560
  0
VERTEX
  8
0
  6
CONTINUOUS
 10
4.520120
 20
2.879360
  0
VERTEX
  8
0
  6
CONTINUOUS
 10
4.484480
 20
2.884640
  0
SEQEND
  8
0
  0
SOLID
  8
0
 62
    15
 10
4.520120
 20
2.879360
 11
4.519240
 21
3.618560
 12
4.560600
 22
2.869240
 13
4.559720
 23
3.608440
  0
POLYLINE
  8
0
  6
CONTINUOUS
 66
     1
 40
0.000000
 41
0.000000
  0
VERTEX
  8
0
  6
CONTINUOUS
 10
4.520120
 20
2.879360
  0
VERTEX
  8
0
  6
CONTINUOUS
 10
4.519240
 20
3.618560
  0
VERTEX
  8
0
  6
CONTINUOUS
 10
4.559720
 20
3.608440
  0
VERTEX
  8
0
  6
CONTINUOUS
 10
4.560600
 20
2.869240
  0
VERTEX
  8
0
  6
CONTINUOUS
 10
4.520120
 20
2.879360
  0
SEQEND
  8
0
  0
SOLID
  8
0
 62
    15
 10
4.560600
 20
2.869240
 11
4.559720
 21
3.608440
 12
4.603720
 22
2.853840
 13
4.603280
 23
3.593040
  0
POLYLINE
  8
0
  6
CONTINUOUS
 66
     1
 40
0.000000
 41
0.000000
  0
VERTEX
  8
0
  6
CONTINUOUS
 10
4.560600
 20
2.869240
  0
VERTEX
  8
0
  6
CONTINUOUS
 10
4.559720
 20
3.608440
  0
VERTEX
  8
0
  6
CONTINUOUS
 10
4.603280
 20
3.593040
  0
VERTEX
  8
0
  6
CONTINUOUS
 10
4.603720
 20
2.853840
  0
VERTEX
  8
0
  6
CONTINUOUS
 10
4.560600
 20
2.869240
  0
SEQEND
  8
0
  0
SOLID
  8
0
 62
    15
 10
4.603720
 20
2.853840
 11
4.603280
 21
3.593040
 12
4.647280
 22
2.831840
 13
4.646840
 23
3.571040
  0
POLYLINE
  8
0
  6
CONTINUOUS
 66
     1
 40
0.000000
 41
0.000000
  0
VERTEX
  8
0
  6
CONTINUOUS
 10
4.603720
 20
2.853840
  0
VERTEX
  8
0
  6
CONTINUOUS
 10
4.603280
 20
3.593040
  0
VERTEX
  8
0
  6
CONTINUOUS
 10
4.646840
 20
3.571040
  0
VERTEX
  8
0
  6
CONTINUOUS
 10
4.647280
 20
2.831840
  0
VERTEX
  8
0
  6
CONTINUOUS
 10
4.603720
 20
2.853840
  0
SEQEND
  8
0
  0
SOLID
  8
0
 62
    15
 10
4.647280
 20
2.831840
 11
4.646840
 21
3.571040
 12
4.689520
 22
2.801480
 13
4.688640
 23
3.541120
  0
POLYLINE
  8
0
  6
CONTINUOUS
 66
     1
 40
0.000000
 41
0.000000
  0
VERTEX
  8
0
  6
CONTINUOUS
 10
4.647280
 20
2.831840
  0
VERTEX
  8
0
  6
CONTINUOUS
 10
4.646840
 20
3.571040
  0
VERTEX
  8
0
  6
CONTINUOUS
 10
4.688640
 20
3.541120
  0
VERTEX
  8
0
  6
CONTINUOUS
 10
4.689520
 20
2.801480
  0
VERTEX
  8
0
  6
CONTINUOUS
 10
4.647280
 20
2.831840
  0
SEQEND
  8
0
  0
SOLID
  8
0
 62
    15
 10
4.689520
 20
2.801480
 11
4.688640
 21
3.541120
 12
4.727360
 22
2.762320
 13
4.726480
 23
3.501520
  0
POLYLINE
  8
0
  6
CONTINUOUS
 66
     1
 40
0.000000
 41
0.000000
  0
VERTEX
  8
0
  6
CONTINUOUS
 10
4.689520
 20
2.801480
  0
VERTEX
  8
0
  6
CONTINUOUS
 10
4.688640
 20
3.541120
  0
VERTEX
  8
0
  6
CONTINUOUS
 10
4.726480
 20
3.501520
  0
VERTEX
  8
0
  6
CONTINUOUS
 10
4.727360
 20
2.762320
  0
VERTEX
  8
0
  6
CONTINUOUS
 10
4.689520
 20
2.801480
  0
SEQEND
  8
0
  0
SOLID
  8
0
 62
    15
 10
4.727360
 20
2.762320
 11
4.726480
 21
3.501520
 12
4.788520
 22
2.836240
 13
4.787640
 23
3.575880
  0
POLYLINE
  8
0
  6
CONTINUOUS
 66
     1
 40
0.000000
 41
0.000000
  0
VERTEX
  8
0
  6
CONTINUOUS
 10
4.727360
 20
2.762320
  0
VERTEX
  8
0
  6
CONTINUOUS
 10
4.726480
 20
3.501520
  0
VERTEX
  8
0
  6
CONTINUOUS
 10
4.787640
 20
3.575880
  0
VERTEX
  8
0
  6
CONTINUOUS
 10
4.788520
 20
2.836240
  0
VERTEX
  8
0
  6
CONTINUOUS
 10
4.727360
 20
2.762320
  0
SEQEND
  8
0
  0
SOLID
  8
0
 62
    15
 10
4.788520
 20
2.836240
 11
4.787640
 21
3.575880
 12
4.802600
 22
2.823920
 13
4.801720
 23
3.563120
  0
POLYLINE
  8
0
  6
CONTINUOUS
 66
     1
 40
0.000000
 41
0.000000
  0
VERTEX
  8
0
  6
CONTINUOUS
 10
4.788520
 20
2.836240
  0
VERTEX
  8
0
  6
CONTINUOUS
 10
4.787640
 20
3.575880
  0
VERTEX
  8
0
  6
CONTINUOUS
 10
4.801720
 20
3.563120
  0
VERTEX
  8
0
  6
CONTINUOUS
 10
4.802600
 20
2.823920
  0
VERTEX
  8
0
  6
CONTINUOUS
 10
4.788520
 20
2.836240
  0
SEQEND
  8
0
  0
SOLID
  8
0
 62
    15
 10
4.802600
 20
2.823920
 11
4.801720
 21
3.563120
 12
4.822400
 22
2.810280
 13
4.821520
 23
3.549480
  0
POLYLINE
  8
0
  6
CONTINUOUS
 66
     1
 40
0.000000
 41
0.000000
  0
VERTEX
  8
0
  6
CONTINUOUS
 10
4.802600
 20
2.823920
  0
VERTEX
  8
0
  6
CONTINUOUS
 10
4.801720
 20
3.563120
  0
VERTEX
  8
0
  6
CONTINUOUS
 10
4.821520
 20
3.549480
  0
VERTEX
  8
0
  6
CONTINUOUS
 10
4.822400
 20
2.810280
  0
VERTEX
  8
0
  6
CONTINUOUS
 10
4.802600
 20
2.823920
  0
SEQEND
  8
0
  0
SOLID
  8
0
 62
    15
 10
4.822400
 20
2.810280
 11
4.821520
 21
3.549480
 12
4.845720
 22
2.797520
 13
4.844840
 23
3.536720
  0
POLYLINE
  8
0
  6
CONTINUOUS
 66
     1
 40
0.000000
 41
0.000000
  0
VERTEX
  8
0
  6
CONTINUOUS
 10
4.822400
 20
2.810280
  0
VERTEX
  8
0
  6
CONTINUOUS
 10
4.821520
 20
3.549480
  0
VERTEX
  8
0
  6
CONTINUOUS
 10
4.844840
 20
3.536720
  0
VERTEX
  8
0
  6
CONTINUOUS
 10
4.845720
 20
2.797520
  0
VERTEX
  8
0
  6
CONTINUOUS
 10
4.822400
 20
2.810280
  0
SEQEND
  8
0
  0
SOLID
  8
0
 62
    15
 10
4.845720
 20
2.797520
 11
4.844840
 21
3.536720
 12
4.872120
 22
2.787400
 13
4.871240
 23
3.526600
  0
POLYLINE
  8
0
  6
CONTINUOUS
 66
     1
 40
0.000000
 41
0.000000
  0
VERTEX
  8
0
  6
CONTINUOUS
 10
4.845720
 20
2.797520
  0
VERTEX
  8
0
  6
CONTINUOUS
 10
4.844840
 20
3.536720
  0
VERTEX
  8
0
  6
CONTINUOUS
 10
4.871240
 20
3.526600
  0
VERTEX
  8
0
  6
CONTINUOUS
 10
4.872120
 20
2.787400
  0
VERTEX
  8
0
  6
CONTINUOUS
 10
4.845720
 20
2.797520
  0
SEQEND
  8
0
  0
SOLID
  8
0
 62
    15
 10
4.872120
 20
2.787400
 11
4.871240
 21
3.526600
 12
4.899840
 22
2.781240
 13
4.898960
 23
3.520440
  0
POLYLINE
  8
0
  6
CONTINUOUS
 66
     1
 40
0.000000
 41
0.000000
  0
VERTEX
  8
0
  6
CONTINUOUS
 10
4.872120
 20
2.787400
  0
VERTEX
  8
0
  6
CONTINUOUS
 10
4.871240
 20
3.526600
  0
VERTEX
  8
0
  6
CONTINUOUS
 10
4.898960
 20
3.520440
  0
VERTEX
  8
0
  6
CONTINUOUS
 10
4.899840
 20
2.781240
  0
VERTEX
  8
0
  6
CONTINUOUS
 10
4.872120
 20
2.787400
  0
SEQEND
  8
0
  0
SOLID
  8
0
 62
    15
 10
4.899840
 20
2.781240
 11
4.898960
 21
3.520440
 12
4.927120
 22
2.781240
 13
4.926240
 23
3.520440
  0
POLYLINE
  8
0
  6
CONTINUOUS
 66
     1
 40
0.000000
 41
0.000000
  0
VERTEX
  8
0
  6
CONTINUOUS
 10
4.899840
 20
2.781240
  0
VERTEX
  8
0
  6
CONTINUOUS
 10
4.898960
 20
3.520440
  0
VERTEX
  8
0
  6
CONTINUOUS
 10
4.926240
 20
3.520440
  0
VERTEX
  8
0
  6
CONTINUOUS
 10
4.927120
 20
2.781240
  0
VERTEX
  8
0
  6
CONTINUOUS
 10
4.899840
 20
2.781240
  0
SEQEND
  8
0
  0
SOLID
  8
0
 62
    15
 10
4.927120
 20
2.781240
 11
4.926240
 21
3.520440
 12
4.953080
 22
2.788720
 13
4.952200
 23
3.527920
  0
POLYLINE
  8
0
  6
CONTINUOUS
 66
     1
 40
0.000000
 41
0.000000
  0
VERTEX
  8
0
  6
CONTINUOUS
 10
4.927120
 20
2.781240
  0
VERTEX
  8
0
  6
CONTINUOUS
 10
4.926240
 20
3.520440
  0
VERTEX
  8
0
  6
CONTINUOUS
 10
4.952200
 20
3.527920
  0
VERTEX
  8
0
  6
CONTINUOUS
 10
4.953080
 20
2.788720
  0
VERTEX
  8
0
  6
CONTINUOUS
 10
4.927120
 20
2.781240
  0
SEQEND
  8
0
  0
SOLID
  8
0
 62
    15
 10
4.953080
 20
2.788720
 11
4.952200
 21
3.527920
 12
4.975960
 22
2.805440
 13
4.975080
 23
3.544640
  0
POLYLINE
  8
0
  6
CONTINUOUS
 66
     1
 40
0.000000
 41
0.000000
  0
VERTEX
  8
0
  6
CONTINUOUS
 10
4.953080
 20
2.788720
  0
VERTEX
  8
0
  6
CONTINUOUS
 10
4.952200
 20
3.527920
  0
VERTEX
  8
0
  6
CONTINUOUS
 10
4.975080
 20
3.544640
  0
VERTEX
  8
0
  6
CONTINUOUS
 10
4.975960
 20
2.805440
  0
VERTEX
  8
0
  6
CONTINUOUS
 10
4.953080
 20
2.788720
  0
SEQEND
  8
0
  0
SOLID
  8
0
 62
    15
 10
4.975960
 20
2.805440
 11
4.975080
 21
3.544640
 12
4.994880
 22
2.823920
 13
4.994000
 23
3.563560
  0
POLYLINE
  8
0
  6
CONTINUOUS
 66
     1
 40
0.000000
 41
0.000000
  0
VERTEX
  8
0
  6
CONTINUOUS
 10
4.975960
 20
2.805440
  0
VERTEX
  8
0
  6
CONTINUOUS
 10
4.975080
 20
3.544640
  0
VERTEX
  8
0
  6
CONTINUOUS
 10
4.994000
 20
3.563560
  0
VERTEX
  8
0
  6
CONTINUOUS
 10
4.994880
 20
2.823920
  0
VERTEX
  8
0
  6
CONTINUOUS
 10
4.975960
 20
2.805440
  0
SEQEND
  8
0
  0
SOLID
  8
0
 62
    15
 10
4.994880
 20
2.823920
 11
4.994000
 21
3.563560
 12
5.010280
 22
2.836680
 13
5.009400
 23
3.575880
  0
POLYLINE
  8
0
  6
CONTINUOUS
 66
     1
 40
0.000000
 41
0.000000
  0
VERTEX
  8
0
  6
CONTINUOUS
 10
4.994880
 20
2.823920
  0
VERTEX
  8
0
  6
CONTINUOUS
 10
4.994000
 20
3.563560
  0
VERTEX
  8
0
  6
CONTINUOUS
 10
5.009400
 20
3.575880
  0
VERTEX
  8
0
  6
CONTINUOUS
 10
5.010280
 20
2.836680
  0
VERTEX
  8
0
  6
CONTINUOUS
 10
4.994880
 20
2.823920
  0
SEQEND
  8
0
  0
SOLID
  8
0
 62
    15
 10
5.010280
 20
2.836680
 11
5.009400
 21
3.575880
 12
5.022600
 22
2.843280
 13
5.021720
 23
3.582480
  0
POLYLINE
  8
0
  6
CONTINUOUS
 66
     1
 40
0.000000
 41
0.000000
  0
VERTEX
  8
0
  6
CONTINUOUS
 10
5.010280
 20
2.836680
  0
VERTEX
  8
0
  6
CONTINUOUS
 10
5.009400
 20
3.575880
  0
VERTEX
  8
0
  6
CONTINUOUS
 10
5.021720
 20
3.582480
  0
VERTEX
  8
0
  6
CONTINUOUS
 10
5.022600
 20
2.843280
  0
VERTEX
  8
0
  6
CONTINUOUS
 10
5.010280
 20
2.836680
  0
SEQEND
  8
0
  0
SOLID
  8
0
 62
    15
 10
5.022600
 20
2.843280
 11
5.021720
 21
3.582480
 12
5.033600
 22
2.844160
 13
5.032720
 23
3.583360
  0
POLYLINE
  8
0
  6
CONTINUOUS
 66
     1
 40
0.000000
 41
0.000000
  0
VERTEX
  8
0
  6
CONTINUOUS
 10
5.022600
 20
2.843280
  0
VERTEX
  8
0
  6
CONTINUOUS
 10
5.021720
 20
3.582480
  0
VERTEX
  8
0
  6
CONTINUOUS
 10
5.032720
 20
3.583360
  0
VERTEX
  8
0
  6
CONTINUOUS
 10
5.033600
 20
2.844160
  0
VERTEX
  8
0
  6
CONTINUOUS
 10
5.022600
 20
2.843280
  0
SEQEND
  8
0
  0
SOLID
  8
0
 62
    15
 10
5.033600
 20
2.844160
 11
5.032720
 21
3.583360
 12
5.043720
 22
2.840200
 13
5.043280
 23
3.579400
  0
POLYLINE
  8
0
  6
CONTINUOUS
 66
     1
 40
0.000000
 41
0.000000
  0
VERTEX
  8
0
  6
CONTINUOUS
 10
5.033600
 20
2.844160
  0
VERTEX
  8
0
  6
CONTINUOUS
 10
5.032720
 20
3.583360
  0
VERTEX
  8
0
  6
CONTINUOUS
 10
5.043280
 20
3.579400
  0
VERTEX
  8
0
  6
CONTINUOUS
 10
5.043720
 20
2.840200
  0
VERTEX
  8
0
  6
CONTINUOUS
 10
5.033600
 20
2.844160
  0
SEQEND
  8
0
  0
SOLID
  8
0
 62
    15
 10
5.043720
 20
2.840200
 11
5.043280
 21
3.579400
 12
5.055160
 22
2.830520
 13
5.054280
 23
3.570160
  0
POLYLINE
  8
0
  6
CONTINUOUS
 66
     1
 40
0.000000
 41
0.000000
  0
VERTEX
  8
0
  6
CONTINUOUS
 10
5.043720
 20
2.840200
  0
VERTEX
  8
0
  6
CONTINUOUS
 10
5.043280
 20
3.579400
  0
VERTEX
  8
0
  6
CONTINUOUS
 10
5.054280
 20
3.570160
  0
VERTEX
  8
0
  6
CONTINUOUS
 10
5.055160
 20
2.830520
  0
VERTEX
  8
0
  6
CONTINUOUS
 10
5.043720
 20
2.840200
  0
SEQEND
  8
0
  0
SOLID
  8
0
 62
    15
 10
5.055160
 20
2.830520
 11
5.054280
 21
3.570160
 12
5.068800
 22
2.816440
 13
5.067920
 23
3.556080
  0
POLYLINE
  8
0
  6
CONTINUOUS
 66
     1
 40
0.000000
 41
0.000000
  0
VERTEX
  8
0
  6
CONTINUOUS
 10
5.055160
 20
2.830520
  0
VERTEX
  8
0
  6
CONTINUOUS
 10
5.054280
 20
3.570160
  0
VERTEX
  8
0
  6
CONTINUOUS
 10
5.067920
 20
3.556080
  0
VERTEX
  8
0
  6
CONTINUOUS
 10
5.068800
 20
2.816440
  0
VERTEX
  8
0
  6
CONTINUOUS
 10
5.055160
 20
2.830520
  0
SEQEND
  8
0
  0
SOLID
  8
0
 62
    15
 10
5.068800
 20
2.816440
 11
5.067920
 21
3.556080
 12
5.085080
 22
2.798400
 13
5.084200
 23
3.537600
  0
POLYLINE
  8
0
  6
CONTINUOUS
 66
     1
 40
0.000000
 41
0.000000
  0
VERTEX
  8
0
  6
CONTINUOUS
 10
5.068800
 20
2.816440
  0
VERTEX
  8
0
  6
CONTINUOUS
 10
5.067920
 20
3.556080
  0
VERTEX
  8
0
  6
CONTINUOUS
 10
5.084200
 20
3.537600
  0
VERTEX
  8
0
  6
CONTINUOUS
 10
5.085080
 20
2.798400
  0
VERTEX
  8
0
  6
CONTINUOUS
 10
5.068800
 20
2.816440
  0
SEQEND
  8
0
  0
SOLID
  8
0
 62
    15
 10
5.085080
 20
2.798400
 11
5.084200
 21
3.537600
 12
5.096080
 22
2.821280
 13
5.095200
 23
3.560480
  0
POLYLINE
  8
0
  6
CONTINUOUS
 66
     1
 40
0.000000
 41
0.000000
  0
VERTEX
  8
0
  6
CONTINUOUS
 10
5.085080
 20
2.798400
  0
VERTEX
  8
0
  6
CONTINUOUS
 10
5.084200
 20
3.537600
  0
VERTEX
  8
0
  6
CONTINUOUS
 10
5.095200
 20
3.560480
  0
VERTEX
  8
0
  6
CONTINUOUS
 10
5.096080
 20
2.821280
  0
VERTEX
  8
0
  6
CONTINUOUS
 10
5.085080
 20
2.798400
  0
SEQEND
  8
0
  0
SOLID
  8
0
 62
    15
 10
5.096080
 20
2.821280
 11
5.095200
 21
3.560480
 12
5.106640
 22
2.832720
 13
5.105760
 23
3.571920
  0
POLYLINE
  8
0
  6
CONTINUOUS
 66
     1
 40
0.000000
 41
0.000000
  0
VERTEX
  8
0
  6
CONTINUOUS
 10
5.096080
 20
2.821280
  0
VERTEX
  8
0
  6
CONTINUOUS
 10
5.095200
 20
3.560480
  0
VERTEX
  8
0
  6
CONTINUOUS
 10
5.105760
 20
3.571920
  0
VERTEX
  8
0
  6
CONTINUOUS
 10
5.106640
 20
2.832720
  0
VERTEX
  8
0
  6
CONTINUOUS
 10
5.096080
 20
2.821280
  0
SEQEND
  8
0
  0
SOLID
  8
0
 62
    15
 10
5.106640
 20
2.832720
 11
5.105760
 21
3.571920
 12
5.121160
 22
2.843720
 13
5.120280
 23
3.582920
  0
POLYLINE
  8
0
  6
CONTINUOUS
 66
     1
 40
0.000000
 41
0.000000
  0
VERTEX
  8
0
  6
CONTINUOUS
 10
5.106640
 20
2.832720
  0
VERTEX
  8
0
  6
CONTINUOUS
 10
5.105760
 20
3.571920
  0
VERTEX
  8
0
  6
CONTINUOUS
 10
5.120280
 20
3.582920
  0
VERTEX
  8
0
  6
CONTINUOUS
 10
5.121160
 20
2.843720
  0
VERTEX
  8
0
  6
CONTINUOUS
 10
5.106640
 20
2.832720
  0
SEQEND
  8
0
  0
SOLID
  8
0
 62
    15
 10
5.121160
 20
2.843720
 11
5.120280
 21
3.582920
 12
5.139640
 22
2.853400
 13
5.138760
 23
3.592600
  0
POLYLINE
  8
0
  6
CONTINUOUS
 66
     1
 40
0.000000
 41
0.000000
  0
VERTEX
  8
0
  6
CONTINUOUS
 10
5.121160
 20
2.843720
  0
VERTEX
  8
0
  6
CONTINUOUS
 10
5.120280
 20
3.582920
  0
VERTEX
  8
0
  6
CONTINUOUS
 10
5.138760
 20
3.592600
  0
VERTEX
  8
0
  6
CONTINUOUS
 10
5.139640
 20
2.853400
  0
VERTEX
  8
0
  6
CONTINUOUS
 10
5.121160
 20
2.843720
  0
SEQEND
  8
0
  0
SOLID
  8
0
 62
    15
 10
5.139640
 20
2.853400
 11
5.138760
 21
3.592600
 12
5.162960
 22
2.860440
 13
5.162080
 23
3.600080
  0
POLYLINE
  8
0
  6
CONTINUOUS
 66
     1
 40
0.000000
 41
0.000000
  0
VERTEX
  8
0
  6
CONTINUOUS
 10
5.139640
 20
2.853400
  0
VERTEX
  8
0
  6
CONTINUOUS
 10
5.138760
 20
3.592600
  0
VERTEX
  8
0
  6
CONTINUOUS
 10
5.162080
 20
3.600080
  0
VERTEX
  8
0
  6
CONTINUOUS
 10
5.162960
 20
2.860440
  0
VERTEX
  8
0
  6
CONTINUOUS
 10
5.139640
 20
2.853400
  0
SEQEND
  8
0
  0
SOLID
  8
0
 62
    15
 10
5.162960
 20
2.860440
 11
5.162080
 21
3.600080
 12
5.191120
 22
2.865280
 13
5.190240
 23
3.604480
  0
POLYLINE
  8
0
  6
CONTINUOUS
 66
     1
 40
0.000000
 41
0.000000
  0
VERTEX
  8
0
  6
CONTINUOUS
 10
5.162960
 20
2.860440
  0
VERTEX
  8
0
  6
CONTINUOUS
 10
5.162080
 20
3.600080
  0
VERTEX
  8
0
  6
CONTINUOUS
 10
5.190240
 20
3.604480
  0
VERTEX
  8
0
  6
CONTINUOUS
 10
5.191120
 20
2.865280
  0
VERTEX
  8
0
  6
CONTINUOUS
 10
5.162960
 20
2.860440
  0
SEQEND
  8
0
  0
SOLID
  8
0
 62
    15
 10
5.191120
 20
2.865280
 11
5.190240
 21
3.604480
 12
5.224120
 22
2.866160
 13
5.223240
 23
3.605360
  0
POLYLINE
  8
0
  6
CONTINUOUS
 66
     1
 40
0.000000
 41
0.000000
  0
VERTEX
  8
0
  6
CONTINUOUS
 10
5.191120
 20
2.865280
  0
VERTEX
  8
0
  6
CONTINUOUS
 10
5.190240
 20
3.604480
  0
VERTEX
  8
0
  6
CONTINUOUS
 10
5.223240
 20
3.605360
  0
VERTEX
  8
0
  6
CONTINUOUS
 10
5.224120
 20
2.866160
  0
VERTEX
  8
0
  6
CONTINUOUS
 10
5.191120
 20
2.865280
  0
SEQEND
  8
0
  0
SOLID
  8
0
 62
    15
 10
5.224120
 20
2.866160
 11
5.223240
 21
3.605360
 12
5.258880
 22
2.861760
 13
5.258000
 23
3.600960
  0
POLYLINE
  8
0
  6
CONTINUOUS
 66
     1
 40
0.000000
 41
0.000000
  0
VERTEX
  8
0
  6
CONTINUOUS
 10
5.224120
 20
2.866160
  0
VERTEX
  8
0
  6
CONTINUOUS
 10
5.223240
 20
3.605360
  0
VERTEX
  8
0
  6
CONTINUOUS
 10
5.258000
 20
3.600960
  0
VERTEX
  8
0
  6
CONTINUOUS
 10
5.258880
 20
2.861760
  0
VERTEX
  8
0
  6
CONTINUOUS
 10
5.224120
 20
2.866160
  0
SEQEND
  8
0
  0
SOLID
  8
0
 62
    15
 10
5.258880
 20
2.861760
 11
5.258000
 21
3.600960
 12
5.291440
 22
2.851200
 13
5.290560
 23
3.590400
  0
POLYLINE
  8
0
  6
CONTINUOUS
 66
     1
 40
0.000000
 41
0.000000
  0
VERTEX
  8
0
  6
CONTINUOUS
 10
5.258880
 20
2.861760
  0
VERTEX
  8
0
  6
CONTINUOUS
 10
5.258000
 20
3.600960
  0
VERTEX
  8
0
  6
CONTINUOUS
 10
5.290560
 20
3.590400
  0
VERTEX
  8
0
  6
CONTINUOUS
 10
5.291440
 20
2.851200
  0
VERTEX
  8
0
  6
CONTINUOUS
 10
5.258880
 20
2.861760
  0
SEQEND
  8
0
  0
SOLID
  8
0
 62
    15
 10
5.291440
 20
2.851200
 11
5.290560
 21
3.590400
 12
5.322680
 22
2.836680
 13
5.321800
 23
3.576320
  0
POLYLINE
  8
0
  6
CONTINUOUS
 66
     1
 40
0.000000
 41
0.000000
  0
VERTEX
  8
0
  6
CONTINUOUS
 10
5.291440
 20
2.851200
  0
VERTEX
  8
0
  6
CONTINUOUS
 10
5.290560
 20
3.590400
  0
VERTEX
  8
0
  6
CONTINUOUS
 10
5.321800
 20
3.576320
  0
VERTEX
  8
0
  6
CONTINUOUS
 10
5.322680
 20
2.836680
  0
VERTEX
  8
0
  6
CONTINUOUS
 10
5.291440
 20
2.851200
  0
SEQEND
  8
0
  0
SOLID
  8
0
 62
    15
 10
5.322680
 20
2.836680
 11
5.321800
 21
3.576320
 12
5.338080
 22
2.828760
 13
5.337640
 23
3.567960
  0
POLYLINE
  8
0
  6
CONTINUOUS
 66
     1
 40
0.000000
 41
0.000000
  0
VERTEX
  8
0
  6
CONTINUOUS
 10
5.322680
 20
2.836680
  0
VERTEX
  8
0
  6
CONTINUOUS
 10
5.321800
 20
3.576320
  0
VERTEX
  8
0
  6
CONTINUOUS
 10
5.337640
 20
3.567960
  0
VERTEX
  8
0
  6
CONTINUOUS
 10
5.338080
 20
2.828760
  0
VERTEX
  8
0
  6
CONTINUOUS
 10
5.322680
 20
2.836680
  0
SEQEND
  8
0
  0
SOLID
  8
0
 62
    15
 10
5.338080
 20
2.828760
 11
5.337640
 21
3.567960
 12
5.353920
 22
2.820400
 13
5.353040
 23
3.559600
  0
POLYLINE
  8
0
  6
CONTINUOUS
 66
     1
 40
0.000000
 41
0.000000
  0
VERTEX
  8
0
  6
CONTINUOUS
 10
5.338080
 20
2.828760
  0
VERTEX
  8
0
  6
CONTINUOUS
 10
5.337640
 20
3.567960
  0
VERTEX
  8
0
  6
CONTINUOUS
 10
5.353040
 20
3.559600
  0
VERTEX
  8
0
  6
CONTINUOUS
 10
5.353920
 20
2.820400
  0
VERTEX
  8
0
  6
CONTINUOUS
 10
5.338080
 20
2.828760
  0
SEQEND
  8
0
  0
SOLID
  8
0
 62
    15
 10
5.353920
 20
2.820400
 11
5.353040
 21
3.559600
 12
5.417720
 22
2.790040
 13
5.416840
 23
3.529240
  0
POLYLINE
  8
0
  6
CONTINUOUS
 66
     1
 40
0.000000
 41
0.000000
  0
VERTEX
  8
0
  6
CONTINUOUS
 10
5.353920
 20
2.820400
  0
VERTEX
  8
0
  6
CONTINUOUS
 10
5.353040
 20
3.559600
  0
VERTEX
  8
0
  6
CONTINUOUS
 10
5.416840
 20
3.529240
  0
VERTEX
  8
0
  6
CONTINUOUS
 10
5.417720
 20
2.790040
  0
VERTEX
  8
0
  6
CONTINUOUS
 10
5.353920
 20
2.820400
  0
SEQEND
  8
0
  0
SOLID
  8
0
 62
    15
 10
5.417720
 20
2.790040
 11
5.416840
 21
3.529240
 12
5.452040
 22
2.779480
 13
5.451600
 23
3.519120
  0
POLYLINE
  8
0
  6
CONTINUOUS
 66
     1
 40
0.000000
 41
0.000000
  0
VERTEX
  8
0
  6
CONTINUOUS
 10
5.417720
 20
2.790040
  0
VERTEX
  8
0
  6
CONTINUOUS
 10
5.416840
 20
3.529240
  0
VERTEX
  8
0
  6
CONTINUOUS
 10
5.451600
 20
3.519120
  0
VERTEX
  8
0
  6
CONTINUOUS
 10
5.452040
 20
2.779480
  0
VERTEX
  8
0
  6
CONTINUOUS
 10
5.417720
 20
2.790040
  0
SEQEND
  8
0
  0
SOLID
  8
0
 62
    15
 10
5.452040
 20
2.779480
 11
5.451600
 21
3.519120
 12
5.489880
 22
2.775520
 13
5.489000
 23
3.514720
  0
POLYLINE
  8
0
  6
CONTINUOUS
 66
     1
 40
0.000000
 41
0.000000
  0
VERTEX
  8
0
  6
CONTINUOUS
 10
5.452040
 20
2.779480
  0
VERTEX
  8
0
  6
CONTINUOUS
 10
5.451600
 20
3.519120
  0
VERTEX
  8
0
  6
CONTINUOUS
 10
5.489000
 20
3.514720
  0
VERTEX
  8
0
  6
CONTINUOUS
 10
5.489880
 20
2.775520
  0
VERTEX
  8
0
  6
CONTINUOUS
 10
5.452040
 20
2.779480
  0
SEQEND
  8
0
  0
SOLID
  8
0
 62
    15
 10
5.489880
 20
2.775520
 11
5.489000
 21
3.514720
 12
5.526840
 22
2.780360
 13
5.526400
 23
3.519560
  0
POLYLINE
  8
0
  6
CONTINUOUS
 66
     1
 40
0.000000
 41
0.000000
  0
VERTEX
  8
0
  6
CONTINUOUS
 10
5.489880
 20
2.775520
  0
VERTEX
  8
0
  6
CONTINUOUS
 10
5.489000
 20
3.514720
  0
VERTEX
  8
0
  6
CONTINUOUS
 10
5.526400
 20
3.519560
  0
VERTEX
  8
0
  6
CONTINUOUS
 10
5.526840
 20
2.780360
  0
VERTEX
  8
0
  6
CONTINUOUS
 10
5.489880
 20
2.775520
  0
SEQEND
  8
0
  0
SOLID
  8
0
 62
    15
 10
5.526840
 20
2.780360
 11
5.526400
 21
3.519560
 12
5.560280
 22
2.794880
 13
5.559400
 23
3.534080
  0
POLYLINE
  8
0
  6
CONTINUOUS
 66
     1
 40
0.000000
 41
0.000000
  0
VERTEX
  8
0
  6
CONTINUOUS
 10
5.526840
 20
2.780360
  0
VERTEX
  8
0
  6
CONTINUOUS
 10
5.526400
 20
3.519560
  0
VERTEX
  8
0
  6
CONTINUOUS
 10
5.559400
 20
3.534080
  0
VERTEX
  8
0
  6
CONTINUOUS
 10
5.560280
 20
2.794880
  0
VERTEX
  8
0
  6
CONTINUOUS
 10
5.526840
 20
2.780360
  0
SEQEND
  8
0
  0
SOLID
  8
0
 62
    15
 10
5.560280
 20
2.794880
 11
5.559400
 21
3.534080
 12
5.588880
 22
2.815560
 13
5.588440
 23
3.554760
  0
POLYLINE
  8
0
  6
CONTINUOUS
 66
     1
 40
0.000000
 41
0.000000
  0
VERTEX
  8
0
  6
CONTINUOUS
 10
5.560280
 20
2.794880
  0
VERTEX
  8
0
  6
CONTINUOUS
 10
5.559400
 20
3.534080
  0
VERTEX
  8
0
  6
CONTINUOUS
 10
5.588440
 20
3.554760
  0
VERTEX
  8
0
  6
CONTINUOUS
 10
5.588880
 20
2.815560
  0
VERTEX
  8
0
  6
CONTINUOUS
 10
5.560280
 20
2.794880
  0
SEQEND
  8
0
  0
SOLID
  8
0
 62
    15
 10
5.588880
 20
2.815560
 11
5.588440
 21
3.554760
 12
5.613080
 22
2.840200
 13
5.612200
 23
3.579400
  0
POLYLINE
  8
0
  6
CONTINUOUS
 66
     1
 40
0.000000
 41
0.000000
  0
VERTEX
  8
0
  6
CONTINUOUS
 10
5.588880
 20
2.815560
  0
VERTEX
  8
0
  6
CONTINUOUS
 10
5.588440
 20
3.554760
  0
VERTEX
  8
0
  6
CONTINUOUS
 10
5.612200
 20
3.579400
  0
VERTEX
  8
0
  6
CONTINUOUS
 10
5.613080
 20
2.840200
  0
VERTEX
  8
0
  6
CONTINUOUS
 10
5.588880
 20
2.815560
  0
SEQEND
  8
0
  0
SOLID
  8
0
 62
    15
 10
5.613080
 20
2.840200
 11
5.612200
 21
3.579400
 12
5.632440
 22
2.866160
 13
5.631560
 23
3.605360
  0
POLYLINE
  8
0
  6
CONTINUOUS
 66
     1
 40
0.000000
 41
0.000000
  0
VERTEX
  8
0
  6
CONTINUOUS
 10
5.613080
 20
2.840200
  0
VERTEX
  8
0
  6
CONTINUOUS
 10
5.612200
 20
3.579400
  0
VERTEX
  8
0
  6
CONTINUOUS
 10
5.631560
 20
3.605360
  0
VERTEX
  8
0
  6
CONTINUOUS
 10
5.632440
 20
2.866160
  0
VERTEX
  8
0
  6
CONTINUOUS
 10
5.613080
 20
2.840200
  0
SEQEND
  8
0
  0
SOLID
  8
0
 62
    15
 10
5.632440
 20
2.866160
 11
5.631560
 21
3.605360
 12
5.646520
 22
2.890360
 13
5.645640
 23
3.629560
  0
POLYLINE
  8
0
  6
CONTINUOUS
 66
     1
 40
0.000000
 41
0.000000
  0
VERTEX
  8
0
  6
CONTINUOUS
 10
5.632440
 20
2.866160
  0
VERTEX
  8
0
  6
CONTINUOUS
 10
5.631560
 20
3.605360
  0
VERTEX
  8
0
  6
CONTINUOUS
 10
5.645640
 20
3.629560
  0
VERTEX
  8
0
  6
CONTINUOUS
 10
5.646520
 20
2.890360
  0
VERTEX
  8
0
  6
CONTINUOUS
 10
5.632440
 20
2.866160
  0
SEQEND
  8
0
  0
SOLID
  8
0
 62
    15
 10
5.646520
 20
2.890360
 11
5.645640
 21
3.629560
 12
5.655320
 22
2.910600
 13
5.654440
 23
3.649800
  0
POLYLINE
  8
0
  6
CONTINUOUS
 66
     1
 40
0.000000
 41
0.000000
  0
VERTEX
  8
0
  6
CONTINUOUS
 10
5.646520
 20
2.890360
  0
VERTEX
  8
0
  6
CONTINUOUS
 10
5.645640
 20
3.629560
  0
VERTEX
  8
0
  6
CONTINUOUS
 10
5.654440
 20
3.649800
  0
VERTEX
  8
0
  6
CONTINUOUS
 10
5.655320
 20
2.910600
  0
VERTEX
  8
0
  6
CONTINUOUS
 10
5.646520
 20
2.890360
  0
SEQEND
  8
0
  0
SOLID
  8
0
 62
    15
 10
5.655320
 20
2.910600
 11
5.654440
 21
3.649800
 12
5.657960
 22
2.923360
 13
5.657520
 23
3.663000
  0
POLYLINE
  8
0
  6
CONTINUOUS
 66
     1
 40
0.000000
 41
0.000000
  0
VERTEX
  8
0
  6
CONTINUOUS
 10
5.655320
 20
2.910600
  0
VERTEX
  8
0
  6
CONTINUOUS
 10
5.654440
 20
3.649800
  0
VERTEX
  8
0
  6
CONTINUOUS
 10
5.657520
 20
3.663000
  0
VERTEX
  8
0
  6
CONTINUOUS
 10
5.657960
 20
2.923360
  0
VERTEX
  8
0
  6
CONTINUOUS
 10
5.655320
 20
2.910600
  0
SEQEND
  8
0
  0
SOLID
  8
0
 62
    15
 10
5.657960
 20
2.923360
 11
5.657520
 21
3.663000
 12
6.180680
 22
2.923360
 13
6.179800
 23
3.663000
  0
POLYLINE
  8
0
  6
CONTINUOUS
 66
     1
 40
0.000000
 41
0.000000
  0
VERTEX
  8
0
  6
CONTINUOUS
 10
5.657960
 20
2.923360
  0
VERTEX
  8
0
  6
CONTINUOUS
 10
5.657520
 20
3.663000
  0
VERTEX
  8
0
  6
CONTINUOUS
 10
6.179800
 20
3.663000
  0
VERTEX
  8
0
  6
CONTINUOUS
 10
6.180680
 20
2.923360
  0
VERTEX
  8
0
  6
CONTINUOUS
 10
5.657960
 20
2.923360
  0
SEQEND
  8
0
  0
POLYLINE
  8
0
  6
CONTINUOUS
 66
     1
 40
0.000000
 41
0.000000
  0
VERTEX
  8
0
  6
CONTINUOUS
 10
6.180680
 20
2.174040
  0
VERTEX
  8
0
  6
CONTINUOUS
 10
2.694560
 20
2.174040
  0
VERTEX
  8
0
  6
CONTINUOUS
 10
2.694560
 20
2.923360
  0
VERTEX
  8
0
  6
CONTINUOUS
 10
3.215960
 20
2.923360
  0
VERTEX
  8
0
  6
CONTINUOUS
 10
3.219040
 20
2.910160
  0
VERTEX
  8
0
  6
CONTINUOUS
 10
3.227400
 20
2.890360
  0
VERTEX
  8
0
  6
CONTINUOUS
 10
3.241480
 20
2.865720
  0
VERTEX
  8
0
  6
CONTINUOUS
 10
3.260840
 20
2.840200
  0
VERTEX
  8
0
  6
CONTINUOUS
 10
3.285040
 20
2.815560
  0
VERTEX
  8
0
  6
CONTINUOUS
 10
3.314080
 20
2.794440
  0
VERTEX
  8
0
  6
CONTINUOUS
 10
3.347080
 20
2.780360
  0
VERTEX
  8
0
  6
CONTINUOUS
 10
3.384480
 20
2.775520
  0
VERTEX
  8
0
  6
CONTINUOUS
 10
3.421880
 20
2.779480
  0
VERTEX
  8
0
  6
CONTINUOUS
 10
3.456640
 20
2.790040
  0
VERTEX
  8
0
  6
CONTINUOUS
 10
3.582480
 20
2.851200
  0
VERTEX
  8
0
  6
CONTINUOUS
 10
3.615480
 20
2.861760
  0
VERTEX
  8
0
  6
CONTINUOUS
 10
3.649800
 20
2.866160
  0
VERTEX
  8
0
  6
CONTINUOUS
 10
3.683240
 20
2.865280
  0
VERTEX
  8
0
  6
CONTINUOUS
 10
3.711400
 20
2.860440
  0
VERTEX
  8
0
  6
CONTINUOUS
 10
3.734280
 20
2.853400
  0
VERTEX
  8
0
  6
CONTINUOUS
 10
3.753200
 20
2.843720
  0
VERTEX
  8
0
  6
CONTINUOUS
 10
3.767720
 20
2.832720
  0
VERTEX
  8
0
  6
CONTINUOUS
 10
3.778280
 20
2.820840
  0
VERTEX
  8
0
  6
CONTINUOUS
 10
3.788840
 20
2.797960
  0
VERTEX
  8
0
  6
CONTINUOUS
 10
3.818760
 20
2.830520
  0
VERTEX
  8
0
  6
CONTINUOUS
 10
3.830200
 20
2.839760
  0
VERTEX
  8
0
  6
CONTINUOUS
 10
3.840760
 20
2.844160
  0
VERTEX
  8
0
  6
CONTINUOUS
 10
3.851760
 20
2.843280
  0
VERTEX
  8
0
  6
CONTINUOUS
 10
3.864080
 20
2.836680
  0
VERTEX
  8
0
  6
CONTINUOUS
 10
3.897960
 20
2.805440
  0
VERTEX
  8
0
  6
CONTINUOUS
 10
3.921280
 20
2.788720
  0
VERTEX
  8
0
  6
CONTINUOUS
 10
3.947240
 20
2.781240
  0
VERTEX
  8
0
  6
CONTINUOUS
 10
3.974520
 20
2.781240
  0
VERTEX
  8
0
  6
CONTINUOUS
 10
4.002240
 20
2.787400
  0
VERTEX
  8
0
  6
CONTINUOUS
 10
4.028200
 20
2.797520
  0
VERTEX
  8
0
  6
CONTINUOUS
 10
4.051960
 20
2.810280
  0
VERTEX
  8
0
  6
CONTINUOUS
 10
4.071320
 20
2.823480
  0
VERTEX
  8
0
  6
CONTINUOUS
 10
4.085840
 20
2.836240
  0
VERTEX
  8
0
  6
CONTINUOUS
 10
4.146560
 20
2.762320
  0
VERTEX
  8
0
  6
CONTINUOUS
 10
4.184840
 20
2.801480
  0
VERTEX
  8
0
  6
CONTINUOUS
 10
4.226640
 20
2.831840
  0
VERTEX
  8
0
  6
CONTINUOUS
 10
4.270200
 20
2.853840
  0
VERTEX
  8
0
  6
CONTINUOUS
 10
4.313320
 20
2.869240
  0
VERTEX
  8
0
  6
CONTINUOUS
 10
4.353800
 20
2.879360
  0
VERTEX
  8
0
  6
CONTINUOUS
 10
4.389880
 20
2.884640
  0
VERTEX
  8
0
  6
CONTINUOUS
 10
4.418920
 20
2.887280
  0
VERTEX
  8
0
  6
CONTINUOUS
 10
4.455440
 20
2.887280
  0
VERTEX
  8
0
  6
CONTINUOUS
 10
4.484480
 20
2.884640
  0
VERTEX
  8
0
  6
CONTINUOUS
 10
4.520120
 20
2.879360
  0
VERTEX
  8
0
  6
CONTINUOUS
 10
4.560600
 20
2.869240
  0
VERTEX
  8
0
  6
CONTINUOUS
 10
4.603720
 20
2.853840
  0
VERTEX
  8
0
  6
CONTINUOUS
 10
4.647280
 20
2.831840
  0
VERTEX
  8
0
  6
CONTINUOUS
 10
4.689520
 20
2.801480
  0
VERTEX
  8
0
  6
CONTINUOUS
 10
4.727360
 20
2.762320
  0
VERTEX
  8
0
  6
CONTINUOUS
 10
4.788520
 20
2.836240
  0
VERTEX
  8
0
  6
CONTINUOUS
 10
4.802600
 20
2.823920
  0
VERTEX
  8
0
  6
CONTINUOUS
 10
4.822400
 20
2.810280
  0
VERTEX
  8
0
  6
CONTINUOUS
 10
4.845720
 20
2.797520
  0
VERTEX
  8
0
  6
CONTINUOUS
 10
4.872120
 20
2.787400
  0
VERTEX
  8
0
  6
CONTINUOUS
 10
4.899840
 20
2.781240
  0
VERTEX
  8
0
  6
CONTINUOUS
 10
4.927120
 20
2.781240
  0
VERTEX
  8
0
  6
CONTINUOUS
 10
4.953080
 20
2.788720
  0
VERTEX
  8
0
  6
CONTINUOUS
 10
4.975960
 20
2.805440
  0
VERTEX
  8
0
  6
CONTINUOUS
 10
5.010280
 20
2.836680
  0
VERTEX
  8
0
  6
CONTINUOUS
 10
5.022600
 20
2.843280
  0
VERTEX
  8
0
  6
CONTINUOUS
 10
5.033600
 20
2.844160
  0
VERTEX
  8
0
  6
CONTINUOUS
 10
5.043720
 20
2.840200
  0
VERTEX
  8
0
  6
CONTINUOUS
 10
5.068800
 20
2.816440
  0
VERTEX
  8
0
  6
CONTINUOUS
 10
5.085080
 20
2.798400
  0
VERTEX
  8
0
  6
CONTINUOUS
 10
5.096080
 20
2.821280
  0
VERTEX
  8
0
  6
CONTINUOUS
 10
5.106640
 20
2.832720
  0
VERTEX
  8
0
  6
CONTINUOUS
 10
5.121160
 20
2.843720
  0
VERTEX
  8
0
  6
CONTINUOUS
 10
5.139640
 20
2.853400
  0
VERTEX
  8
0
  6
CONTINUOUS
 10
5.162960
 20
2.860440
  0
VERTEX
  8
0
  6
CONTINUOUS
 10
5.191120
 20
2.865280
  0
VERTEX
  8
0
  6
CONTINUOUS
 10
5.224120
 20
2.866160
  0
VERTEX
  8
0
  6
CONTINUOUS
 10
5.258880
 20
2.861760
  0
VERTEX
  8
0
  6
CONTINUOUS
 10
5.291440
 20
2.851200
  0
VERTEX
  8
0
  6
CONTINUOUS
 10
5.417720
 20
2.790040
  0
VERTEX
  8
0
  6
CONTINUOUS
 10
5.452040
 20
2.779480
  0
VERTEX
  8
0
  6
CONTINUOUS
 10
5.489880
 20
2.775520
  0
VERTEX
  8
0
  6
CONTINUOUS
 10
5.526840
 20
2.780360
  0
VERTEX
  8
0
  6
CONTINUOUS
 10
5.560280
 20
2.794880
  0
VERTEX
  8
0
  6
CONTINUOUS
 10
5.588880
 20
2.815560
  0
VERTEX
  8
0
  6
CONTINUOUS
 10
5.613080
 20
2.840200
  0
VERTEX
  8
0
  6
CONTINUOUS
 10
5.632440
 20
2.866160
  0
VERTEX
  8
0
  6
CONTINUOUS
 10
5.646520
 20
2.890360
  0
VERTEX
  8
0
  6
CONTINUOUS
 10
5.655320
 20
2.910600
  0
VERTEX
  8
0
  6
CONTINUOUS
 10
5.657960
 20
2.923360
  0
VERTEX
  8
0
  6
CONTINUOUS
 10
6.180680
 20
2.923360
  0
VERTEX
  8
0
  6
CONTINUOUS
 10
6.180680
 20
2.174040
  0
SEQEND
  8
0
  0
TEXT
  8
0
 10
4.094640
 20
1.941280
 40
0.138043
  1
BA  1036
 41
1.000000
  7
SN0
 71
     0
 72
     5
 11
4.777113
 21
1.941280
  0
TEXT
  8
0
 10
3.985080
 20
1.749440
 40
0.138043
  1
3/4" x 3-1/2"
 41
1.000000
  7
SN0
 71
     0
 72
     5
 11
4.885439
 21
1.749440
  0
POLYLINE
  8
0
  6
CONTINUOUS
 66
     1
 40
0.014080
 41
0.014080
  0
VERTEX
  8
0
  6
CONTINUOUS
 10
6.160000
 20
3.891360
  0
VERTEX
  8
0
  6
CONTINUOUS
 10
2.673880
 20
3.891360
  0
VERTEX
  8
0
  6
CONTINUOUS
 10
2.673880
 20
4.640680
  0
VERTEX
  8
0
  6
CONTINUOUS
 10
3.195280
 20
4.640680
  0
VERTEX
  8
0
  6
CONTINUOUS
 10
3.198360
 20
4.627480
  0
VERTEX
  8
0
  6
CONTINUOUS
 10
3.206720
 20
4.607680
  0
VERTEX
  8
0
  6
CONTINUOUS
 10
3.230040
 20
4.570280
  0
VERTEX
  8
0
  6
CONTINUOUS
 10
3.251600
 20
4.544760
  0
VERTEX
  8
0
  6
CONTINUOUS
 10
3.278440
 20
4.521880
  0
VERTEX
  8
0
  6
CONTINUOUS
 10
3.309240
 20
4.503840
  0
VERTEX
  8
0
  6
CONTINUOUS
 10
3.335640
 20
4.495480
  0
VERTEX
  8
0
  6
CONTINUOUS
 10
3.363800
 20
4.492840
  0
VERTEX
  8
0
  6
CONTINUOUS
 10
3.383160
 20
4.494160
  0
VERTEX
  8
0
  6
CONTINUOUS
 10
3.418800
 20
4.501640
  0
VERTEX
  8
0
  6
CONTINUOUS
 10
3.452240
 20
4.513960
  0
VERTEX
  8
0
  6
CONTINUOUS
 10
3.545960
 20
4.561920
  0
VERTEX
  8
0
  6
CONTINUOUS
 10
3.578080
 20
4.574240
  0
VERTEX
  8
0
  6
CONTINUOUS
 10
3.594360
 20
4.579080
  0
VERTEX
  8
0
  6
CONTINUOUS
 10
3.611520
 20
4.582160
  0
VERTEX
  8
0
  6
CONTINUOUS
 10
3.646280
 20
4.583480
  0
VERTEX
  8
0
  6
CONTINUOUS
 10
3.677080
 20
4.580840
  0
VERTEX
  8
0
  6
CONTINUOUS
 10
3.703040
 20
4.574680
  0
VERTEX
  8
0
  6
CONTINUOUS
 10
3.723720
 20
4.566320
  0
VERTEX
  8
0
  6
CONTINUOUS
 10
3.747040
 20
4.550040
  0
VERTEX
  8
0
  6
CONTINUOUS
 10
3.757600
 20
4.538600
  0
VERTEX
  8
0
  6
CONTINUOUS
 10
3.766840
 20
4.521000
  0
VERTEX
  8
0
  6
CONTINUOUS
 10
3.768160
 20
4.515720
  0
VERTEX
  8
0
  6
CONTINUOUS
 10
3.803800
 20
4.553120
  0
VERTEX
  8
0
  6
CONTINUOUS
 10
3.814800
 20
4.560160
  0
VERTEX
  8
0
  6
CONTINUOUS
 10
3.825360
 20
4.561920
  0
VERTEX
  8
0
  6
CONTINUOUS
 10
3.836800
 20
4.557960
  0
VERTEX
  8
0
  6
CONTINUOUS
 10
3.858360
 20
4.541680
  0
VERTEX
  8
0
  6
CONTINUOUS
 10
3.888280
 20
4.513080
  0
VERTEX
  8
0
  6
CONTINUOUS
 10
3.900600
 20
4.506040
  0
VERTEX
  8
0
  6
CONTINUOUS
 10
3.913360
 20
4.501200
  0
VERTEX
  8
0
  6
CONTINUOUS
 10
3.926560
 20
4.498560
  0
VERTEX
  8
0
  6
CONTINUOUS
 10
3.940200
 20
4.497680
  0
VERTEX
  8
0
  6
CONTINUOUS
 10
3.953840
 20
4.498560
  0
VERTEX
  8
0
  6
CONTINUOUS
 10
3.981560
 20
4.504720
  0
VERTEX
  8
0
  6
CONTINUOUS
 10
4.007520
 20
4.514840
  0
VERTEX
  8
0
  6
CONTINUOUS
 10
4.041840
 20
4.534200
  0
VERTEX
  8
0
  6
CONTINUOUS
 10
4.065160
 20
4.553560
  0
VERTEX
  8
0
  6
CONTINUOUS
 10
4.125880
 20
4.479640
  0
VERTEX
  8
0
  6
CONTINUOUS
 10
4.154040
 20
4.510000
  0
VERTEX
  8
0
  6
CONTINUOUS
 10
4.184400
 20
4.535080
  0
VERTEX
  8
0
  6
CONTINUOUS
 10
4.205960
 20
4.549160
  0
VERTEX
  8
0
  6
CONTINUOUS
 10
4.249520
 20
4.571160
  0
VERTEX
  8
0
  6
CONTINUOUS
 10
4.271520
 20
4.579960
  0
VERTEX
  8
0
  6
CONTINUOUS
 10
4.313760
 20
4.592280
  0
VERTEX
  8
0
  6
CONTINUOUS
 10
4.352040
 20
4.599760
  0
VERTEX
  8
0
  6
CONTINUOUS
 10
4.398240
 20
4.604600
  0
VERTEX
  8
0
  6
CONTINUOUS
 10
4.418480
 20
4.605040
  0
VERTEX
  8
0
  6
CONTINUOUS
 10
4.414520
 20
4.605040
  0
VERTEX
  8
0
  6
CONTINUOUS
 10
4.447960
 20
4.603720
  0
VERTEX
  8
0
  6
CONTINUOUS
 10
4.499440
 20
4.596680
  0
VERTEX
  8
0
  6
CONTINUOUS
 10
4.540360
 20
4.586560
  0
VERTEX
  8
0
  6
CONTINUOUS
 10
4.561480
 20
4.579960
  0
VERTEX
  8
0
  6
CONTINUOUS
 10
4.605040
 20
4.561040
  0
VERTEX
  8
0
  6
CONTINUOUS
 10
4.627040
 20
4.549160
  0
VERTEX
  8
0
  6
CONTINUOUS
 10
4.648160
 20
4.535080
  0
VERTEX
  8
0
  6
CONTINUOUS
 10
4.678520
 20
4.510000
  0
VERTEX
  8
0
  6
CONTINUOUS
 10
4.706680
 20
4.479640
  0
VERTEX
  8
0
  6
CONTINUOUS
 10
4.767840
 20
4.553560
  0
VERTEX
  8
0
  6
CONTINUOUS
 10
4.791160
 20
4.534200
  0
VERTEX
  8
0
  6
CONTINUOUS
 10
4.825040
 20
4.514840
  0
VERTEX
  8
0
  6
CONTINUOUS
 10
4.851440
 20
4.504720
  0
VERTEX
  8
0
  6
CONTINUOUS
 10
4.879160
 20
4.498560
  0
VERTEX
  8
0
  6
CONTINUOUS
 10
4.892800
 20
4.497680
  0
VERTEX
  8
0
  6
CONTINUOUS
 10
4.906440
 20
4.498560
  0
VERTEX
  8
0
  6
CONTINUOUS
 10
4.919640
 20
4.501200
  0
VERTEX
  8
0
  6
CONTINUOUS
 10
4.938560
 20
4.509120
  0
VERTEX
  8
0
  6
CONTINUOUS
 10
4.955280
 20
4.522760
  0
VERTEX
  8
0
  6
CONTINUOUS
 10
4.982120
 20
4.548720
  0
VERTEX
  8
0
  6
CONTINUOUS
 10
4.995760
 20
4.557960
  0
VERTEX
  8
0
  6
CONTINUOUS
 10
5.007640
 20
4.561920
  0
VERTEX
  8
0
  6
CONTINUOUS
 10
5.012920
 20
4.561920
  0
VERTEX
  8
0
  6
CONTINUOUS
 10
5.023480
 20
4.557520
  0
VERTEX
  8
0
  6
CONTINUOUS
 10
5.044600
 20
4.538160
  0
VERTEX
  8
0
  6
CONTINUOUS
 10
5.064400
 20
4.515720
  0
VERTEX
  8
0
  6
CONTINUOUS
 10
5.071440
 20
4.532440
  0
VERTEX
  8
0
  6
CONTINUOUS
 10
5.085960
 20
4.550040
  0
VERTEX
  8
0
  6
CONTINUOUS
 10
5.109280
 20
4.566320
  0
VERTEX
  8
0
  6
CONTINUOUS
 10
5.129960
 20
4.574680
  0
VERTEX
  8
0
  6
CONTINUOUS
 10
5.155480
 20
4.580840
  0
VERTEX
  8
0
  6
CONTINUOUS
 10
5.186280
 20
4.583480
  0
VERTEX
  8
0
  6
CONTINUOUS
 10
5.221040
 20
4.582160
  0
VERTEX
  8
0
  6
CONTINUOUS
 10
5.238200
 20
4.579080
  0
VERTEX
  8
0
  6
CONTINUOUS
 10
5.270760
 20
4.568520
  0
VERTEX
  8
0
  6
CONTINUOUS
 10
5.302440
 20
4.554000
  0
VERTEX
  8
0
  6
CONTINUOUS
 10
5.380760
 20
4.513960
  0
VERTEX
  8
0
  6
CONTINUOUS
 10
5.414200
 20
4.501640
  0
VERTEX
  8
0
  6
CONTINUOUS
 10
5.449840
 20
4.494160
  0
VERTEX
  8
0
  6
CONTINUOUS
 10
5.469200
 20
4.492840
  0
VERTEX
  8
0
  6
CONTINUOUS
 10
5.497360
 20
4.495480
  0
VERTEX
  8
0
  6
CONTINUOUS
 10
5.523760
 20
4.503840
  0
VERTEX
  8
0
  6
CONTINUOUS
 10
5.554560
 20
4.521880
  0
VERTEX
  8
0
  6
CONTINUOUS
 10
5.581400
 20
4.544760
  0
VERTEX
  8
0
  6
CONTINUOUS
 10
5.602960
 20
4.570720
  0
VERTEX
  8
0
  6
CONTINUOUS
 10
5.619680
 20
4.595800
  0
VERTEX
  8
0
  6
CONTINUOUS
 10
5.631120
 20
4.618680
  0
VERTEX
  8
0
  6
CONTINUOUS
 10
5.637720
 20
4.641120
  0
VERTEX
  8
0
  6
CONTINUOUS
 10
6.160000
 20
4.641120
  0
VERTEX
  8
0
  6
CONTINUOUS
 10
6.160000
 20
3.891360
  0
SEQEND
  8
0
  0
TEXT
  8
0
 10
4.074400
 20
4.209040
 40
0.138043
  1
BA  1036
 41
1.000000
  7
SN0
 71
     0
 72
     5
 11
4.756873
 21
4.209040
  0
TEXT
  8
0
 10
3.964840
 20
4.017640
 40
0.138043
  1
3/4" x 3-1/2"
 41
1.000000
  7
SN0
 71
     0
 72
     5
 11
4.865199
 21
4.017640
  0
ENDSEC
  0
EOF
