  0
SECTION
  2
HEADER
  9
$ACADVER
  1
AC1006
  9
$EXTMIN
 10
2.090440
 20
0.865480
  9
$EXTMAX
 10
7.103800
 20
4.017200
  9
$LTSCALE
 40
0.044000
  9
$PDMODE
 70
    35
  9
$PDSIZE
 40
0.035200
  0
ENDSEC
  0
SECTION
  2
TABLES
  0
TABLE
  2
LTYPE
 70
     9
  0
LTYPE
  2
CONTINUOUS
 70
    64
  3
Solid line
 72
    65
 73
     0
 40
0.000000
  0
LTYPE
  2
DASHED
 70
    64
  3
__ __ __ __ __ __ __ __ __ __ __ __ __ __ __
 72
    65
 73
     2
 40
0.000330
 49
0.000220
 49
-0.000110
  0
LTYPE
  2
HIDDEN
 70
    64
  3
 _ _ _ _ _ _ _ _ _ _ _ _ _ _ _ _ _ _ _ _ _ _
 72
    65
 73
     2
 40
0.000165
 49
0.000110
 49
-0.000055
  0
LTYPE
  2
CENTER
 70
    64
  3
____ _ ____ _ ____ _ ____ _ ____ _ ____ _ ____
 72
    65
 73
     4
 40
0.000880
 49
0.000550
 49
-0.000110
 49
0.000110
 49
-0.000110
  0
LTYPE
  2
PHANTOM
 70
    64
  3
_____ _ _ _____ _ _ _____ _ _ _____ _ _ ____
 72
    65
 73
     6
 40
0.001100
 49
0.000550
 49
-0.000110
 49
0.000110
 49
-0.000110
 49
0.000110
 49
-0.000110
  0
LTYPE
  2
DOT
 70
    64
  3
...............................................
 72
    65
 73
     2
 40
0.000110
 49
0.000000
 49
-0.000110
  0
LTYPE
  2
DASHDOT
 70
    64
  3
__ . __ . __ . __ . __ . __ . __ . __ . __ . __
 72
    65
 73
     4
 40
0.000440
 49
0.000220
 49
-0.000110
 49
0.000000
 49
-0.000110
  0
LTYPE
  2
BORDER
 70
    64
  3
__ __ . __ __ . __ __ . __ __ . __ __ . __ __
 72
    65
 73
     6
 40
0.000770
 49
0.000220
 49
-0.000110
 49
0.000220
 49
-0.000110
 49
0.000000
 49
-0.000110
  0
LTYPE
  2
DIVIDE
 70
    64
  3
__ . . __ . . __ . . __ . . __ . . __ . . __
 72
    65
 73
     6
 40
0.000550
 49
0.000220
 49
-0.000110
 49
0.000000
 49
-0.000110
 49
0.000000
 49
-0.000110
  0
LTYPE
  2
DOTDOT
 70
    64
  3
 . .  . .  . .  . .  . .  . . 
 72
    65
 73
     5
 40
0.000242
 49
-0.000110
 49
0.000000
 49
-0.000110
 49
0.000000
 49
-0.000110
  0
ENDTAB
  0
TABLE
  2
STYLE
 70
     2
  0
STYLE
 70
     0
  2
SN0
 40
0.000000
 41
0.000440
 50
0.000000
 71
     0
 42
0.000000
  3
ROMAND
  0
STYLE
 70
    68
  2
SV0
 40
0.000000
 41
0.000440
 50
0.000000
 71
     0
 42
0.000000
  3
ROMAND
  0
ENDTAB
  0
TABLE
  2
LAYER
 70
     3
  0
LAYER
  2
FOREGROUND
 70
    64
 62
     7
  6
CONTINUOUS
  0
LAYER
  2
BACKGROUND
 70
    65
 62
    -7
  6
CONTINUOUS
  0
LAYER
  2
0
 70
    64
 62
     7
  6
CONTINUOUS
  0
ENDTAB
  0
ENDSEC
  0
SECTION
  2
ENTITIES
  0
POLYLINE
  8
FOREGROUND
  6
CONTINUOUS
 66
     1
 40
0.000000
 41
0.000000
  0
VERTEX
  8
FOREGROUND
  6
CONTINUOUS
 10
0.000000
 20
4.882680
  0
VERTEX
  8
FOREGROUND
  6
CONTINUOUS
 10
8.499920
 20
4.882680
  0
VERTEX
  8
FOREGROUND
  6
CONTINUOUS
 10
8.499920
 20
-6.117320
  0
VERTEX
  8
FOREGROUND
  6
CONTINUOUS
 10
0.000000
 20
-6.117320
  0
VERTEX
  8
FOREGROUND
  6
CONTINUOUS
 10
0.000000
 20
4.882680
  0
SEQEND
  8
0
  0
POLYLINE
  8
FOREGROUND
  6
CONTINUOUS
 66
     1
 40
0.000000
 41
0.000000
  0
VERTEX
  8
FOREGROUND
  6
CONTINUOUS
 10
0.000000
 20
4.882680
  0
VERTEX
  8
FOREGROUND
  6
CONTINUOUS
 10
8.499920
 20
4.882680
  0
VERTEX
  8
FOREGROUND
  6
CONTINUOUS
 10
8.499920
 20
-6.117320
  0
VERTEX
  8
FOREGROUND
  6
CONTINUOUS
 10
0.000000
 20
-6.117320
  0
VERTEX
  8
FOREGROUND
  6
CONTINUOUS
 10
0.000000
 20
4.882680
  0
SEQEND
  8
0
  0
SOLID
  8
0
 62
    15
 10
2.114200
 20
2.164800
 11
2.118600
 21
2.914120
 12
2.860000
 22
2.164800
 13
2.863960
 23
2.914120
  0
POLYLINE
  8
0
  6
CONTINUOUS
 66
     1
 40
0.000000
 41
0.000000
  0
VERTEX
  8
0
  6
CONTINUOUS
 10
2.114200
 20
2.164800
  0
VERTEX
  8
0
  6
CONTINUOUS
 10
2.118600
 20
2.914120
  0
VERTEX
  8
0
  6
CONTINUOUS
 10
2.863960
 20
2.914120
  0
VERTEX
  8
0
  6
CONTINUOUS
 10
2.860000
 20
2.164800
  0
VERTEX
  8
0
  6
CONTINUOUS
 10
2.114200
 20
2.164800
  0
SEQEND
  8
0
  0
SOLID
  8
0
 62
    15
 10
4.632320
 20
2.115520
 11
4.636280
 21
2.865280
 12
4.673680
 22
2.112440
 13
4.677640
 23
2.861760
  0
POLYLINE
  8
0
  6
CONTINUOUS
 66
     1
 40
0.000000
 41
0.000000
  0
VERTEX
  8
0
  6
CONTINUOUS
 10
4.632320
 20
2.115520
  0
VERTEX
  8
0
  6
CONTINUOUS
 10
4.636280
 20
2.865280
  0
VERTEX
  8
0
  6
CONTINUOUS
 10
4.677640
 20
2.861760
  0
VERTEX
  8
0
  6
CONTINUOUS
 10
4.673680
 20
2.112440
  0
VERTEX
  8
0
  6
CONTINUOUS
 10
4.632320
 20
2.115520
  0
SEQEND
  8
0
  0
SOLID
  8
0
 62
    15
 10
4.673680
 20
2.112440
 11
4.677640
 21
2.861760
 12
4.725160
 22
2.104960
 13
4.729120
 23
2.854280
  0
POLYLINE
  8
0
  6
CONTINUOUS
 66
     1
 40
0.000000
 41
0.000000
  0
VERTEX
  8
0
  6
CONTINUOUS
 10
4.673680
 20
2.112440
  0
VERTEX
  8
0
  6
CONTINUOUS
 10
4.677640
 20
2.861760
  0
VERTEX
  8
0
  6
CONTINUOUS
 10
4.729120
 20
2.854280
  0
VERTEX
  8
0
  6
CONTINUOUS
 10
4.725160
 20
2.104960
  0
VERTEX
  8
0
  6
CONTINUOUS
 10
4.673680
 20
2.112440
  0
SEQEND
  8
0
  0
SOLID
  8
0
 62
    15
 10
4.725160
 20
2.104960
 11
4.729120
 21
2.854280
 12
4.783240
 22
2.091320
 13
4.787200
 23
2.841080
  0
POLYLINE
  8
0
  6
CONTINUOUS
 66
     1
 40
0.000000
 41
0.000000
  0
VERTEX
  8
0
  6
CONTINUOUS
 10
4.725160
 20
2.104960
  0
VERTEX
  8
0
  6
CONTINUOUS
 10
4.729120
 20
2.854280
  0
VERTEX
  8
0
  6
CONTINUOUS
 10
4.787200
 20
2.841080
  0
VERTEX
  8
0
  6
CONTINUOUS
 10
4.783240
 20
2.091320
  0
VERTEX
  8
0
  6
CONTINUOUS
 10
4.725160
 20
2.104960
  0
SEQEND
  8
0
  0
SOLID
  8
0
 62
    15
 10
4.783240
 20
2.091320
 11
4.787200
 21
2.841080
 12
4.844840
 22
2.070640
 13
4.848800
 23
2.820400
  0
POLYLINE
  8
0
  6
CONTINUOUS
 66
     1
 40
0.000000
 41
0.000000
  0
VERTEX
  8
0
  6
CONTINUOUS
 10
4.783240
 20
2.091320
  0
VERTEX
  8
0
  6
CONTINUOUS
 10
4.787200
 20
2.841080
  0
VERTEX
  8
0
  6
CONTINUOUS
 10
4.848800
 20
2.820400
  0
VERTEX
  8
0
  6
CONTINUOUS
 10
4.844840
 20
2.070640
  0
VERTEX
  8
0
  6
CONTINUOUS
 10
4.783240
 20
2.091320
  0
SEQEND
  8
0
  0
SOLID
  8
0
 62
    15
 10
4.844840
 20
2.070640
 11
4.848800
 21
2.820400
 12
4.907320
 22
2.040720
 13
4.911280
 23
2.790480
  0
POLYLINE
  8
0
  6
CONTINUOUS
 66
     1
 40
0.000000
 41
0.000000
  0
VERTEX
  8
0
  6
CONTINUOUS
 10
4.844840
 20
2.070640
  0
VERTEX
  8
0
  6
CONTINUOUS
 10
4.848800
 20
2.820400
  0
VERTEX
  8
0
  6
CONTINUOUS
 10
4.911280
 20
2.790480
  0
VERTEX
  8
0
  6
CONTINUOUS
 10
4.907320
 20
2.040720
  0
VERTEX
  8
0
  6
CONTINUOUS
 10
4.844840
 20
2.070640
  0
SEQEND
  8
0
  0
SOLID
  8
0
 62
    15
 10
4.907320
 20
2.040720
 11
4.911280
 21
2.790480
 12
4.967160
 22
1.999800
 13
4.971120
 23
2.749560
  0
POLYLINE
  8
0
  6
CONTINUOUS
 66
     1
 40
0.000000
 41
0.000000
  0
VERTEX
  8
0
  6
CONTINUOUS
 10
4.907320
 20
2.040720
  0
VERTEX
  8
0
  6
CONTINUOUS
 10
4.911280
 20
2.790480
  0
VERTEX
  8
0
  6
CONTINUOUS
 10
4.971120
 20
2.749560
  0
VERTEX
  8
0
  6
CONTINUOUS
 10
4.967160
 20
1.999800
  0
VERTEX
  8
0
  6
CONTINUOUS
 10
4.907320
 20
2.040720
  0
SEQEND
  8
0
  0
SOLID
  8
0
 62
    15
 10
4.967160
 20
1.999800
 11
4.971120
 21
2.749560
 12
4.995320
 22
1.975160
 13
4.999280
 23
2.724480
  0
POLYLINE
  8
0
  6
CONTINUOUS
 66
     1
 40
0.000000
 41
0.000000
  0
VERTEX
  8
0
  6
CONTINUOUS
 10
4.967160
 20
1.999800
  0
VERTEX
  8
0
  6
CONTINUOUS
 10
4.971120
 20
2.749560
  0
VERTEX
  8
0
  6
CONTINUOUS
 10
4.999280
 20
2.724480
  0
VERTEX
  8
0
  6
CONTINUOUS
 10
4.995320
 20
1.975160
  0
VERTEX
  8
0
  6
CONTINUOUS
 10
4.967160
 20
1.999800
  0
SEQEND
  8
0
  0
SOLID
  8
0
 62
    15
 10
4.995320
 20
1.975160
 11
4.999280
 21
2.724480
 12
5.021720
 22
1.946560
 13
5.025680
 23
2.696320
  0
POLYLINE
  8
0
  6
CONTINUOUS
 66
     1
 40
0.000000
 41
0.000000
  0
VERTEX
  8
0
  6
CONTINUOUS
 10
4.995320
 20
1.975160
  0
VERTEX
  8
0
  6
CONTINUOUS
 10
4.999280
 20
2.724480
  0
VERTEX
  8
0
  6
CONTINUOUS
 10
5.025680
 20
2.696320
  0
VERTEX
  8
0
  6
CONTINUOUS
 10
5.021720
 20
1.946560
  0
VERTEX
  8
0
  6
CONTINUOUS
 10
4.995320
 20
1.975160
  0
SEQEND
  8
0
  0
SOLID
  8
0
 62
    15
 10
5.021720
 20
1.946560
 11
5.025680
 21
2.696320
 12
5.108840
 22
2.046880
 13
5.112800
 23
2.796640
  0
POLYLINE
  8
0
  6
CONTINUOUS
 66
     1
 40
0.000000
 41
0.000000
  0
VERTEX
  8
0
  6
CONTINUOUS
 10
5.021720
 20
1.946560
  0
VERTEX
  8
0
  6
CONTINUOUS
 10
5.025680
 20
2.696320
  0
VERTEX
  8
0
  6
CONTINUOUS
 10
5.112800
 20
2.796640
  0
VERTEX
  8
0
  6
CONTINUOUS
 10
5.108840
 20
2.046880
  0
VERTEX
  8
0
  6
CONTINUOUS
 10
5.021720
 20
1.946560
  0
SEQEND
  8
0
  0
SOLID
  8
0
 62
    15
 10
5.108840
 20
2.046880
 11
5.112800
 21
2.796640
 12
5.129080
 22
2.029720
 13
5.133040
 23
2.779480
  0
POLYLINE
  8
0
  6
CONTINUOUS
 66
     1
 40
0.000000
 41
0.000000
  0
VERTEX
  8
0
  6
CONTINUOUS
 10
5.108840
 20
2.046880
  0
VERTEX
  8
0
  6
CONTINUOUS
 10
5.112800
 20
2.796640
  0
VERTEX
  8
0
  6
CONTINUOUS
 10
5.133040
 20
2.779480
  0
VERTEX
  8
0
  6
CONTINUOUS
 10
5.129080
 20
2.029720
  0
VERTEX
  8
0
  6
CONTINUOUS
 10
5.108840
 20
2.046880
  0
SEQEND
  8
0
  0
SOLID
  8
0
 62
    15
 10
5.129080
 20
2.029720
 11
5.133040
 21
2.779480
 12
5.157240
 22
2.011240
 13
5.161200
 23
2.761000
  0
POLYLINE
  8
0
  6
CONTINUOUS
 66
     1
 40
0.000000
 41
0.000000
  0
VERTEX
  8
0
  6
CONTINUOUS
 10
5.129080
 20
2.029720
  0
VERTEX
  8
0
  6
CONTINUOUS
 10
5.133040
 20
2.779480
  0
VERTEX
  8
0
  6
CONTINUOUS
 10
5.161200
 20
2.761000
  0
VERTEX
  8
0
  6
CONTINUOUS
 10
5.157240
 20
2.011240
  0
VERTEX
  8
0
  6
CONTINUOUS
 10
5.129080
 20
2.029720
  0
SEQEND
  8
0
  0
SOLID
  8
0
 62
    15
 10
5.157240
 20
2.011240
 11
5.161200
 21
2.761000
 12
5.190680
 22
1.994080
 13
5.194640
 23
2.743840
  0
POLYLINE
  8
0
  6
CONTINUOUS
 66
     1
 40
0.000000
 41
0.000000
  0
VERTEX
  8
0
  6
CONTINUOUS
 10
5.157240
 20
2.011240
  0
VERTEX
  8
0
  6
CONTINUOUS
 10
5.161200
 20
2.761000
  0
VERTEX
  8
0
  6
CONTINUOUS
 10
5.194640
 20
2.743840
  0
VERTEX
  8
0
  6
CONTINUOUS
 10
5.190680
 20
1.994080
  0
VERTEX
  8
0
  6
CONTINUOUS
 10
5.157240
 20
2.011240
  0
SEQEND
  8
0
  0
SOLID
  8
0
 62
    15
 10
5.190680
 20
1.994080
 11
5.194640
 21
2.743840
 12
5.228520
 22
1.980440
 13
5.232480
 23
2.730200
  0
POLYLINE
  8
0
  6
CONTINUOUS
 66
     1
 40
0.000000
 41
0.000000
  0
VERTEX
  8
0
  6
CONTINUOUS
 10
5.190680
 20
1.994080
  0
VERTEX
  8
0
  6
CONTINUOUS
 10
5.194640
 20
2.743840
  0
VERTEX
  8
0
  6
CONTINUOUS
 10
5.232480
 20
2.730200
  0
VERTEX
  8
0
  6
CONTINUOUS
 10
5.228520
 20
1.980440
  0
VERTEX
  8
0
  6
CONTINUOUS
 10
5.190680
 20
1.994080
  0
SEQEND
  8
0
  0
SOLID
  8
0
 62
    15
 10
5.228520
 20
1.980440
 11
5.232480
 21
2.730200
 12
5.267680
 22
1.972520
 13
5.271640
 23
2.721840
  0
POLYLINE
  8
0
  6
CONTINUOUS
 66
     1
 40
0.000000
 41
0.000000
  0
VERTEX
  8
0
  6
CONTINUOUS
 10
5.228520
 20
1.980440
  0
VERTEX
  8
0
  6
CONTINUOUS
 10
5.232480
 20
2.730200
  0
VERTEX
  8
0
  6
CONTINUOUS
 10
5.271640
 20
2.721840
  0
VERTEX
  8
0
  6
CONTINUOUS
 10
5.267680
 20
1.972520
  0
VERTEX
  8
0
  6
CONTINUOUS
 10
5.228520
 20
1.980440
  0
SEQEND
  8
0
  0
SOLID
  8
0
 62
    15
 10
5.267680
 20
1.972520
 11
5.271640
 21
2.721840
 12
5.306840
 22
1.972080
 13
5.310800
 23
2.721840
  0
POLYLINE
  8
0
  6
CONTINUOUS
 66
     1
 40
0.000000
 41
0.000000
  0
VERTEX
  8
0
  6
CONTINUOUS
 10
5.267680
 20
1.972520
  0
VERTEX
  8
0
  6
CONTINUOUS
 10
5.271640
 20
2.721840
  0
VERTEX
  8
0
  6
CONTINUOUS
 10
5.310800
 20
2.721840
  0
VERTEX
  8
0
  6
CONTINUOUS
 10
5.306840
 20
1.972080
  0
VERTEX
  8
0
  6
CONTINUOUS
 10
5.267680
 20
1.972520
  0
SEQEND
  8
0
  0
SOLID
  8
0
 62
    15
 10
5.306840
 20
1.972080
 11
5.310800
 21
2.721840
 12
5.344240
 22
1.982200
 13
5.348200
 23
2.731960
  0
POLYLINE
  8
0
  6
CONTINUOUS
 66
     1
 40
0.000000
 41
0.000000
  0
VERTEX
  8
0
  6
CONTINUOUS
 10
5.306840
 20
1.972080
  0
VERTEX
  8
0
  6
CONTINUOUS
 10
5.310800
 20
2.721840
  0
VERTEX
  8
0
  6
CONTINUOUS
 10
5.348200
 20
2.731960
  0
VERTEX
  8
0
  6
CONTINUOUS
 10
5.344240
 20
1.982200
  0
VERTEX
  8
0
  6
CONTINUOUS
 10
5.306840
 20
1.972080
  0
SEQEND
  8
0
  0
SOLID
  8
0
 62
    15
 10
5.344240
 20
1.982200
 11
5.348200
 21
2.731960
 12
5.377240
 22
2.005080
 13
5.381200
 23
2.754400
  0
POLYLINE
  8
0
  6
CONTINUOUS
 66
     1
 40
0.000000
 41
0.000000
  0
VERTEX
  8
0
  6
CONTINUOUS
 10
5.344240
 20
1.982200
  0
VERTEX
  8
0
  6
CONTINUOUS
 10
5.348200
 20
2.731960
  0
VERTEX
  8
0
  6
CONTINUOUS
 10
5.381200
 20
2.754400
  0
VERTEX
  8
0
  6
CONTINUOUS
 10
5.377240
 20
2.005080
  0
VERTEX
  8
0
  6
CONTINUOUS
 10
5.344240
 20
1.982200
  0
SEQEND
  8
0
  0
SOLID
  8
0
 62
    15
 10
5.377240
 20
2.005080
 11
5.381200
 21
2.754400
 12
5.404080
 22
2.030160
 13
5.408040
 23
2.779920
  0
POLYLINE
  8
0
  6
CONTINUOUS
 66
     1
 40
0.000000
 41
0.000000
  0
VERTEX
  8
0
  6
CONTINUOUS
 10
5.377240
 20
2.005080
  0
VERTEX
  8
0
  6
CONTINUOUS
 10
5.381200
 20
2.754400
  0
VERTEX
  8
0
  6
CONTINUOUS
 10
5.408040
 20
2.779920
  0
VERTEX
  8
0
  6
CONTINUOUS
 10
5.404080
 20
2.030160
  0
VERTEX
  8
0
  6
CONTINUOUS
 10
5.377240
 20
2.005080
  0
SEQEND
  8
0
  0
SOLID
  8
0
 62
    15
 10
5.404080
 20
2.030160
 11
5.408040
 21
2.779920
 12
5.425640
 22
2.047320
 13
5.429600
 23
2.796640
  0
POLYLINE
  8
0
  6
CONTINUOUS
 66
     1
 40
0.000000
 41
0.000000
  0
VERTEX
  8
0
  6
CONTINUOUS
 10
5.404080
 20
2.030160
  0
VERTEX
  8
0
  6
CONTINUOUS
 10
5.408040
 20
2.779920
  0
VERTEX
  8
0
  6
CONTINUOUS
 10
5.429600
 20
2.796640
  0
VERTEX
  8
0
  6
CONTINUOUS
 10
5.425640
 20
2.047320
  0
VERTEX
  8
0
  6
CONTINUOUS
 10
5.404080
 20
2.030160
  0
SEQEND
  8
0
  0
SOLID
  8
0
 62
    15
 10
5.425640
 20
2.047320
 11
5.429600
 21
2.796640
 12
5.443240
 22
2.056120
 13
5.447200
 23
2.805880
  0
POLYLINE
  8
0
  6
CONTINUOUS
 66
     1
 40
0.000000
 41
0.000000
  0
VERTEX
  8
0
  6
CONTINUOUS
 10
5.425640
 20
2.047320
  0
VERTEX
  8
0
  6
CONTINUOUS
 10
5.429600
 20
2.796640
  0
VERTEX
  8
0
  6
CONTINUOUS
 10
5.447200
 20
2.805880
  0
VERTEX
  8
0
  6
CONTINUOUS
 10
5.443240
 20
2.056120
  0
VERTEX
  8
0
  6
CONTINUOUS
 10
5.425640
 20
2.047320
  0
SEQEND
  8
0
  0
SOLID
  8
0
 62
    15
 10
5.443240
 20
2.056120
 11
5.447200
 21
2.805880
 12
5.459080
 22
2.057440
 13
5.463040
 23
2.807200
  0
POLYLINE
  8
0
  6
CONTINUOUS
 66
     1
 40
0.000000
 41
0.000000
  0
VERTEX
  8
0
  6
CONTINUOUS
 10
5.443240
 20
2.056120
  0
VERTEX
  8
0
  6
CONTINUOUS
 10
5.447200
 20
2.805880
  0
VERTEX
  8
0
  6
CONTINUOUS
 10
5.463040
 20
2.807200
  0
VERTEX
  8
0
  6
CONTINUOUS
 10
5.459080
 20
2.057440
  0
VERTEX
  8
0
  6
CONTINUOUS
 10
5.443240
 20
2.056120
  0
SEQEND
  8
0
  0
SOLID
  8
0
 62
    15
 10
5.459080
 20
2.057440
 11
5.463040
 21
2.807200
 12
5.474040
 22
2.051720
 13
5.478000
 23
2.801480
  0
POLYLINE
  8
0
  6
CONTINUOUS
 66
     1
 40
0.000000
 41
0.000000
  0
VERTEX
  8
0
  6
CONTINUOUS
 10
5.459080
 20
2.057440
  0
VERTEX
  8
0
  6
CONTINUOUS
 10
5.463040
 20
2.807200
  0
VERTEX
  8
0
  6
CONTINUOUS
 10
5.478000
 20
2.801480
  0
VERTEX
  8
0
  6
CONTINUOUS
 10
5.474040
 20
2.051720
  0
VERTEX
  8
0
  6
CONTINUOUS
 10
5.459080
 20
2.057440
  0
SEQEND
  8
0
  0
SOLID
  8
0
 62
    15
 10
5.474040
 20
2.051720
 11
5.478000
 21
2.801480
 12
5.490320
 22
2.039400
 13
5.494280
 23
2.788720
  0
POLYLINE
  8
0
  6
CONTINUOUS
 66
     1
 40
0.000000
 41
0.000000
  0
VERTEX
  8
0
  6
CONTINUOUS
 10
5.474040
 20
2.051720
  0
VERTEX
  8
0
  6
CONTINUOUS
 10
5.478000
 20
2.801480
  0
VERTEX
  8
0
  6
CONTINUOUS
 10
5.494280
 20
2.788720
  0
VERTEX
  8
0
  6
CONTINUOUS
 10
5.490320
 20
2.039400
  0
VERTEX
  8
0
  6
CONTINUOUS
 10
5.474040
 20
2.051720
  0
SEQEND
  8
0
  0
SOLID
  8
0
 62
    15
 10
5.490320
 20
2.039400
 11
5.494280
 21
2.788720
 12
5.509680
 22
2.020040
 13
5.513640
 23
2.769800
  0
POLYLINE
  8
0
  6
CONTINUOUS
 66
     1
 40
0.000000
 41
0.000000
  0
VERTEX
  8
0
  6
CONTINUOUS
 10
5.490320
 20
2.039400
  0
VERTEX
  8
0
  6
CONTINUOUS
 10
5.494280
 20
2.788720
  0
VERTEX
  8
0
  6
CONTINUOUS
 10
5.513640
 20
2.769800
  0
VERTEX
  8
0
  6
CONTINUOUS
 10
5.509680
 20
2.020040
  0
VERTEX
  8
0
  6
CONTINUOUS
 10
5.490320
 20
2.039400
  0
SEQEND
  8
0
  0
SOLID
  8
0
 62
    15
 10
5.509680
 20
2.020040
 11
5.513640
 21
2.769800
 12
5.533000
 22
1.995400
 13
5.536960
 23
2.744720
  0
POLYLINE
  8
0
  6
CONTINUOUS
 66
     1
 40
0.000000
 41
0.000000
  0
VERTEX
  8
0
  6
CONTINUOUS
 10
5.509680
 20
2.020040
  0
VERTEX
  8
0
  6
CONTINUOUS
 10
5.513640
 20
2.769800
  0
VERTEX
  8
0
  6
CONTINUOUS
 10
5.536960
 20
2.744720
  0
VERTEX
  8
0
  6
CONTINUOUS
 10
5.533000
 20
1.995400
  0
VERTEX
  8
0
  6
CONTINUOUS
 10
5.509680
 20
2.020040
  0
SEQEND
  8
0
  0
SOLID
  8
0
 62
    15
 10
5.533000
 20
1.995400
 11
5.536960
 21
2.744720
 12
5.538720
 22
2.010360
 13
5.542680
 23
2.759680
  0
POLYLINE
  8
0
  6
CONTINUOUS
 66
     1
 40
0.000000
 41
0.000000
  0
VERTEX
  8
0
  6
CONTINUOUS
 10
5.533000
 20
1.995400
  0
VERTEX
  8
0
  6
CONTINUOUS
 10
5.536960
 20
2.744720
  0
VERTEX
  8
0
  6
CONTINUOUS
 10
5.542680
 20
2.759680
  0
VERTEX
  8
0
  6
CONTINUOUS
 10
5.538720
 20
2.010360
  0
VERTEX
  8
0
  6
CONTINUOUS
 10
5.533000
 20
1.995400
  0
SEQEND
  8
0
  0
SOLID
  8
0
 62
    15
 10
5.538720
 20
2.010360
 11
5.542680
 21
2.759680
 12
5.548400
 22
2.026200
 13
5.552360
 23
2.775960
  0
POLYLINE
  8
0
  6
CONTINUOUS
 66
     1
 40
0.000000
 41
0.000000
  0
VERTEX
  8
0
  6
CONTINUOUS
 10
5.538720
 20
2.010360
  0
VERTEX
  8
0
  6
CONTINUOUS
 10
5.542680
 20
2.759680
  0
VERTEX
  8
0
  6
CONTINUOUS
 10
5.552360
 20
2.775960
  0
VERTEX
  8
0
  6
CONTINUOUS
 10
5.548400
 20
2.026200
  0
VERTEX
  8
0
  6
CONTINUOUS
 10
5.538720
 20
2.010360
  0
SEQEND
  8
0
  0
SOLID
  8
0
 62
    15
 10
5.548400
 20
2.026200
 11
5.552360
 21
2.775960
 12
5.563800
 22
2.042040
 13
5.567760
 23
2.791800
  0
POLYLINE
  8
0
  6
CONTINUOUS
 66
     1
 40
0.000000
 41
0.000000
  0
VERTEX
  8
0
  6
CONTINUOUS
 10
5.548400
 20
2.026200
  0
VERTEX
  8
0
  6
CONTINUOUS
 10
5.552360
 20
2.775960
  0
VERTEX
  8
0
  6
CONTINUOUS
 10
5.567760
 20
2.791800
  0
VERTEX
  8
0
  6
CONTINUOUS
 10
5.563800
 20
2.042040
  0
VERTEX
  8
0
  6
CONTINUOUS
 10
5.548400
 20
2.026200
  0
SEQEND
  8
0
  0
SOLID
  8
0
 62
    15
 10
5.563800
 20
2.042040
 11
5.567760
 21
2.791800
 12
5.584480
 22
2.057000
 13
5.588440
 23
2.806320
  0
POLYLINE
  8
0
  6
CONTINUOUS
 66
     1
 40
0.000000
 41
0.000000
  0
VERTEX
  8
0
  6
CONTINUOUS
 10
5.563800
 20
2.042040
  0
VERTEX
  8
0
  6
CONTINUOUS
 10
5.567760
 20
2.791800
  0
VERTEX
  8
0
  6
CONTINUOUS
 10
5.588440
 20
2.806320
  0
VERTEX
  8
0
  6
CONTINUOUS
 10
5.584480
 20
2.057000
  0
VERTEX
  8
0
  6
CONTINUOUS
 10
5.563800
 20
2.042040
  0
SEQEND
  8
0
  0
SOLID
  8
0
 62
    15
 10
5.584480
 20
2.057000
 11
5.588440
 21
2.806320
 12
5.610880
 22
2.069760
 13
5.614840
 23
2.819080
  0
POLYLINE
  8
0
  6
CONTINUOUS
 66
     1
 40
0.000000
 41
0.000000
  0
VERTEX
  8
0
  6
CONTINUOUS
 10
5.584480
 20
2.057000
  0
VERTEX
  8
0
  6
CONTINUOUS
 10
5.588440
 20
2.806320
  0
VERTEX
  8
0
  6
CONTINUOUS
 10
5.614840
 20
2.819080
  0
VERTEX
  8
0
  6
CONTINUOUS
 10
5.610880
 20
2.069760
  0
VERTEX
  8
0
  6
CONTINUOUS
 10
5.584480
 20
2.057000
  0
SEQEND
  8
0
  0
SOLID
  8
0
 62
    15
 10
5.610880
 20
2.069760
 11
5.614840
 21
2.819080
 12
5.643880
 22
2.079440
 13
5.648280
 23
2.829200
  0
POLYLINE
  8
0
  6
CONTINUOUS
 66
     1
 40
0.000000
 41
0.000000
  0
VERTEX
  8
0
  6
CONTINUOUS
 10
5.610880
 20
2.069760
  0
VERTEX
  8
0
  6
CONTINUOUS
 10
5.614840
 20
2.819080
  0
VERTEX
  8
0
  6
CONTINUOUS
 10
5.648280
 20
2.829200
  0
VERTEX
  8
0
  6
CONTINUOUS
 10
5.643880
 20
2.079440
  0
VERTEX
  8
0
  6
CONTINUOUS
 10
5.610880
 20
2.069760
  0
SEQEND
  8
0
  0
SOLID
  8
0
 62
    15
 10
5.643880
 20
2.079440
 11
5.648280
 21
2.829200
 12
5.684360
 22
2.086040
 13
5.688320
 23
2.835360
  0
POLYLINE
  8
0
  6
CONTINUOUS
 66
     1
 40
0.000000
 41
0.000000
  0
VERTEX
  8
0
  6
CONTINUOUS
 10
5.643880
 20
2.079440
  0
VERTEX
  8
0
  6
CONTINUOUS
 10
5.648280
 20
2.829200
  0
VERTEX
  8
0
  6
CONTINUOUS
 10
5.688320
 20
2.835360
  0
VERTEX
  8
0
  6
CONTINUOUS
 10
5.684360
 20
2.086040
  0
VERTEX
  8
0
  6
CONTINUOUS
 10
5.643880
 20
2.079440
  0
SEQEND
  8
0
  0
SOLID
  8
0
 62
    15
 10
5.684360
 20
2.086040
 11
5.688320
 21
2.835360
 12
5.731880
 22
2.087360
 13
5.735840
 23
2.836680
  0
POLYLINE
  8
0
  6
CONTINUOUS
 66
     1
 40
0.000000
 41
0.000000
  0
VERTEX
  8
0
  6
CONTINUOUS
 10
5.684360
 20
2.086040
  0
VERTEX
  8
0
  6
CONTINUOUS
 10
5.688320
 20
2.835360
  0
VERTEX
  8
0
  6
CONTINUOUS
 10
5.735840
 20
2.836680
  0
VERTEX
  8
0
  6
CONTINUOUS
 10
5.731880
 20
2.087360
  0
VERTEX
  8
0
  6
CONTINUOUS
 10
5.684360
 20
2.086040
  0
SEQEND
  8
0
  0
SOLID
  8
0
 62
    15
 10
5.731880
 20
2.087360
 11
5.735840
 21
2.836680
 12
5.781600
 22
2.081200
 13
5.785560
 23
2.830960
  0
POLYLINE
  8
0
  6
CONTINUOUS
 66
     1
 40
0.000000
 41
0.000000
  0
VERTEX
  8
0
  6
CONTINUOUS
 10
5.731880
 20
2.087360
  0
VERTEX
  8
0
  6
CONTINUOUS
 10
5.735840
 20
2.836680
  0
VERTEX
  8
0
  6
CONTINUOUS
 10
5.785560
 20
2.830960
  0
VERTEX
  8
0
  6
CONTINUOUS
 10
5.781600
 20
2.081200
  0
VERTEX
  8
0
  6
CONTINUOUS
 10
5.731880
 20
2.087360
  0
SEQEND
  8
0
  0
SOLID
  8
0
 62
    15
 10
5.781600
 20
2.081200
 11
5.785560
 21
2.830960
 12
5.828240
 22
2.067120
 13
5.832200
 23
2.816440
  0
POLYLINE
  8
0
  6
CONTINUOUS
 66
     1
 40
0.000000
 41
0.000000
  0
VERTEX
  8
0
  6
CONTINUOUS
 10
5.781600
 20
2.081200
  0
VERTEX
  8
0
  6
CONTINUOUS
 10
5.785560
 20
2.830960
  0
VERTEX
  8
0
  6
CONTINUOUS
 10
5.832200
 20
2.816440
  0
VERTEX
  8
0
  6
CONTINUOUS
 10
5.828240
 20
2.067120
  0
VERTEX
  8
0
  6
CONTINUOUS
 10
5.781600
 20
2.081200
  0
SEQEND
  8
0
  0
SOLID
  8
0
 62
    15
 10
5.828240
 20
2.067120
 11
5.832200
 21
2.816440
 12
5.917120
 22
2.025320
 13
5.921080
 23
2.775080
  0
POLYLINE
  8
0
  6
CONTINUOUS
 66
     1
 40
0.000000
 41
0.000000
  0
VERTEX
  8
0
  6
CONTINUOUS
 10
5.828240
 20
2.067120
  0
VERTEX
  8
0
  6
CONTINUOUS
 10
5.832200
 20
2.816440
  0
VERTEX
  8
0
  6
CONTINUOUS
 10
5.921080
 20
2.775080
  0
VERTEX
  8
0
  6
CONTINUOUS
 10
5.917120
 20
2.025320
  0
VERTEX
  8
0
  6
CONTINUOUS
 10
5.828240
 20
2.067120
  0
SEQEND
  8
0
  0
SOLID
  8
0
 62
    15
 10
5.917120
 20
2.025320
 11
5.921080
 21
2.775080
 12
6.008200
 22
1.983960
 13
6.012160
 23
2.733720
  0
POLYLINE
  8
0
  6
CONTINUOUS
 66
     1
 40
0.000000
 41
0.000000
  0
VERTEX
  8
0
  6
CONTINUOUS
 10
5.917120
 20
2.025320
  0
VERTEX
  8
0
  6
CONTINUOUS
 10
5.921080
 20
2.775080
  0
VERTEX
  8
0
  6
CONTINUOUS
 10
6.012160
 20
2.733720
  0
VERTEX
  8
0
  6
CONTINUOUS
 10
6.008200
 20
1.983960
  0
VERTEX
  8
0
  6
CONTINUOUS
 10
5.917120
 20
2.025320
  0
SEQEND
  8
0
  0
SOLID
  8
0
 62
    15
 10
6.008200
 20
1.983960
 11
6.012160
 21
2.733720
 12
6.057920
 22
1.970320
 13
6.061880
 23
2.719640
  0
POLYLINE
  8
0
  6
CONTINUOUS
 66
     1
 40
0.000000
 41
0.000000
  0
VERTEX
  8
0
  6
CONTINUOUS
 10
6.008200
 20
1.983960
  0
VERTEX
  8
0
  6
CONTINUOUS
 10
6.012160
 20
2.733720
  0
VERTEX
  8
0
  6
CONTINUOUS
 10
6.061880
 20
2.719640
  0
VERTEX
  8
0
  6
CONTINUOUS
 10
6.057920
 20
1.970320
  0
VERTEX
  8
0
  6
CONTINUOUS
 10
6.008200
 20
1.983960
  0
SEQEND
  8
0
  0
SOLID
  8
0
 62
    15
 10
6.057920
 20
1.970320
 11
6.061880
 21
2.719640
 12
6.111600
 22
1.964600
 13
6.115560
 23
2.713920
  0
POLYLINE
  8
0
  6
CONTINUOUS
 66
     1
 40
0.000000
 41
0.000000
  0
VERTEX
  8
0
  6
CONTINUOUS
 10
6.057920
 20
1.970320
  0
VERTEX
  8
0
  6
CONTINUOUS
 10
6.061880
 20
2.719640
  0
VERTEX
  8
0
  6
CONTINUOUS
 10
6.115560
 20
2.713920
  0
VERTEX
  8
0
  6
CONTINUOUS
 10
6.111600
 20
1.964600
  0
VERTEX
  8
0
  6
CONTINUOUS
 10
6.057920
 20
1.970320
  0
SEQEND
  8
0
  0
SOLID
  8
0
 62
    15
 10
6.111600
 20
1.964600
 11
6.115560
 21
2.713920
 12
6.138880
 22
1.966360
 13
6.142840
 23
2.715680
  0
POLYLINE
  8
0
  6
CONTINUOUS
 66
     1
 40
0.000000
 41
0.000000
  0
VERTEX
  8
0
  6
CONTINUOUS
 10
6.111600
 20
1.964600
  0
VERTEX
  8
0
  6
CONTINUOUS
 10
6.115560
 20
2.713920
  0
VERTEX
  8
0
  6
CONTINUOUS
 10
6.142840
 20
2.715680
  0
VERTEX
  8
0
  6
CONTINUOUS
 10
6.138880
 20
1.966360
  0
VERTEX
  8
0
  6
CONTINUOUS
 10
6.111600
 20
1.964600
  0
SEQEND
  8
0
  0
SOLID
  8
0
 62
    15
 10
6.138880
 20
1.966360
 11
6.142840
 21
2.715680
 12
6.164840
 22
1.971200
 13
6.168800
 23
2.720960
  0
POLYLINE
  8
0
  6
CONTINUOUS
 66
     1
 40
0.000000
 41
0.000000
  0
VERTEX
  8
0
  6
CONTINUOUS
 10
6.138880
 20
1.966360
  0
VERTEX
  8
0
  6
CONTINUOUS
 10
6.142840
 20
2.715680
  0
VERTEX
  8
0
  6
CONTINUOUS
 10
6.168800
 20
2.720960
  0
VERTEX
  8
0
  6
CONTINUOUS
 10
6.164840
 20
1.971200
  0
VERTEX
  8
0
  6
CONTINUOUS
 10
6.138880
 20
1.966360
  0
SEQEND
  8
0
  0
SOLID
  8
0
 62
    15
 10
6.164840
 20
1.971200
 11
6.168800
 21
2.720960
 12
6.212360
 22
1.990560
 13
6.216320
 23
2.740320
  0
POLYLINE
  8
0
  6
CONTINUOUS
 66
     1
 40
0.000000
 41
0.000000
  0
VERTEX
  8
0
  6
CONTINUOUS
 10
6.164840
 20
1.971200
  0
VERTEX
  8
0
  6
CONTINUOUS
 10
6.168800
 20
2.720960
  0
VERTEX
  8
0
  6
CONTINUOUS
 10
6.216320
 20
2.740320
  0
VERTEX
  8
0
  6
CONTINUOUS
 10
6.212360
 20
1.990560
  0
VERTEX
  8
0
  6
CONTINUOUS
 10
6.164840
 20
1.971200
  0
SEQEND
  8
0
  0
SOLID
  8
0
 62
    15
 10
6.212360
 20
1.990560
 11
6.216320
 21
2.740320
 12
6.253720
 22
2.018720
 13
6.257680
 23
2.768480
  0
POLYLINE
  8
0
  6
CONTINUOUS
 66
     1
 40
0.000000
 41
0.000000
  0
VERTEX
  8
0
  6
CONTINUOUS
 10
6.212360
 20
1.990560
  0
VERTEX
  8
0
  6
CONTINUOUS
 10
6.216320
 20
2.740320
  0
VERTEX
  8
0
  6
CONTINUOUS
 10
6.257680
 20
2.768480
  0
VERTEX
  8
0
  6
CONTINUOUS
 10
6.253720
 20
2.018720
  0
VERTEX
  8
0
  6
CONTINUOUS
 10
6.212360
 20
1.990560
  0
SEQEND
  8
0
  0
SOLID
  8
0
 62
    15
 10
6.253720
 20
2.018720
 11
6.257680
 21
2.768480
 12
6.288040
 22
2.052160
 13
6.292000
 23
2.801480
  0
POLYLINE
  8
0
  6
CONTINUOUS
 66
     1
 40
0.000000
 41
0.000000
  0
VERTEX
  8
0
  6
CONTINUOUS
 10
6.253720
 20
2.018720
  0
VERTEX
  8
0
  6
CONTINUOUS
 10
6.257680
 20
2.768480
  0
VERTEX
  8
0
  6
CONTINUOUS
 10
6.292000
 20
2.801480
  0
VERTEX
  8
0
  6
CONTINUOUS
 10
6.288040
 20
2.052160
  0
VERTEX
  8
0
  6
CONTINUOUS
 10
6.253720
 20
2.018720
  0
SEQEND
  8
0
  0
SOLID
  8
0
 62
    15
 10
6.288040
 20
2.052160
 11
6.292000
 21
2.801480
 12
6.315760
 22
2.086920
 13
6.319720
 23
2.836680
  0
POLYLINE
  8
0
  6
CONTINUOUS
 66
     1
 40
0.000000
 41
0.000000
  0
VERTEX
  8
0
  6
CONTINUOUS
 10
6.288040
 20
2.052160
  0
VERTEX
  8
0
  6
CONTINUOUS
 10
6.292000
 20
2.801480
  0
VERTEX
  8
0
  6
CONTINUOUS
 10
6.319720
 20
2.836680
  0
VERTEX
  8
0
  6
CONTINUOUS
 10
6.315760
 20
2.086920
  0
VERTEX
  8
0
  6
CONTINUOUS
 10
6.288040
 20
2.052160
  0
SEQEND
  8
0
  0
SOLID
  8
0
 62
    15
 10
6.315760
 20
2.086920
 11
6.319720
 21
2.836680
 12
6.336000
 22
2.119920
 13
6.339960
 23
2.869680
  0
POLYLINE
  8
0
  6
CONTINUOUS
 66
     1
 40
0.000000
 41
0.000000
  0
VERTEX
  8
0
  6
CONTINUOUS
 10
6.315760
 20
2.086920
  0
VERTEX
  8
0
  6
CONTINUOUS
 10
6.319720
 20
2.836680
  0
VERTEX
  8
0
  6
CONTINUOUS
 10
6.339960
 20
2.869680
  0
VERTEX
  8
0
  6
CONTINUOUS
 10
6.336000
 20
2.119920
  0
VERTEX
  8
0
  6
CONTINUOUS
 10
6.315760
 20
2.086920
  0
SEQEND
  8
0
  0
SOLID
  8
0
 62
    15
 10
6.336000
 20
2.119920
 11
6.339960
 21
2.869680
 12
6.348320
 22
2.147200
 13
6.352280
 23
2.896520
  0
POLYLINE
  8
0
  6
CONTINUOUS
 66
     1
 40
0.000000
 41
0.000000
  0
VERTEX
  8
0
  6
CONTINUOUS
 10
6.336000
 20
2.119920
  0
VERTEX
  8
0
  6
CONTINUOUS
 10
6.339960
 20
2.869680
  0
VERTEX
  8
0
  6
CONTINUOUS
 10
6.352280
 20
2.896520
  0
VERTEX
  8
0
  6
CONTINUOUS
 10
6.348320
 20
2.147200
  0
VERTEX
  8
0
  6
CONTINUOUS
 10
6.336000
 20
2.119920
  0
SEQEND
  8
0
  0
SOLID
  8
0
 62
    15
 10
6.348320
 20
2.147200
 11
6.352280
 21
2.896520
 12
6.352280
 22
2.164800
 13
6.356240
 23
2.914560
  0
POLYLINE
  8
0
  6
CONTINUOUS
 66
     1
 40
0.000000
 41
0.000000
  0
VERTEX
  8
0
  6
CONTINUOUS
 10
6.348320
 20
2.147200
  0
VERTEX
  8
0
  6
CONTINUOUS
 10
6.352280
 20
2.896520
  0
VERTEX
  8
0
  6
CONTINUOUS
 10
6.356240
 20
2.914560
  0
VERTEX
  8
0
  6
CONTINUOUS
 10
6.352280
 20
2.164800
  0
VERTEX
  8
0
  6
CONTINUOUS
 10
6.348320
 20
2.147200
  0
SEQEND
  8
0
  0
SOLID
  8
0
 62
    15
 10
7.099400
 20
2.164800
 11
7.103360
 21
2.914560
 12
7.099400
 22
1.345080
 13
7.103360
 23
2.094400
  0
POLYLINE
  8
0
  6
CONTINUOUS
 66
     1
 40
0.000000
 41
0.000000
  0
VERTEX
  8
0
  6
CONTINUOUS
 10
7.099400
 20
2.164800
  0
VERTEX
  8
0
  6
CONTINUOUS
 10
7.103360
 20
2.914560
  0
VERTEX
  8
0
  6
CONTINUOUS
 10
7.103360
 20
2.094400
  0
VERTEX
  8
0
  6
CONTINUOUS
 10
7.099400
 20
1.345080
  0
VERTEX
  8
0
  6
CONTINUOUS
 10
7.099400
 20
2.164800
  0
SEQEND
  8
0
  0
SOLID
  8
0
 62
    15
 10
6.352280
 20
2.164800
 11
6.356240
 21
2.914560
 12
7.099400
 22
2.164800
 13
7.103360
 23
2.914560
  0
POLYLINE
  8
0
  6
CONTINUOUS
 66
     1
 40
0.000000
 41
0.000000
  0
VERTEX
  8
0
  6
CONTINUOUS
 10
6.352280
 20
2.164800
  0
VERTEX
  8
0
  6
CONTINUOUS
 10
6.356240
 20
2.914560
  0
VERTEX
  8
0
  6
CONTINUOUS
 10
7.103360
 20
2.914560
  0
VERTEX
  8
0
  6
CONTINUOUS
 10
7.099400
 20
2.164800
  0
VERTEX
  8
0
  6
CONTINUOUS
 10
6.352280
 20
2.164800
  0
SEQEND
  8
0
  0
SOLID
  8
0
 62
    15
 10
4.611640
 20
2.865720
 11
4.636280
 21
2.865280
 12
4.607680
 22
2.116400
 13
4.632320
 23
2.115520
  0
POLYLINE
  8
0
  6
CONTINUOUS
 66
     1
 40
0.000000
 41
0.000000
  0
VERTEX
  8
0
  6
CONTINUOUS
 10
4.611640
 20
2.865720
  0
VERTEX
  8
0
  6
CONTINUOUS
 10
4.636280
 20
2.865280
  0
VERTEX
  8
0
  6
CONTINUOUS
 10
4.632320
 20
2.115520
  0
VERTEX
  8
0
  6
CONTINUOUS
 10
4.607680
 20
2.116400
  0
VERTEX
  8
0
  6
CONTINUOUS
 10
4.611640
 20
2.865720
  0
SEQEND
  8
0
  0
SOLID
  8
0
 62
    15
 10
4.580400
 20
2.115520
 11
4.584360
 21
2.865280
 12
4.609000
 22
2.116400
 13
4.612960
 23
2.865720
  0
POLYLINE
  8
0
  6
CONTINUOUS
 66
     1
 40
0.000000
 41
0.000000
  0
VERTEX
  8
0
  6
CONTINUOUS
 10
4.580400
 20
2.115520
  0
VERTEX
  8
0
  6
CONTINUOUS
 10
4.584360
 20
2.865280
  0
VERTEX
  8
0
  6
CONTINUOUS
 10
4.612960
 20
2.865720
  0
VERTEX
  8
0
  6
CONTINUOUS
 10
4.609000
 20
2.116400
  0
VERTEX
  8
0
  6
CONTINUOUS
 10
4.580400
 20
2.115520
  0
SEQEND
  8
0
  0
SOLID
  8
0
 62
    15
 10
2.860000
 20
2.164800
 11
2.863960
 21
2.914120
 12
2.864400
 22
2.147200
 13
2.868360
 23
2.896520
  0
POLYLINE
  8
0
  6
CONTINUOUS
 66
     1
 40
0.000000
 41
0.000000
  0
VERTEX
  8
0
  6
CONTINUOUS
 10
2.860000
 20
2.164800
  0
VERTEX
  8
0
  6
CONTINUOUS
 10
2.863960
 20
2.914120
  0
VERTEX
  8
0
  6
CONTINUOUS
 10
2.868360
 20
2.896520
  0
VERTEX
  8
0
  6
CONTINUOUS
 10
2.864400
 20
2.147200
  0
VERTEX
  8
0
  6
CONTINUOUS
 10
2.860000
 20
2.164800
  0
SEQEND
  8
0
  0
SOLID
  8
0
 62
    15
 10
2.864400
 20
2.147200
 11
2.868360
 21
2.896520
 12
2.876720
 22
2.119920
 13
2.880680
 23
2.869240
  0
POLYLINE
  8
0
  6
CONTINUOUS
 66
     1
 40
0.000000
 41
0.000000
  0
VERTEX
  8
0
  6
CONTINUOUS
 10
2.864400
 20
2.147200
  0
VERTEX
  8
0
  6
CONTINUOUS
 10
2.868360
 20
2.896520
  0
VERTEX
  8
0
  6
CONTINUOUS
 10
2.880680
 20
2.869240
  0
VERTEX
  8
0
  6
CONTINUOUS
 10
2.876720
 20
2.119920
  0
VERTEX
  8
0
  6
CONTINUOUS
 10
2.864400
 20
2.147200
  0
SEQEND
  8
0
  0
SOLID
  8
0
 62
    15
 10
2.876720
 20
2.119920
 11
2.880680
 21
2.869240
 12
2.896520
 22
2.086920
 13
2.900480
 23
2.836680
  0
POLYLINE
  8
0
  6
CONTINUOUS
 66
     1
 40
0.000000
 41
0.000000
  0
VERTEX
  8
0
  6
CONTINUOUS
 10
2.876720
 20
2.119920
  0
VERTEX
  8
0
  6
CONTINUOUS
 10
2.880680
 20
2.869240
  0
VERTEX
  8
0
  6
CONTINUOUS
 10
2.900480
 20
2.836680
  0
VERTEX
  8
0
  6
CONTINUOUS
 10
2.896520
 20
2.086920
  0
VERTEX
  8
0
  6
CONTINUOUS
 10
2.876720
 20
2.119920
  0
SEQEND
  8
0
  0
SOLID
  8
0
 62
    15
 10
2.896520
 20
2.086920
 11
2.900480
 21
2.836680
 12
2.924240
 22
2.052160
 13
2.928200
 23
2.801480
  0
POLYLINE
  8
0
  6
CONTINUOUS
 66
     1
 40
0.000000
 41
0.000000
  0
VERTEX
  8
0
  6
CONTINUOUS
 10
2.896520
 20
2.086920
  0
VERTEX
  8
0
  6
CONTINUOUS
 10
2.900480
 20
2.836680
  0
VERTEX
  8
0
  6
CONTINUOUS
 10
2.928200
 20
2.801480
  0
VERTEX
  8
0
  6
CONTINUOUS
 10
2.924240
 20
2.052160
  0
VERTEX
  8
0
  6
CONTINUOUS
 10
2.896520
 20
2.086920
  0
SEQEND
  8
0
  0
SOLID
  8
0
 62
    15
 10
2.924240
 20
2.052160
 11
2.928200
 21
2.801480
 12
2.959000
 22
2.018720
 13
2.962960
 23
2.768040
  0
POLYLINE
  8
0
  6
CONTINUOUS
 66
     1
 40
0.000000
 41
0.000000
  0
VERTEX
  8
0
  6
CONTINUOUS
 10
2.924240
 20
2.052160
  0
VERTEX
  8
0
  6
CONTINUOUS
 10
2.928200
 20
2.801480
  0
VERTEX
  8
0
  6
CONTINUOUS
 10
2.962960
 20
2.768040
  0
VERTEX
  8
0
  6
CONTINUOUS
 10
2.959000
 20
2.018720
  0
VERTEX
  8
0
  6
CONTINUOUS
 10
2.924240
 20
2.052160
  0
SEQEND
  8
0
  0
SOLID
  8
0
 62
    15
 10
2.959000
 20
2.018720
 11
2.962960
 21
2.768040
 12
2.999920
 22
1.990560
 13
3.003880
 23
2.739880
  0
POLYLINE
  8
0
  6
CONTINUOUS
 66
     1
 40
0.000000
 41
0.000000
  0
VERTEX
  8
0
  6
CONTINUOUS
 10
2.959000
 20
2.018720
  0
VERTEX
  8
0
  6
CONTINUOUS
 10
2.962960
 20
2.768040
  0
VERTEX
  8
0
  6
CONTINUOUS
 10
3.003880
 20
2.739880
  0
VERTEX
  8
0
  6
CONTINUOUS
 10
2.999920
 20
1.990560
  0
VERTEX
  8
0
  6
CONTINUOUS
 10
2.959000
 20
2.018720
  0
SEQEND
  8
0
  0
SOLID
  8
0
 62
    15
 10
2.999920
 20
1.990560
 11
3.003880
 21
2.739880
 12
3.047440
 22
1.971200
 13
3.051400
 23
2.720960
  0
POLYLINE
  8
0
  6
CONTINUOUS
 66
     1
 40
0.000000
 41
0.000000
  0
VERTEX
  8
0
  6
CONTINUOUS
 10
2.999920
 20
1.990560
  0
VERTEX
  8
0
  6
CONTINUOUS
 10
3.003880
 20
2.739880
  0
VERTEX
  8
0
  6
CONTINUOUS
 10
3.051400
 20
2.720960
  0
VERTEX
  8
0
  6
CONTINUOUS
 10
3.047440
 20
1.971200
  0
VERTEX
  8
0
  6
CONTINUOUS
 10
2.999920
 20
1.990560
  0
SEQEND
  8
0
  0
SOLID
  8
0
 62
    15
 10
3.047440
 20
1.971200
 11
3.051400
 21
2.720960
 12
3.073400
 22
1.965920
 13
3.077360
 23
2.715680
  0
POLYLINE
  8
0
  6
CONTINUOUS
 66
     1
 40
0.000000
 41
0.000000
  0
VERTEX
  8
0
  6
CONTINUOUS
 10
3.047440
 20
1.971200
  0
VERTEX
  8
0
  6
CONTINUOUS
 10
3.051400
 20
2.720960
  0
VERTEX
  8
0
  6
CONTINUOUS
 10
3.077360
 20
2.715680
  0
VERTEX
  8
0
  6
CONTINUOUS
 10
3.073400
 20
1.965920
  0
VERTEX
  8
0
  6
CONTINUOUS
 10
3.047440
 20
1.971200
  0
SEQEND
  8
0
  0
SOLID
  8
0
 62
    15
 10
3.073400
 20
1.965920
 11
3.077360
 21
2.715680
 12
3.100680
 22
1.964600
 13
3.104640
 23
2.713920
  0
POLYLINE
  8
0
  6
CONTINUOUS
 66
     1
 40
0.000000
 41
0.000000
  0
VERTEX
  8
0
  6
CONTINUOUS
 10
3.073400
 20
1.965920
  0
VERTEX
  8
0
  6
CONTINUOUS
 10
3.077360
 20
2.715680
  0
VERTEX
  8
0
  6
CONTINUOUS
 10
3.104640
 20
2.713920
  0
VERTEX
  8
0
  6
CONTINUOUS
 10
3.100680
 20
1.964600
  0
VERTEX
  8
0
  6
CONTINUOUS
 10
3.073400
 20
1.965920
  0
SEQEND
  8
0
  0
SOLID
  8
0
 62
    15
 10
3.100680
 20
1.964600
 11
3.104640
 21
2.713920
 12
3.154360
 22
1.970320
 13
3.158320
 23
2.719640
  0
POLYLINE
  8
0
  6
CONTINUOUS
 66
     1
 40
0.000000
 41
0.000000
  0
VERTEX
  8
0
  6
CONTINUOUS
 10
3.100680
 20
1.964600
  0
VERTEX
  8
0
  6
CONTINUOUS
 10
3.104640
 20
2.713920
  0
VERTEX
  8
0
  6
CONTINUOUS
 10
3.158320
 20
2.719640
  0
VERTEX
  8
0
  6
CONTINUOUS
 10
3.154360
 20
1.970320
  0
VERTEX
  8
0
  6
CONTINUOUS
 10
3.100680
 20
1.964600
  0
SEQEND
  8
0
  0
SOLID
  8
0
 62
    15
 10
3.154360
 20
1.970320
 11
3.158320
 21
2.719640
 12
3.204080
 22
1.983960
 13
3.208040
 23
2.733720
  0
POLYLINE
  8
0
  6
CONTINUOUS
 66
     1
 40
0.000000
 41
0.000000
  0
VERTEX
  8
0
  6
CONTINUOUS
 10
3.154360
 20
1.970320
  0
VERTEX
  8
0
  6
CONTINUOUS
 10
3.158320
 20
2.719640
  0
VERTEX
  8
0
  6
CONTINUOUS
 10
3.208040
 20
2.733720
  0
VERTEX
  8
0
  6
CONTINUOUS
 10
3.204080
 20
1.983960
  0
VERTEX
  8
0
  6
CONTINUOUS
 10
3.154360
 20
1.970320
  0
SEQEND
  8
0
  0
SOLID
  8
0
 62
    15
 10
3.204080
 20
1.983960
 11
3.208040
 21
2.733720
 12
3.295160
 22
2.025320
 13
3.299120
 23
2.775080
  0
POLYLINE
  8
0
  6
CONTINUOUS
 66
     1
 40
0.000000
 41
0.000000
  0
VERTEX
  8
0
  6
CONTINUOUS
 10
3.204080
 20
1.983960
  0
VERTEX
  8
0
  6
CONTINUOUS
 10
3.208040
 20
2.733720
  0
VERTEX
  8
0
  6
CONTINUOUS
 10
3.299120
 20
2.775080
  0
VERTEX
  8
0
  6
CONTINUOUS
 10
3.295160
 20
2.025320
  0
VERTEX
  8
0
  6
CONTINUOUS
 10
3.204080
 20
1.983960
  0
SEQEND
  8
0
  0
SOLID
  8
0
 62
    15
 10
3.295160
 20
2.025320
 11
3.299120
 21
2.775080
 12
3.384480
 22
2.067120
 13
3.388440
 23
2.816440
  0
POLYLINE
  8
0
  6
CONTINUOUS
 66
     1
 40
0.000000
 41
0.000000
  0
VERTEX
  8
0
  6
CONTINUOUS
 10
3.295160
 20
2.025320
  0
VERTEX
  8
0
  6
CONTINUOUS
 10
3.299120
 20
2.775080
  0
VERTEX
  8
0
  6
CONTINUOUS
 10
3.388440
 20
2.816440
  0
VERTEX
  8
0
  6
CONTINUOUS
 10
3.384480
 20
2.067120
  0
VERTEX
  8
0
  6
CONTINUOUS
 10
3.295160
 20
2.025320
  0
SEQEND
  8
0
  0
SOLID
  8
0
 62
    15
 10
3.384480
 20
2.067120
 11
3.388440
 21
2.816440
 12
3.431120
 22
2.081200
 13
3.435080
 23
2.830520
  0
POLYLINE
  8
0
  6
CONTINUOUS
 66
     1
 40
0.000000
 41
0.000000
  0
VERTEX
  8
0
  6
CONTINUOUS
 10
3.384480
 20
2.067120
  0
VERTEX
  8
0
  6
CONTINUOUS
 10
3.388440
 20
2.816440
  0
VERTEX
  8
0
  6
CONTINUOUS
 10
3.435080
 20
2.830520
  0
VERTEX
  8
0
  6
CONTINUOUS
 10
3.431120
 20
2.081200
  0
VERTEX
  8
0
  6
CONTINUOUS
 10
3.384480
 20
2.067120
  0
SEQEND
  8
0
  0
SOLID
  8
0
 62
    15
 10
3.431120
 20
2.081200
 11
3.435080
 21
2.830520
 12
3.480840
 22
2.087360
 13
3.484800
 23
2.836680
  0
POLYLINE
  8
0
  6
CONTINUOUS
 66
     1
 40
0.000000
 41
0.000000
  0
VERTEX
  8
0
  6
CONTINUOUS
 10
3.431120
 20
2.081200
  0
VERTEX
  8
0
  6
CONTINUOUS
 10
3.435080
 20
2.830520
  0
VERTEX
  8
0
  6
CONTINUOUS
 10
3.484800
 20
2.836680
  0
VERTEX
  8
0
  6
CONTINUOUS
 10
3.480840
 20
2.087360
  0
VERTEX
  8
0
  6
CONTINUOUS
 10
3.431120
 20
2.081200
  0
SEQEND
  8
0
  0
SOLID
  8
0
 62
    15
 10
3.480840
 20
2.087360
 11
3.484800
 21
2.836680
 12
3.528360
 22
2.085600
 13
3.532320
 23
2.835360
  0
POLYLINE
  8
0
  6
CONTINUOUS
 66
     1
 40
0.000000
 41
0.000000
  0
VERTEX
  8
0
  6
CONTINUOUS
 10
3.480840
 20
2.087360
  0
VERTEX
  8
0
  6
CONTINUOUS
 10
3.484800
 20
2.836680
  0
VERTEX
  8
0
  6
CONTINUOUS
 10
3.532320
 20
2.835360
  0
VERTEX
  8
0
  6
CONTINUOUS
 10
3.528360
 20
2.085600
  0
VERTEX
  8
0
  6
CONTINUOUS
 10
3.480840
 20
2.087360
  0
SEQEND
  8
0
  0
SOLID
  8
0
 62
    15
 10
3.528360
 20
2.085600
 11
3.532320
 21
2.835360
 12
3.568400
 22
2.079440
 13
3.572360
 23
2.829200
  0
POLYLINE
  8
0
  6
CONTINUOUS
 66
     1
 40
0.000000
 41
0.000000
  0
VERTEX
  8
0
  6
CONTINUOUS
 10
3.528360
 20
2.085600
  0
VERTEX
  8
0
  6
CONTINUOUS
 10
3.532320
 20
2.835360
  0
VERTEX
  8
0
  6
CONTINUOUS
 10
3.572360
 20
2.829200
  0
VERTEX
  8
0
  6
CONTINUOUS
 10
3.568400
 20
2.079440
  0
VERTEX
  8
0
  6
CONTINUOUS
 10
3.528360
 20
2.085600
  0
SEQEND
  8
0
  0
SOLID
  8
0
 62
    15
 10
3.568400
 20
2.079440
 11
3.572360
 21
2.829200
 12
3.601400
 22
2.069760
 13
3.605360
 23
2.819080
  0
POLYLINE
  8
0
  6
CONTINUOUS
 66
     1
 40
0.000000
 41
0.000000
  0
VERTEX
  8
0
  6
CONTINUOUS
 10
3.568400
 20
2.079440
  0
VERTEX
  8
0
  6
CONTINUOUS
 10
3.572360
 20
2.829200
  0
VERTEX
  8
0
  6
CONTINUOUS
 10
3.605360
 20
2.819080
  0
VERTEX
  8
0
  6
CONTINUOUS
 10
3.601400
 20
2.069760
  0
VERTEX
  8
0
  6
CONTINUOUS
 10
3.568400
 20
2.079440
  0
SEQEND
  8
0
  0
SOLID
  8
0
 62
    15
 10
3.601400
 20
2.069760
 11
3.605360
 21
2.819080
 12
3.628240
 22
2.056560
 13
3.632200
 23
2.806320
  0
POLYLINE
  8
0
  6
CONTINUOUS
 66
     1
 40
0.000000
 41
0.000000
  0
VERTEX
  8
0
  6
CONTINUOUS
 10
3.601400
 20
2.069760
  0
VERTEX
  8
0
  6
CONTINUOUS
 10
3.605360
 20
2.819080
  0
VERTEX
  8
0
  6
CONTINUOUS
 10
3.632200
 20
2.806320
  0
VERTEX
  8
0
  6
CONTINUOUS
 10
3.628240
 20
2.056560
  0
VERTEX
  8
0
  6
CONTINUOUS
 10
3.601400
 20
2.069760
  0
SEQEND
  8
0
  0
SOLID
  8
0
 62
    15
 10
3.628240
 20
2.056560
 11
3.632200
 21
2.806320
 12
3.648920
 22
2.042040
 13
3.652880
 23
2.791360
  0
POLYLINE
  8
0
  6
CONTINUOUS
 66
     1
 40
0.000000
 41
0.000000
  0
VERTEX
  8
0
  6
CONTINUOUS
 10
3.628240
 20
2.056560
  0
VERTEX
  8
0
  6
CONTINUOUS
 10
3.632200
 20
2.806320
  0
VERTEX
  8
0
  6
CONTINUOUS
 10
3.652880
 20
2.791360
  0
VERTEX
  8
0
  6
CONTINUOUS
 10
3.648920
 20
2.042040
  0
VERTEX
  8
0
  6
CONTINUOUS
 10
3.628240
 20
2.056560
  0
SEQEND
  8
0
  0
SOLID
  8
0
 62
    15
 10
3.648920
 20
2.042040
 11
3.652880
 21
2.791360
 12
3.663880
 22
2.026200
 13
3.667840
 23
2.775520
  0
POLYLINE
  8
0
  6
CONTINUOUS
 66
     1
 40
0.000000
 41
0.000000
  0
VERTEX
  8
0
  6
CONTINUOUS
 10
3.648920
 20
2.042040
  0
VERTEX
  8
0
  6
CONTINUOUS
 10
3.652880
 20
2.791360
  0
VERTEX
  8
0
  6
CONTINUOUS
 10
3.667840
 20
2.775520
  0
VERTEX
  8
0
  6
CONTINUOUS
 10
3.663880
 20
2.026200
  0
VERTEX
  8
0
  6
CONTINUOUS
 10
3.648920
 20
2.042040
  0
SEQEND
  8
0
  0
SOLID
  8
0
 62
    15
 10
3.663880
 20
2.026200
 11
3.667840
 21
2.775520
 12
3.674000
 22
2.010360
 13
3.677960
 23
2.759680
  0
POLYLINE
  8
0
  6
CONTINUOUS
 66
     1
 40
0.000000
 41
0.000000
  0
VERTEX
  8
0
  6
CONTINUOUS
 10
3.663880
 20
2.026200
  0
VERTEX
  8
0
  6
CONTINUOUS
 10
3.667840
 20
2.775520
  0
VERTEX
  8
0
  6
CONTINUOUS
 10
3.677960
 20
2.759680
  0
VERTEX
  8
0
  6
CONTINUOUS
 10
3.674000
 20
2.010360
  0
VERTEX
  8
0
  6
CONTINUOUS
 10
3.663880
 20
2.026200
  0
SEQEND
  8
0
  0
SOLID
  8
0
 62
    15
 10
3.674000
 20
2.010360
 11
3.677960
 21
2.759680
 12
3.679280
 22
1.994960
 13
3.683240
 23
2.744720
  0
POLYLINE
  8
0
  6
CONTINUOUS
 66
     1
 40
0.000000
 41
0.000000
  0
VERTEX
  8
0
  6
CONTINUOUS
 10
3.674000
 20
2.010360
  0
VERTEX
  8
0
  6
CONTINUOUS
 10
3.677960
 20
2.759680
  0
VERTEX
  8
0
  6
CONTINUOUS
 10
3.683240
 20
2.744720
  0
VERTEX
  8
0
  6
CONTINUOUS
 10
3.679280
 20
1.994960
  0
VERTEX
  8
0
  6
CONTINUOUS
 10
3.674000
 20
2.010360
  0
SEQEND
  8
0
  0
SOLID
  8
0
 62
    15
 10
3.679280
 20
1.994960
 11
3.683240
 21
2.744720
 12
3.682800
 22
1.998480
 13
3.686760
 23
2.748240
  0
POLYLINE
  8
0
  6
CONTINUOUS
 66
     1
 40
0.000000
 41
0.000000
  0
VERTEX
  8
0
  6
CONTINUOUS
 10
3.679280
 20
1.994960
  0
VERTEX
  8
0
  6
CONTINUOUS
 10
3.683240
 20
2.744720
  0
VERTEX
  8
0
  6
CONTINUOUS
 10
3.686760
 20
2.748240
  0
VERTEX
  8
0
  6
CONTINUOUS
 10
3.682800
 20
1.998480
  0
VERTEX
  8
0
  6
CONTINUOUS
 10
3.679280
 20
1.994960
  0
SEQEND
  8
0
  0
SOLID
  8
0
 62
    15
 10
3.682800
 20
1.998480
 11
3.686760
 21
2.748240
 12
3.692040
 22
2.008160
 13
3.696000
 23
2.757920
  0
POLYLINE
  8
0
  6
CONTINUOUS
 66
     1
 40
0.000000
 41
0.000000
  0
VERTEX
  8
0
  6
CONTINUOUS
 10
3.682800
 20
1.998480
  0
VERTEX
  8
0
  6
CONTINUOUS
 10
3.686760
 20
2.748240
  0
VERTEX
  8
0
  6
CONTINUOUS
 10
3.696000
 20
2.757920
  0
VERTEX
  8
0
  6
CONTINUOUS
 10
3.692040
 20
2.008160
  0
VERTEX
  8
0
  6
CONTINUOUS
 10
3.682800
 20
1.998480
  0
SEQEND
  8
0
  0
SOLID
  8
0
 62
    15
 10
3.692040
 20
2.008160
 11
3.696000
 21
2.757920
 12
3.703040
 22
2.020040
 13
3.707000
 23
2.769800
  0
POLYLINE
  8
0
  6
CONTINUOUS
 66
     1
 40
0.000000
 41
0.000000
  0
VERTEX
  8
0
  6
CONTINUOUS
 10
3.692040
 20
2.008160
  0
VERTEX
  8
0
  6
CONTINUOUS
 10
3.696000
 20
2.757920
  0
VERTEX
  8
0
  6
CONTINUOUS
 10
3.707000
 20
2.769800
  0
VERTEX
  8
0
  6
CONTINUOUS
 10
3.703040
 20
2.020040
  0
VERTEX
  8
0
  6
CONTINUOUS
 10
3.692040
 20
2.008160
  0
SEQEND
  8
0
  0
SOLID
  8
0
 62
    15
 10
3.703040
 20
2.020040
 11
3.707000
 21
2.769800
 12
3.721960
 22
2.038960
 13
3.725920
 23
2.788720
  0
POLYLINE
  8
0
  6
CONTINUOUS
 66
     1
 40
0.000000
 41
0.000000
  0
VERTEX
  8
0
  6
CONTINUOUS
 10
3.703040
 20
2.020040
  0
VERTEX
  8
0
  6
CONTINUOUS
 10
3.707000
 20
2.769800
  0
VERTEX
  8
0
  6
CONTINUOUS
 10
3.725920
 20
2.788720
  0
VERTEX
  8
0
  6
CONTINUOUS
 10
3.721960
 20
2.038960
  0
VERTEX
  8
0
  6
CONTINUOUS
 10
3.703040
 20
2.020040
  0
SEQEND
  8
0
  0
SOLID
  8
0
 62
    15
 10
3.721960
 20
2.038960
 11
3.725920
 21
2.788720
 12
3.738240
 22
2.051720
 13
3.742200
 23
2.801480
  0
POLYLINE
  8
0
  6
CONTINUOUS
 66
     1
 40
0.000000
 41
0.000000
  0
VERTEX
  8
0
  6
CONTINUOUS
 10
3.721960
 20
2.038960
  0
VERTEX
  8
0
  6
CONTINUOUS
 10
3.725920
 20
2.788720
  0
VERTEX
  8
0
  6
CONTINUOUS
 10
3.742200
 20
2.801480
  0
VERTEX
  8
0
  6
CONTINUOUS
 10
3.738240
 20
2.051720
  0
VERTEX
  8
0
  6
CONTINUOUS
 10
3.721960
 20
2.038960
  0
SEQEND
  8
0
  0
SOLID
  8
0
 62
    15
 10
3.738240
 20
2.051720
 11
3.742200
 21
2.801480
 12
3.753640
 22
2.057440
 13
3.757600
 23
2.807200
  0
POLYLINE
  8
0
  6
CONTINUOUS
 66
     1
 40
0.000000
 41
0.000000
  0
VERTEX
  8
0
  6
CONTINUOUS
 10
3.738240
 20
2.051720
  0
VERTEX
  8
0
  6
CONTINUOUS
 10
3.742200
 20
2.801480
  0
VERTEX
  8
0
  6
CONTINUOUS
 10
3.757600
 20
2.807200
  0
VERTEX
  8
0
  6
CONTINUOUS
 10
3.753640
 20
2.057440
  0
VERTEX
  8
0
  6
CONTINUOUS
 10
3.738240
 20
2.051720
  0
SEQEND
  8
0
  0
SOLID
  8
0
 62
    15
 10
3.753640
 20
2.057440
 11
3.757600
 21
2.807200
 12
3.769040
 22
2.056120
 13
3.773000
 23
2.805880
  0
POLYLINE
  8
0
  6
CONTINUOUS
 66
     1
 40
0.000000
 41
0.000000
  0
VERTEX
  8
0
  6
CONTINUOUS
 10
3.753640
 20
2.057440
  0
VERTEX
  8
0
  6
CONTINUOUS
 10
3.757600
 20
2.807200
  0
VERTEX
  8
0
  6
CONTINUOUS
 10
3.773000
 20
2.805880
  0
VERTEX
  8
0
  6
CONTINUOUS
 10
3.769040
 20
2.056120
  0
VERTEX
  8
0
  6
CONTINUOUS
 10
3.753640
 20
2.057440
  0
SEQEND
  8
0
  0
SOLID
  8
0
 62
    15
 10
3.769040
 20
2.056120
 11
3.773000
 21
2.805880
 12
3.786640
 22
2.047320
 13
3.791040
 23
2.796640
  0
POLYLINE
  8
0
  6
CONTINUOUS
 66
     1
 40
0.000000
 41
0.000000
  0
VERTEX
  8
0
  6
CONTINUOUS
 10
3.769040
 20
2.056120
  0
VERTEX
  8
0
  6
CONTINUOUS
 10
3.773000
 20
2.805880
  0
VERTEX
  8
0
  6
CONTINUOUS
 10
3.791040
 20
2.796640
  0
VERTEX
  8
0
  6
CONTINUOUS
 10
3.786640
 20
2.047320
  0
VERTEX
  8
0
  6
CONTINUOUS
 10
3.769040
 20
2.056120
  0
SEQEND
  8
0
  0
SOLID
  8
0
 62
    15
 10
3.786640
 20
2.047320
 11
3.791040
 21
2.796640
 12
3.808640
 22
2.030160
 13
3.812600
 23
2.779920
  0
POLYLINE
  8
0
  6
CONTINUOUS
 66
     1
 40
0.000000
 41
0.000000
  0
VERTEX
  8
0
  6
CONTINUOUS
 10
3.786640
 20
2.047320
  0
VERTEX
  8
0
  6
CONTINUOUS
 10
3.791040
 20
2.796640
  0
VERTEX
  8
0
  6
CONTINUOUS
 10
3.812600
 20
2.779920
  0
VERTEX
  8
0
  6
CONTINUOUS
 10
3.808640
 20
2.030160
  0
VERTEX
  8
0
  6
CONTINUOUS
 10
3.786640
 20
2.047320
  0
SEQEND
  8
0
  0
SOLID
  8
0
 62
    15
 10
3.808640
 20
2.030160
 11
3.812600
 21
2.779920
 12
3.835480
 22
2.004640
 13
3.839440
 23
2.754400
  0
POLYLINE
  8
0
  6
CONTINUOUS
 66
     1
 40
0.000000
 41
0.000000
  0
VERTEX
  8
0
  6
CONTINUOUS
 10
3.808640
 20
2.030160
  0
VERTEX
  8
0
  6
CONTINUOUS
 10
3.812600
 20
2.779920
  0
VERTEX
  8
0
  6
CONTINUOUS
 10
3.839440
 20
2.754400
  0
VERTEX
  8
0
  6
CONTINUOUS
 10
3.835480
 20
2.004640
  0
VERTEX
  8
0
  6
CONTINUOUS
 10
3.808640
 20
2.030160
  0
SEQEND
  8
0
  0
SOLID
  8
0
 62
    15
 10
3.835480
 20
2.004640
 11
3.839440
 21
2.754400
 12
3.868480
 22
1.982200
 13
3.872440
 23
2.731520
  0
POLYLINE
  8
0
  6
CONTINUOUS
 66
     1
 40
0.000000
 41
0.000000
  0
VERTEX
  8
0
  6
CONTINUOUS
 10
3.835480
 20
2.004640
  0
VERTEX
  8
0
  6
CONTINUOUS
 10
3.839440
 20
2.754400
  0
VERTEX
  8
0
  6
CONTINUOUS
 10
3.872440
 20
2.731520
  0
VERTEX
  8
0
  6
CONTINUOUS
 10
3.868480
 20
1.982200
  0
VERTEX
  8
0
  6
CONTINUOUS
 10
3.835480
 20
2.004640
  0
SEQEND
  8
0
  0
SOLID
  8
0
 62
    15
 10
3.868480
 20
1.982200
 11
3.872440
 21
2.731520
 12
3.905440
 22
1.972080
 13
3.909400
 23
2.721400
  0
POLYLINE
  8
0
  6
CONTINUOUS
 66
     1
 40
0.000000
 41
0.000000
  0
VERTEX
  8
0
  6
CONTINUOUS
 10
3.868480
 20
1.982200
  0
VERTEX
  8
0
  6
CONTINUOUS
 10
3.872440
 20
2.731520
  0
VERTEX
  8
0
  6
CONTINUOUS
 10
3.909400
 20
2.721400
  0
VERTEX
  8
0
  6
CONTINUOUS
 10
3.905440
 20
1.972080
  0
VERTEX
  8
0
  6
CONTINUOUS
 10
3.868480
 20
1.982200
  0
SEQEND
  8
0
  0
SOLID
  8
0
 62
    15
 10
3.905440
 20
1.972080
 11
3.909400
 21
2.721400
 12
3.944600
 22
1.972080
 13
3.948560
 23
2.721840
  0
POLYLINE
  8
0
  6
CONTINUOUS
 66
     1
 40
0.000000
 41
0.000000
  0
VERTEX
  8
0
  6
CONTINUOUS
 10
3.905440
 20
1.972080
  0
VERTEX
  8
0
  6
CONTINUOUS
 10
3.909400
 20
2.721400
  0
VERTEX
  8
0
  6
CONTINUOUS
 10
3.948560
 20
2.721840
  0
VERTEX
  8
0
  6
CONTINUOUS
 10
3.944600
 20
1.972080
  0
VERTEX
  8
0
  6
CONTINUOUS
 10
3.905440
 20
1.972080
  0
SEQEND
  8
0
  0
SOLID
  8
0
 62
    15
 10
3.944600
 20
1.972080
 11
3.948560
 21
2.721840
 12
3.984200
 22
1.980440
 13
3.988160
 23
2.729760
  0
POLYLINE
  8
0
  6
CONTINUOUS
 66
     1
 40
0.000000
 41
0.000000
  0
VERTEX
  8
0
  6
CONTINUOUS
 10
3.944600
 20
1.972080
  0
VERTEX
  8
0
  6
CONTINUOUS
 10
3.948560
 20
2.721840
  0
VERTEX
  8
0
  6
CONTINUOUS
 10
3.988160
 20
2.729760
  0
VERTEX
  8
0
  6
CONTINUOUS
 10
3.984200
 20
1.980440
  0
VERTEX
  8
0
  6
CONTINUOUS
 10
3.944600
 20
1.972080
  0
SEQEND
  8
0
  0
SOLID
  8
0
 62
    15
 10
3.984200
 20
1.980440
 11
3.988160
 21
2.729760
 12
4.021600
 22
1.994080
 13
4.025560
 23
2.743840
  0
POLYLINE
  8
0
  6
CONTINUOUS
 66
     1
 40
0.000000
 41
0.000000
  0
VERTEX
  8
0
  6
CONTINUOUS
 10
3.984200
 20
1.980440
  0
VERTEX
  8
0
  6
CONTINUOUS
 10
3.988160
 20
2.729760
  0
VERTEX
  8
0
  6
CONTINUOUS
 10
4.025560
 20
2.743840
  0
VERTEX
  8
0
  6
CONTINUOUS
 10
4.021600
 20
1.994080
  0
VERTEX
  8
0
  6
CONTINUOUS
 10
3.984200
 20
1.980440
  0
SEQEND
  8
0
  0
SOLID
  8
0
 62
    15
 10
4.021600
 20
1.994080
 11
4.025560
 21
2.743840
 12
4.055480
 22
2.011240
 13
4.059440
 23
2.761000
  0
POLYLINE
  8
0
  6
CONTINUOUS
 66
     1
 40
0.000000
 41
0.000000
  0
VERTEX
  8
0
  6
CONTINUOUS
 10
4.021600
 20
1.994080
  0
VERTEX
  8
0
  6
CONTINUOUS
 10
4.025560
 20
2.743840
  0
VERTEX
  8
0
  6
CONTINUOUS
 10
4.059440
 20
2.761000
  0
VERTEX
  8
0
  6
CONTINUOUS
 10
4.055480
 20
2.011240
  0
VERTEX
  8
0
  6
CONTINUOUS
 10
4.021600
 20
1.994080
  0
SEQEND
  8
0
  0
SOLID
  8
0
 62
    15
 10
4.055480
 20
2.011240
 11
4.059440
 21
2.761000
 12
4.083200
 22
2.029720
 13
4.087160
 23
2.779040
  0
POLYLINE
  8
0
  6
CONTINUOUS
 66
     1
 40
0.000000
 41
0.000000
  0
VERTEX
  8
0
  6
CONTINUOUS
 10
4.055480
 20
2.011240
  0
VERTEX
  8
0
  6
CONTINUOUS
 10
4.059440
 20
2.761000
  0
VERTEX
  8
0
  6
CONTINUOUS
 10
4.087160
 20
2.779040
  0
VERTEX
  8
0
  6
CONTINUOUS
 10
4.083200
 20
2.029720
  0
VERTEX
  8
0
  6
CONTINUOUS
 10
4.055480
 20
2.011240
  0
SEQEND
  8
0
  0
SOLID
  8
0
 62
    15
 10
4.083200
 20
2.029720
 11
4.087160
 21
2.779040
 12
4.103880
 22
2.046880
 13
4.107840
 23
2.796200
  0
POLYLINE
  8
0
  6
CONTINUOUS
 66
     1
 40
0.000000
 41
0.000000
  0
VERTEX
  8
0
  6
CONTINUOUS
 10
4.083200
 20
2.029720
  0
VERTEX
  8
0
  6
CONTINUOUS
 10
4.087160
 20
2.779040
  0
VERTEX
  8
0
  6
CONTINUOUS
 10
4.107840
 20
2.796200
  0
VERTEX
  8
0
  6
CONTINUOUS
 10
4.103880
 20
2.046880
  0
VERTEX
  8
0
  6
CONTINUOUS
 10
4.083200
 20
2.029720
  0
SEQEND
  8
0
  0
SOLID
  8
0
 62
    15
 10
4.103880
 20
2.046880
 11
4.107840
 21
2.796200
 12
4.191000
 22
1.946560
 13
4.194960
 23
2.696320
  0
POLYLINE
  8
0
  6
CONTINUOUS
 66
     1
 40
0.000000
 41
0.000000
  0
VERTEX
  8
0
  6
CONTINUOUS
 10
4.103880
 20
2.046880
  0
VERTEX
  8
0
  6
CONTINUOUS
 10
4.107840
 20
2.796200
  0
VERTEX
  8
0
  6
CONTINUOUS
 10
4.194960
 20
2.696320
  0
VERTEX
  8
0
  6
CONTINUOUS
 10
4.191000
 20
1.946560
  0
VERTEX
  8
0
  6
CONTINUOUS
 10
4.103880
 20
2.046880
  0
SEQEND
  8
0
  0
SOLID
  8
0
 62
    15
 10
4.191000
 20
1.946560
 11
4.194960
 21
2.696320
 12
4.217400
 22
1.974720
 13
4.221360
 23
2.724480
  0
POLYLINE
  8
0
  6
CONTINUOUS
 66
     1
 40
0.000000
 41
0.000000
  0
VERTEX
  8
0
  6
CONTINUOUS
 10
4.191000
 20
1.946560
  0
VERTEX
  8
0
  6
CONTINUOUS
 10
4.194960
 20
2.696320
  0
VERTEX
  8
0
  6
CONTINUOUS
 10
4.221360
 20
2.724480
  0
VERTEX
  8
0
  6
CONTINUOUS
 10
4.217400
 20
1.974720
  0
VERTEX
  8
0
  6
CONTINUOUS
 10
4.191000
 20
1.946560
  0
SEQEND
  8
0
  0
SOLID
  8
0
 62
    15
 10
4.217400
 20
1.974720
 11
4.221360
 21
2.724480
 12
4.245560
 22
1.999800
 13
4.249520
 23
2.749560
  0
POLYLINE
  8
0
  6
CONTINUOUS
 66
     1
 40
0.000000
 41
0.000000
  0
VERTEX
  8
0
  6
CONTINUOUS
 10
4.217400
 20
1.974720
  0
VERTEX
  8
0
  6
CONTINUOUS
 10
4.221360
 20
2.724480
  0
VERTEX
  8
0
  6
CONTINUOUS
 10
4.249520
 20
2.749560
  0
VERTEX
  8
0
  6
CONTINUOUS
 10
4.245560
 20
1.999800
  0
VERTEX
  8
0
  6
CONTINUOUS
 10
4.217400
 20
1.974720
  0
SEQEND
  8
0
  0
SOLID
  8
0
 62
    15
 10
4.245560
 20
1.999800
 11
4.249520
 21
2.749560
 12
4.305400
 22
2.040720
 13
4.309360
 23
2.790040
  0
POLYLINE
  8
0
  6
CONTINUOUS
 66
     1
 40
0.000000
 41
0.000000
  0
VERTEX
  8
0
  6
CONTINUOUS
 10
4.245560
 20
1.999800
  0
VERTEX
  8
0
  6
CONTINUOUS
 10
4.249520
 20
2.749560
  0
VERTEX
  8
0
  6
CONTINUOUS
 10
4.309360
 20
2.790040
  0
VERTEX
  8
0
  6
CONTINUOUS
 10
4.305400
 20
2.040720
  0
VERTEX
  8
0
  6
CONTINUOUS
 10
4.245560
 20
1.999800
  0
SEQEND
  8
0
  0
SOLID
  8
0
 62
    15
 10
4.305400
 20
2.040720
 11
4.309360
 21
2.790040
 12
4.367880
 22
2.070640
 13
4.371840
 23
2.820400
  0
POLYLINE
  8
0
  6
CONTINUOUS
 66
     1
 40
0.000000
 41
0.000000
  0
VERTEX
  8
0
  6
CONTINUOUS
 10
4.305400
 20
2.040720
  0
VERTEX
  8
0
  6
CONTINUOUS
 10
4.309360
 20
2.790040
  0
VERTEX
  8
0
  6
CONTINUOUS
 10
4.371840
 20
2.820400
  0
VERTEX
  8
0
  6
CONTINUOUS
 10
4.367880
 20
2.070640
  0
VERTEX
  8
0
  6
CONTINUOUS
 10
4.305400
 20
2.040720
  0
SEQEND
  8
0
  0
SOLID
  8
0
 62
    15
 10
4.367880
 20
2.070640
 11
4.371840
 21
2.820400
 12
4.429480
 22
2.091320
 13
4.433440
 23
2.841080
  0
POLYLINE
  8
0
  6
CONTINUOUS
 66
     1
 40
0.000000
 41
0.000000
  0
VERTEX
  8
0
  6
CONTINUOUS
 10
4.367880
 20
2.070640
  0
VERTEX
  8
0
  6
CONTINUOUS
 10
4.371840
 20
2.820400
  0
VERTEX
  8
0
  6
CONTINUOUS
 10
4.433440
 20
2.841080
  0
VERTEX
  8
0
  6
CONTINUOUS
 10
4.429480
 20
2.091320
  0
VERTEX
  8
0
  6
CONTINUOUS
 10
4.367880
 20
2.070640
  0
SEQEND
  8
0
  0
SOLID
  8
0
 62
    15
 10
4.429480
 20
2.091320
 11
4.433440
 21
2.841080
 12
4.487560
 22
2.104960
 13
4.491520
 23
2.854280
  0
POLYLINE
  8
0
  6
CONTINUOUS
 66
     1
 40
0.000000
 41
0.000000
  0
VERTEX
  8
0
  6
CONTINUOUS
 10
4.429480
 20
2.091320
  0
VERTEX
  8
0
  6
CONTINUOUS
 10
4.433440
 20
2.841080
  0
VERTEX
  8
0
  6
CONTINUOUS
 10
4.491520
 20
2.854280
  0
VERTEX
  8
0
  6
CONTINUOUS
 10
4.487560
 20
2.104960
  0
VERTEX
  8
0
  6
CONTINUOUS
 10
4.429480
 20
2.091320
  0
SEQEND
  8
0
  0
SOLID
  8
0
 62
    15
 10
4.487560
 20
2.104960
 11
4.491520
 21
2.854280
 12
4.538600
 22
2.112440
 13
4.542560
 23
2.861760
  0
POLYLINE
  8
0
  6
CONTINUOUS
 66
     1
 40
0.000000
 41
0.000000
  0
VERTEX
  8
0
  6
CONTINUOUS
 10
4.487560
 20
2.104960
  0
VERTEX
  8
0
  6
CONTINUOUS
 10
4.491520
 20
2.854280
  0
VERTEX
  8
0
  6
CONTINUOUS
 10
4.542560
 20
2.861760
  0
VERTEX
  8
0
  6
CONTINUOUS
 10
4.538600
 20
2.112440
  0
VERTEX
  8
0
  6
CONTINUOUS
 10
4.487560
 20
2.104960
  0
SEQEND
  8
0
  0
SOLID
  8
0
 62
    15
 10
4.538600
 20
2.112440
 11
4.542560
 21
2.861760
 12
4.580400
 22
2.115520
 13
4.584360
 23
2.865280
  0
POLYLINE
  8
0
  6
CONTINUOUS
 66
     1
 40
0.000000
 41
0.000000
  0
VERTEX
  8
0
  6
CONTINUOUS
 10
4.538600
 20
2.112440
  0
VERTEX
  8
0
  6
CONTINUOUS
 10
4.542560
 20
2.861760
  0
VERTEX
  8
0
  6
CONTINUOUS
 10
4.584360
 20
2.865280
  0
VERTEX
  8
0
  6
CONTINUOUS
 10
4.580400
 20
2.115520
  0
VERTEX
  8
0
  6
CONTINUOUS
 10
4.538600
 20
2.112440
  0
SEQEND
  8
0
  0
SOLID
  8
0
 62
    15
 10
4.603720
 20
2.116400
 11
4.607680
 21
2.866160
 12
4.607680
 22
2.116400
 13
4.611640
 23
2.865720
  0
POLYLINE
  8
0
  6
CONTINUOUS
 66
     1
 40
0.000000
 41
0.000000
  0
VERTEX
  8
0
  6
CONTINUOUS
 10
4.603720
 20
2.116400
  0
VERTEX
  8
0
  6
CONTINUOUS
 10
4.607680
 20
2.866160
  0
VERTEX
  8
0
  6
CONTINUOUS
 10
4.611640
 20
2.865720
  0
VERTEX
  8
0
  6
CONTINUOUS
 10
4.607680
 20
2.116400
  0
VERTEX
  8
0
  6
CONTINUOUS
 10
4.603720
 20
2.116400
  0
SEQEND
  8
0
  0
POLYLINE
  8
0
  6
CONTINUOUS
 66
     1
 40
0.000000
 41
0.000000
  0
VERTEX
  8
0
  6
CONTINUOUS
 10
4.603720
 20
2.116400
  0
VERTEX
  8
0
  6
CONTINUOUS
 10
4.632320
 20
2.115520
  0
VERTEX
  8
0
  6
CONTINUOUS
 10
4.673680
 20
2.112440
  0
VERTEX
  8
0
  6
CONTINUOUS
 10
4.725160
 20
2.104960
  0
VERTEX
  8
0
  6
CONTINUOUS
 10
4.783240
 20
2.091320
  0
VERTEX
  8
0
  6
CONTINUOUS
 10
4.844840
 20
2.070640
  0
VERTEX
  8
0
  6
CONTINUOUS
 10
4.907320
 20
2.040720
  0
VERTEX
  8
0
  6
CONTINUOUS
 10
4.967160
 20
1.999800
  0
VERTEX
  8
0
  6
CONTINUOUS
 10
4.995320
 20
1.975160
  0
VERTEX
  8
0
  6
CONTINUOUS
 10
5.021720
 20
1.946560
  0
VERTEX
  8
0
  6
CONTINUOUS
 10
5.108840
 20
2.046880
  0
VERTEX
  8
0
  6
CONTINUOUS
 10
5.129080
 20
2.029720
  0
VERTEX
  8
0
  6
CONTINUOUS
 10
5.157240
 20
2.011240
  0
VERTEX
  8
0
  6
CONTINUOUS
 10
5.190680
 20
1.994080
  0
VERTEX
  8
0
  6
CONTINUOUS
 10
5.228520
 20
1.980440
  0
VERTEX
  8
0
  6
CONTINUOUS
 10
5.267680
 20
1.972520
  0
VERTEX
  8
0
  6
CONTINUOUS
 10
5.306840
 20
1.972080
  0
VERTEX
  8
0
  6
CONTINUOUS
 10
5.344240
 20
1.982200
  0
VERTEX
  8
0
  6
CONTINUOUS
 10
5.377240
 20
2.005080
  0
VERTEX
  8
0
  6
CONTINUOUS
 10
5.404080
 20
2.030160
  0
VERTEX
  8
0
  6
CONTINUOUS
 10
5.425640
 20
2.047320
  0
VERTEX
  8
0
  6
CONTINUOUS
 10
5.443240
 20
2.056120
  0
VERTEX
  8
0
  6
CONTINUOUS
 10
5.459080
 20
2.057440
  0
VERTEX
  8
0
  6
CONTINUOUS
 10
5.474040
 20
2.051720
  0
VERTEX
  8
0
  6
CONTINUOUS
 10
5.490320
 20
2.039400
  0
VERTEX
  8
0
  6
CONTINUOUS
 10
5.533000
 20
1.995400
  0
VERTEX
  8
0
  6
CONTINUOUS
 10
5.538720
 20
2.010360
  0
VERTEX
  8
0
  6
CONTINUOUS
 10
5.548400
 20
2.026200
  0
VERTEX
  8
0
  6
CONTINUOUS
 10
5.563800
 20
2.042040
  0
VERTEX
  8
0
  6
CONTINUOUS
 10
5.584480
 20
2.057000
  0
VERTEX
  8
0
  6
CONTINUOUS
 10
5.610880
 20
2.069760
  0
VERTEX
  8
0
  6
CONTINUOUS
 10
5.643880
 20
2.079440
  0
VERTEX
  8
0
  6
CONTINUOUS
 10
5.684360
 20
2.086040
  0
VERTEX
  8
0
  6
CONTINUOUS
 10
5.731880
 20
2.087360
  0
VERTEX
  8
0
  6
CONTINUOUS
 10
5.781600
 20
2.081200
  0
VERTEX
  8
0
  6
CONTINUOUS
 10
5.828240
 20
2.067120
  0
VERTEX
  8
0
  6
CONTINUOUS
 10
6.008200
 20
1.983960
  0
VERTEX
  8
0
  6
CONTINUOUS
 10
6.057920
 20
1.970320
  0
VERTEX
  8
0
  6
CONTINUOUS
 10
6.111600
 20
1.964600
  0
VERTEX
  8
0
  6
CONTINUOUS
 10
6.138880
 20
1.966360
  0
VERTEX
  8
0
  6
CONTINUOUS
 10
6.164840
 20
1.971200
  0
VERTEX
  8
0
  6
CONTINUOUS
 10
6.212360
 20
1.990560
  0
VERTEX
  8
0
  6
CONTINUOUS
 10
6.253720
 20
2.018720
  0
VERTEX
  8
0
  6
CONTINUOUS
 10
6.288040
 20
2.052160
  0
VERTEX
  8
0
  6
CONTINUOUS
 10
6.315760
 20
2.086920
  0
VERTEX
  8
0
  6
CONTINUOUS
 10
6.336000
 20
2.119920
  0
VERTEX
  8
0
  6
CONTINUOUS
 10
6.348320
 20
2.147200
  0
VERTEX
  8
0
  6
CONTINUOUS
 10
6.352280
 20
2.164800
  0
VERTEX
  8
0
  6
CONTINUOUS
 10
7.099400
 20
2.164800
  0
VERTEX
  8
0
  6
CONTINUOUS
 10
7.099400
 20
1.345080
  0
VERTEX
  8
0
  6
CONTINUOUS
 10
2.114200
 20
1.345080
  0
VERTEX
  8
0
  6
CONTINUOUS
 10
2.114200
 20
2.164800
  0
VERTEX
  8
0
  6
CONTINUOUS
 10
2.860000
 20
2.164800
  0
VERTEX
  8
0
  6
CONTINUOUS
 10
2.864400
 20
2.147200
  0
VERTEX
  8
0
  6
CONTINUOUS
 10
2.876720
 20
2.119920
  0
VERTEX
  8
0
  6
CONTINUOUS
 10
2.896520
 20
2.086920
  0
VERTEX
  8
0
  6
CONTINUOUS
 10
2.924240
 20
2.052160
  0
VERTEX
  8
0
  6
CONTINUOUS
 10
2.959000
 20
2.018720
  0
VERTEX
  8
0
  6
CONTINUOUS
 10
2.999920
 20
1.990560
  0
VERTEX
  8
0
  6
CONTINUOUS
 10
3.047440
 20
1.971200
  0
VERTEX
  8
0
  6
CONTINUOUS
 10
3.073400
 20
1.965920
  0
VERTEX
  8
0
  6
CONTINUOUS
 10
3.100680
 20
1.964600
  0
VERTEX
  8
0
  6
CONTINUOUS
 10
3.154360
 20
1.970320
  0
VERTEX
  8
0
  6
CONTINUOUS
 10
3.204080
 20
1.983960
  0
VERTEX
  8
0
  6
CONTINUOUS
 10
3.384480
 20
2.067120
  0
VERTEX
  8
0
  6
CONTINUOUS
 10
3.431120
 20
2.081200
  0
VERTEX
  8
0
  6
CONTINUOUS
 10
3.480840
 20
2.087360
  0
VERTEX
  8
0
  6
CONTINUOUS
 10
3.528360
 20
2.085600
  0
VERTEX
  8
0
  6
CONTINUOUS
 10
3.568400
 20
2.079440
  0
VERTEX
  8
0
  6
CONTINUOUS
 10
3.601400
 20
2.069760
  0
VERTEX
  8
0
  6
CONTINUOUS
 10
3.628240
 20
2.056560
  0
VERTEX
  8
0
  6
CONTINUOUS
 10
3.648920
 20
2.042040
  0
VERTEX
  8
0
  6
CONTINUOUS
 10
3.663880
 20
2.026200
  0
VERTEX
  8
0
  6
CONTINUOUS
 10
3.674000
 20
2.010360
  0
VERTEX
  8
0
  6
CONTINUOUS
 10
3.679280
 20
1.994960
  0
VERTEX
  8
0
  6
CONTINUOUS
 10
3.721960
 20
2.038960
  0
VERTEX
  8
0
  6
CONTINUOUS
 10
3.738240
 20
2.051720
  0
VERTEX
  8
0
  6
CONTINUOUS
 10
3.753640
 20
2.057440
  0
VERTEX
  8
0
  6
CONTINUOUS
 10
3.769040
 20
2.056120
  0
VERTEX
  8
0
  6
CONTINUOUS
 10
3.786640
 20
2.047320
  0
VERTEX
  8
0
  6
CONTINUOUS
 10
3.808640
 20
2.030160
  0
VERTEX
  8
0
  6
CONTINUOUS
 10
3.835480
 20
2.004640
  0
VERTEX
  8
0
  6
CONTINUOUS
 10
3.868480
 20
1.982200
  0
VERTEX
  8
0
  6
CONTINUOUS
 10
3.905440
 20
1.972080
  0
VERTEX
  8
0
  6
CONTINUOUS
 10
3.944600
 20
1.972080
  0
VERTEX
  8
0
  6
CONTINUOUS
 10
3.984200
 20
1.980440
  0
VERTEX
  8
0
  6
CONTINUOUS
 10
4.021600
 20
1.994080
  0
VERTEX
  8
0
  6
CONTINUOUS
 10
4.055480
 20
2.011240
  0
VERTEX
  8
0
  6
CONTINUOUS
 10
4.083200
 20
2.029720
  0
VERTEX
  8
0
  6
CONTINUOUS
 10
4.103880
 20
2.046880
  0
VERTEX
  8
0
  6
CONTINUOUS
 10
4.191000
 20
1.946560
  0
VERTEX
  8
0
  6
CONTINUOUS
 10
4.217400
 20
1.974720
  0
VERTEX
  8
0
  6
CONTINUOUS
 10
4.245560
 20
1.999800
  0
VERTEX
  8
0
  6
CONTINUOUS
 10
4.305400
 20
2.040720
  0
VERTEX
  8
0
  6
CONTINUOUS
 10
4.367880
 20
2.070640
  0
VERTEX
  8
0
  6
CONTINUOUS
 10
4.429480
 20
2.091320
  0
VERTEX
  8
0
  6
CONTINUOUS
 10
4.487560
 20
2.104960
  0
VERTEX
  8
0
  6
CONTINUOUS
 10
4.538600
 20
2.112440
  0
VERTEX
  8
0
  6
CONTINUOUS
 10
4.580400
 20
2.115520
  0
VERTEX
  8
0
  6
CONTINUOUS
 10
4.609000
 20
2.116400
  0
VERTEX
  8
0
  6
CONTINUOUS
 10
4.603720
 20
2.116400
  0
SEQEND
  8
0
  0
TEXT
  8
0
 10
4.267120
 20
1.101320
 40
0.138102
  1
BA  1034
 41
1.000000
  7
SN0
 71
     0
 72
     5
 11
4.949689
 21
1.101320
  0
TEXT
  8
0
 10
4.208160
 20
0.909920
 40
0.138102
  1
13/16" x 5"
 41
1.000000
  7
SN0
 71
     0
 72
     5
 11
5.008042
 21
0.909920
  0
POLYLINE
  8
0
  6
CONTINUOUS
 66
     1
 40
0.014080
 41
0.014080
  0
VERTEX
  8
0
  6
CONTINUOUS
 10
4.587440
 20
3.961320
  0
VERTEX
  8
0
  6
CONTINUOUS
 10
4.635400
 20
3.959560
  0
VERTEX
  8
0
  6
CONTINUOUS
 10
4.682040
 20
3.954280
  0
VERTEX
  8
0
  6
CONTINUOUS
 10
4.737040
 20
3.944160
  0
VERTEX
  8
0
  6
CONTINUOUS
 10
4.797320
 20
3.927000
  0
VERTEX
  8
0
  6
CONTINUOUS
 10
4.828560
 20
3.915560
  0
VERTEX
  8
0
  6
CONTINUOUS
 10
4.875640
 20
3.894000
  0
VERTEX
  8
0
  6
CONTINUOUS
 10
4.921400
 20
3.866720
  0
VERTEX
  8
0
  6
CONTINUOUS
 10
4.965400
 20
3.832840
  0
VERTEX
  8
0
  6
CONTINUOUS
 10
5.005440
 20
3.791480
  0
VERTEX
  8
0
  6
CONTINUOUS
 10
5.092560
 20
3.891800
  0
VERTEX
  8
0
  6
CONTINUOUS
 10
5.126000
 20
3.865400
  0
VERTEX
  8
0
  6
CONTINUOUS
 10
5.157240
 20
3.847360
  0
VERTEX
  8
0
  6
CONTINUOUS
 10
5.193320
 20
3.831520
  0
VERTEX
  8
0
  6
CONTINUOUS
 10
5.212240
 20
3.824920
  0
VERTEX
  8
0
  6
CONTINUOUS
 10
5.231600
 20
3.820080
  0
VERTEX
  8
0
  6
CONTINUOUS
 10
5.251400
 20
3.817000
  0
VERTEX
  8
0
  6
CONTINUOUS
 10
5.271200
 20
3.815680
  0
VERTEX
  8
0
  6
CONTINUOUS
 10
5.300240
 20
3.818320
  0
VERTEX
  8
0
  6
CONTINUOUS
 10
5.319160
 20
3.823160
  0
VERTEX
  8
0
  6
CONTINUOUS
 10
5.345120
 20
3.836360
  0
VERTEX
  8
0
  6
CONTINUOUS
 10
5.399240
 20
3.884320
  0
VERTEX
  8
0
  6
CONTINUOUS
 10
5.418600
 20
3.897520
  0
VERTEX
  8
0
  6
CONTINUOUS
 10
5.426960
 20
3.901040
  0
VERTEX
  8
0
  6
CONTINUOUS
 10
5.442800
 20
3.902360
  0
VERTEX
  8
0
  6
CONTINUOUS
 10
5.457760
 20
3.896640
  0
VERTEX
  8
0
  6
CONTINUOUS
 10
5.483280
 20
3.875080
  0
VERTEX
  8
0
  6
CONTINUOUS
 10
5.516720
 20
3.839880
  0
VERTEX
  8
0
  6
CONTINUOUS
 10
5.522440
 20
3.854840
  0
VERTEX
  8
0
  6
CONTINUOUS
 10
5.539160
 20
3.879040
  0
VERTEX
  8
0
  6
CONTINUOUS
 10
5.557200
 20
3.894440
  0
VERTEX
  8
0
  6
CONTINUOUS
 10
5.580520
 20
3.908080
  0
VERTEX
  8
0
  6
CONTINUOUS
 10
5.610440
 20
3.919960
  0
VERTEX
  8
0
  6
CONTINUOUS
 10
5.646960
 20
3.927880
  0
VERTEX
  8
0
  6
CONTINUOUS
 10
5.668080
 20
3.930520
  0
VERTEX
  8
0
  6
CONTINUOUS
 10
5.690960
 20
3.931840
  0
VERTEX
  8
0
  6
CONTINUOUS
 10
5.728360
 20
3.931400
  0
VERTEX
  8
0
  6
CONTINUOUS
 10
5.765320
 20
3.925680
  0
VERTEX
  8
0
  6
CONTINUOUS
 10
5.788640
 20
3.919520
  0
VERTEX
  8
0
  6
CONTINUOUS
 10
5.834400
 20
3.902360
  0
VERTEX
  8
0
  6
CONTINUOUS
 10
5.968600
 20
3.838120
  0
VERTEX
  8
0
  6
CONTINUOUS
 10
6.016560
 20
3.820960
  0
VERTEX
  8
0
  6
CONTINUOUS
 10
6.054840
 20
3.812600
  0
VERTEX
  8
0
  6
CONTINUOUS
 10
6.081240
 20
3.809520
  0
VERTEX
  8
0
  6
CONTINUOUS
 10
6.108960
 20
3.809520
  0
VERTEX
  8
0
  6
CONTINUOUS
 10
6.135800
 20
3.813040
  0
VERTEX
  8
0
  6
CONTINUOUS
 10
6.160880
 20
3.819640
  0
VERTEX
  8
0
  6
CONTINUOUS
 10
6.184640
 20
3.829320
  0
VERTEX
  8
0
  6
CONTINUOUS
 10
6.217640
 20
3.848240
  0
VERTEX
  8
0
  6
CONTINUOUS
 10
6.255480
 20
3.879920
  0
VERTEX
  8
0
  6
CONTINUOUS
 10
6.286720
 20
3.914240
  0
VERTEX
  8
0
  6
CONTINUOUS
 10
6.310480
 20
3.949000
  0
VERTEX
  8
0
  6
CONTINUOUS
 10
6.326760
 20
3.979360
  0
VERTEX
  8
0
  6
CONTINUOUS
 10
6.335120
 20
4.002240
  0
VERTEX
  8
0
  6
CONTINUOUS
 10
6.336000
 20
4.009720
  0
VERTEX
  8
0
  6
CONTINUOUS
 10
7.083120
 20
4.009720
  0
VERTEX
  8
0
  6
CONTINUOUS
 10
7.083120
 20
3.189560
  0
VERTEX
  8
0
  6
CONTINUOUS
 10
2.098360
 20
3.189560
  0
VERTEX
  8
0
  6
CONTINUOUS
 10
2.098360
 20
4.009280
  0
VERTEX
  8
0
  6
CONTINUOUS
 10
2.843720
 20
4.009280
  0
VERTEX
  8
0
  6
CONTINUOUS
 10
2.845920
 20
3.996960
  0
VERTEX
  8
0
  6
CONTINUOUS
 10
2.856480
 20
3.971880
  0
VERTEX
  8
0
  6
CONTINUOUS
 10
2.880240
 20
3.931400
  0
VERTEX
  8
0
  6
CONTINUOUS
 10
2.907960
 20
3.896640
  0
VERTEX
  8
0
  6
CONTINUOUS
 10
2.924240
 20
3.879480
  0
VERTEX
  8
0
  6
CONTINUOUS
 10
2.962520
 20
3.848240
  0
VERTEX
  8
0
  6
CONTINUOUS
 10
2.995080
 20
3.829320
  0
VERTEX
  8
0
  6
CONTINUOUS
 10
3.031600
 20
3.815680
  0
VERTEX
  8
0
  6
CONTINUOUS
 10
3.070760
 20
3.809520
  0
VERTEX
  8
0
  6
CONTINUOUS
 10
3.098920
 20
3.809520
  0
VERTEX
  8
0
  6
CONTINUOUS
 10
3.138520
 20
3.814800
  0
VERTEX
  8
0
  6
CONTINUOUS
 10
3.163600
 20
3.820960
  0
VERTEX
  8
0
  6
CONTINUOUS
 10
3.211560
 20
3.838120
  0
VERTEX
  8
0
  6
CONTINUOUS
 10
3.345760
 20
3.902360
  0
VERTEX
  8
0
  6
CONTINUOUS
 10
3.391080
 20
3.919520
  0
VERTEX
  8
0
  6
CONTINUOUS
 10
3.414840
 20
3.925680
  0
VERTEX
  8
0
  6
CONTINUOUS
 10
3.451800
 20
3.931400
  0
VERTEX
  8
0
  6
CONTINUOUS
 10
3.489200
 20
3.931840
  0
VERTEX
  8
0
  6
CONTINUOUS
 10
3.512080
 20
3.930520
  0
VERTEX
  8
0
  6
CONTINUOUS
 10
3.552120
 20
3.924360
  0
VERTEX
  8
0
  6
CONTINUOUS
 10
3.569720
 20
3.919960
  0
VERTEX
  8
0
  6
CONTINUOUS
 10
3.599640
 20
3.908080
  0
VERTEX
  8
0
  6
CONTINUOUS
 10
3.622960
 20
3.894440
  0
VERTEX
  8
0
  6
CONTINUOUS
 10
3.640560
 20
3.879040
  0
VERTEX
  8
0
  6
CONTINUOUS
 10
3.653320
 20
3.862760
  0
VERTEX
  8
0
  6
CONTINUOUS
 10
3.660800
 20
3.847360
  0
VERTEX
  8
0
  6
CONTINUOUS
 10
3.663000
 20
3.839880
  0
VERTEX
  8
0
  6
CONTINUOUS
 10
3.705680
 20
3.883880
  0
VERTEX
  8
0
  6
CONTINUOUS
 10
3.721960
 20
3.896640
  0
VERTEX
  8
0
  6
CONTINUOUS
 10
3.737360
 20
3.902360
  0
VERTEX
  8
0
  6
CONTINUOUS
 10
3.752760
 20
3.901040
  0
VERTEX
  8
0
  6
CONTINUOUS
 10
3.770360
 20
3.891800
  0
VERTEX
  8
0
  6
CONTINUOUS
 10
3.798520
 20
3.869360
  0
VERTEX
  8
0
  6
CONTINUOUS
 10
3.835040
 20
3.836360
  0
VERTEX
  8
0
  6
CONTINUOUS
 10
3.861000
 20
3.823160
  0
VERTEX
  8
0
  6
CONTINUOUS
 10
3.889160
 20
3.817000
  0
VERTEX
  8
0
  6
CONTINUOUS
 10
3.908960
 20
3.815680
  0
VERTEX
  8
0
  6
CONTINUOUS
 10
3.928760
 20
3.817000
  0
VERTEX
  8
0
  6
CONTINUOUS
 10
3.948560
 20
3.820080
  0
VERTEX
  8
0
  6
CONTINUOUS
 10
3.967920
 20
3.824920
  0
VERTEX
  8
0
  6
CONTINUOUS
 10
4.005320
 20
3.839000
  0
VERTEX
  8
0
  6
CONTINUOUS
 10
4.039200
 20
3.856160
  0
VERTEX
  8
0
  6
CONTINUOUS
 10
4.067360
 20
3.874200
  0
VERTEX
  8
0
  6
CONTINUOUS
 10
4.087600
 20
3.891360
  0
VERTEX
  8
0
  6
CONTINUOUS
 10
4.174720
 20
3.791480
  0
VERTEX
  8
0
  6
CONTINUOUS
 10
4.201120
 20
3.819640
  0
VERTEX
  8
0
  6
CONTINUOUS
 10
4.229280
 20
3.844720
  0
VERTEX
  8
0
  6
CONTINUOUS
 10
4.273720
 20
3.876400
  0
VERTEX
  8
0
  6
CONTINUOUS
 10
4.319920
 20
3.901480
  0
VERTEX
  8
0
  6
CONTINUOUS
 10
4.351160
 20
3.915120
  0
VERTEX
  8
0
  6
CONTINUOUS
 10
4.413200
 20
3.936240
  0
VERTEX
  8
0
  6
CONTINUOUS
 10
4.471280
 20
3.949440
  0
VERTEX
  8
0
  6
CONTINUOUS
 10
4.533760
 20
3.958240
  0
VERTEX
  8
0
  6
CONTINUOUS
 10
4.592720
 20
3.960880
  0
VERTEX
  8
0
  6
CONTINUOUS
 10
4.587440
 20
3.961320
  0
SEQEND
  8
0
  0
TEXT
  8
0
 10
4.249080
 20
3.522640
 40
0.138102
  1
BA  1034
 41
1.000000
  7
SN0
 71
     0
 72
     5
 11
4.931649
 21
3.522640
  0
TEXT
  8
0
 10
4.190120
 20
3.330800
 40
0.138102
  1
13/16" x 5"
 41
1.000000
  7
SN0
 71
     0
 72
     5
 11
4.990002
 21
3.330800
  0
ENDSEC
  0
EOF
