  0
SECTION
  2
HEADER
  9
$ACADVER
  1
AC1006
  9
$EXTMIN
 10
3.091000
 20
0.794640
  9
$EXTMAX
 10
6.567000
 20
3.943280
  9
$LTSCALE
 40
0.044000
  9
$PDMODE
 70
    35
  9
$PDSIZE
 40
0.035200
  0
ENDSEC
  0
SECTION
  2
TABLES
  0
TABLE
  2
LTYPE
 70
     9
  0
LTYPE
  2
CONTINUOUS
 70
    64
  3
Solid line
 72
    65
 73
     0
 40
0.000000
  0
LTYPE
  2
DASHED
 70
    64
  3
__ __ __ __ __ __ __ __ __ __ __ __ __ __ __
 72
    65
 73
     2
 40
0.000330
 49
0.000220
 49
-0.000110
  0
LTYPE
  2
HIDDEN
 70
    64
  3
 _ _ _ _ _ _ _ _ _ _ _ _ _ _ _ _ _ _ _ _ _ _
 72
    65
 73
     2
 40
0.000165
 49
0.000110
 49
-0.000055
  0
LTYPE
  2
CENTER
 70
    64
  3
____ _ ____ _ ____ _ ____ _ ____ _ ____ _ ____
 72
    65
 73
     4
 40
0.000880
 49
0.000550
 49
-0.000110
 49
0.000110
 49
-0.000110
  0
LTYPE
  2
PHANTOM
 70
    64
  3
_____ _ _ _____ _ _ _____ _ _ _____ _ _ ____
 72
    65
 73
     6
 40
0.001100
 49
0.000550
 49
-0.000110
 49
0.000110
 49
-0.000110
 49
0.000110
 49
-0.000110
  0
LTYPE
  2
DOT
 70
    64
  3
...............................................
 72
    65
 73
     2
 40
0.000110
 49
0.000000
 49
-0.000110
  0
LTYPE
  2
DASHDOT
 70
    64
  3
__ . __ . __ . __ . __ . __ . __ . __ . __ . __
 72
    65
 73
     4
 40
0.000440
 49
0.000220
 49
-0.000110
 49
0.000000
 49
-0.000110
  0
LTYPE
  2
BORDER
 70
    64
  3
__ __ . __ __ . __ __ . __ __ . __ __ . __ __
 72
    65
 73
     6
 40
0.000770
 49
0.000220
 49
-0.000110
 49
0.000220
 49
-0.000110
 49
0.000000
 49
-0.000110
  0
LTYPE
  2
DIVIDE
 70
    64
  3
__ . . __ . . __ . . __ . . __ . . __ . . __
 72
    65
 73
     6
 40
0.000550
 49
0.000220
 49
-0.000110
 49
0.000000
 49
-0.000110
 49
0.000000
 49
-0.000110
  0
LTYPE
  2
DOTDOT
 70
    64
  3
 . .  . .  . .  . .  . .  . . 
 72
    65
 73
     5
 40
0.000242
 49
-0.000110
 49
0.000000
 49
-0.000110
 49
0.000000
 49
-0.000110
  0
ENDTAB
  0
TABLE
  2
STYLE
 70
     2
  0
STYLE
 70
     0
  2
SN0
 40
0.000000
 41
0.000440
 50
0.000000
 71
     0
 42
0.000000
  3
ROMAND
  0
STYLE
 70
    68
  2
SV0
 40
0.000000
 41
0.000440
 50
0.000000
 71
     0
 42
0.000000
  3
ROMAND
  0
ENDTAB
  0
TABLE
  2
LAYER
 70
     3
  0
LAYER
  2
FOREGROUND
 70
    64
 62
     7
  6
CONTINUOUS
  0
LAYER
  2
BACKGROUND
 70
    65
 62
    -7
  6
CONTINUOUS
  0
LAYER
  2
0
 70
    64
 62
     7
  6
CONTINUOUS
  0
ENDTAB
  0
ENDSEC
  0
SECTION
  2
ENTITIES
  0
POLYLINE
  8
FOREGROUND
  6
CONTINUOUS
 66
     1
 40
0.000000
 41
0.000000
  0
VERTEX
  8
FOREGROUND
  6
CONTINUOUS
 10
0.000000
 20
4.737920
  0
VERTEX
  8
FOREGROUND
  6
CONTINUOUS
 10
8.499920
 20
4.737920
  0
VERTEX
  8
FOREGROUND
  6
CONTINUOUS
 10
8.499920
 20
-6.262080
  0
VERTEX
  8
FOREGROUND
  6
CONTINUOUS
 10
0.000000
 20
-6.262080
  0
VERTEX
  8
FOREGROUND
  6
CONTINUOUS
 10
0.000000
 20
4.737920
  0
SEQEND
  8
0
  0
POLYLINE
  8
FOREGROUND
  6
CONTINUOUS
 66
     1
 40
0.000000
 41
0.000000
  0
VERTEX
  8
FOREGROUND
  6
CONTINUOUS
 10
0.000000
 20
4.737920
  0
VERTEX
  8
FOREGROUND
  6
CONTINUOUS
 10
8.499920
 20
4.737920
  0
VERTEX
  8
FOREGROUND
  6
CONTINUOUS
 10
8.499920
 20
-6.262080
  0
VERTEX
  8
FOREGROUND
  6
CONTINUOUS
 10
0.000000
 20
-6.262080
  0
VERTEX
  8
FOREGROUND
  6
CONTINUOUS
 10
0.000000
 20
4.737920
  0
SEQEND
  8
0
  0
SOLID
  8
0
 62
    15
 10
4.833400
 20
1.763960
 11
4.836040
 21
2.511960
 12
4.833400
 22
1.666720
 13
4.836040
 23
2.414280
  0
POLYLINE
  8
0
  6
CONTINUOUS
 66
     1
 40
0.000000
 41
0.000000
  0
VERTEX
  8
0
  6
CONTINUOUS
 10
4.833400
 20
1.763960
  0
VERTEX
  8
0
  6
CONTINUOUS
 10
4.836040
 20
2.511960
  0
VERTEX
  8
0
  6
CONTINUOUS
 10
4.836040
 20
2.414280
  0
VERTEX
  8
0
  6
CONTINUOUS
 10
4.833400
 20
1.666720
  0
VERTEX
  8
0
  6
CONTINUOUS
 10
4.833400
 20
1.763960
  0
SEQEND
  8
0
  0
SOLID
  8
0
 62
    15
 10
3.109920
 20
2.102760
 11
3.113000
 21
2.850760
 12
3.757600
 22
2.102760
 13
3.760240
 23
2.850760
  0
POLYLINE
  8
0
  6
CONTINUOUS
 66
     1
 40
0.000000
 41
0.000000
  0
VERTEX
  8
0
  6
CONTINUOUS
 10
3.109920
 20
2.102760
  0
VERTEX
  8
0
  6
CONTINUOUS
 10
3.113000
 20
2.850760
  0
VERTEX
  8
0
  6
CONTINUOUS
 10
3.760240
 20
2.850760
  0
VERTEX
  8
0
  6
CONTINUOUS
 10
3.757600
 20
2.102760
  0
VERTEX
  8
0
  6
CONTINUOUS
 10
3.109920
 20
2.102760
  0
SEQEND
  8
0
  0
SOLID
  8
0
 62
    15
 10
3.757600
 20
2.102760
 11
3.760240
 21
2.850760
 12
3.777400
 22
2.062280
 13
3.780480
 23
2.810280
  0
POLYLINE
  8
0
  6
CONTINUOUS
 66
     1
 40
0.000000
 41
0.000000
  0
VERTEX
  8
0
  6
CONTINUOUS
 10
3.757600
 20
2.102760
  0
VERTEX
  8
0
  6
CONTINUOUS
 10
3.760240
 20
2.850760
  0
VERTEX
  8
0
  6
CONTINUOUS
 10
3.780480
 20
2.810280
  0
VERTEX
  8
0
  6
CONTINUOUS
 10
3.777400
 20
2.062280
  0
VERTEX
  8
0
  6
CONTINUOUS
 10
3.757600
 20
2.102760
  0
SEQEND
  8
0
  0
SOLID
  8
0
 62
    15
 10
3.777400
 20
2.062280
 11
3.780480
 21
2.810280
 12
3.796760
 22
2.027520
 13
3.799840
 23
2.775080
  0
POLYLINE
  8
0
  6
CONTINUOUS
 66
     1
 40
0.000000
 41
0.000000
  0
VERTEX
  8
0
  6
CONTINUOUS
 10
3.777400
 20
2.062280
  0
VERTEX
  8
0
  6
CONTINUOUS
 10
3.780480
 20
2.810280
  0
VERTEX
  8
0
  6
CONTINUOUS
 10
3.799840
 20
2.775080
  0
VERTEX
  8
0
  6
CONTINUOUS
 10
3.796760
 20
2.027520
  0
VERTEX
  8
0
  6
CONTINUOUS
 10
3.777400
 20
2.062280
  0
SEQEND
  8
0
  0
SOLID
  8
0
 62
    15
 10
3.796760
 20
2.027520
 11
3.799840
 21
2.775080
 12
3.816120
 22
1.997600
 13
3.819200
 23
2.745600
  0
POLYLINE
  8
0
  6
CONTINUOUS
 66
     1
 40
0.000000
 41
0.000000
  0
VERTEX
  8
0
  6
CONTINUOUS
 10
3.796760
 20
2.027520
  0
VERTEX
  8
0
  6
CONTINUOUS
 10
3.799840
 20
2.775080
  0
VERTEX
  8
0
  6
CONTINUOUS
 10
3.819200
 20
2.745600
  0
VERTEX
  8
0
  6
CONTINUOUS
 10
3.816120
 20
1.997600
  0
VERTEX
  8
0
  6
CONTINUOUS
 10
3.796760
 20
2.027520
  0
SEQEND
  8
0
  0
SOLID
  8
0
 62
    15
 10
3.816120
 20
1.997600
 11
3.819200
 21
2.745600
 12
3.835920
 22
1.972520
 13
3.838560
 23
2.720520
  0
POLYLINE
  8
0
  6
CONTINUOUS
 66
     1
 40
0.000000
 41
0.000000
  0
VERTEX
  8
0
  6
CONTINUOUS
 10
3.816120
 20
1.997600
  0
VERTEX
  8
0
  6
CONTINUOUS
 10
3.819200
 20
2.745600
  0
VERTEX
  8
0
  6
CONTINUOUS
 10
3.838560
 20
2.720520
  0
VERTEX
  8
0
  6
CONTINUOUS
 10
3.835920
 20
1.972520
  0
VERTEX
  8
0
  6
CONTINUOUS
 10
3.816120
 20
1.997600
  0
SEQEND
  8
0
  0
SOLID
  8
0
 62
    15
 10
3.835920
 20
1.972520
 11
3.838560
 21
2.720520
 12
3.855720
 22
1.952280
 13
3.858800
 23
2.699840
  0
POLYLINE
  8
0
  6
CONTINUOUS
 66
     1
 40
0.000000
 41
0.000000
  0
VERTEX
  8
0
  6
CONTINUOUS
 10
3.835920
 20
1.972520
  0
VERTEX
  8
0
  6
CONTINUOUS
 10
3.838560
 20
2.720520
  0
VERTEX
  8
0
  6
CONTINUOUS
 10
3.858800
 20
2.699840
  0
VERTEX
  8
0
  6
CONTINUOUS
 10
3.855720
 20
1.952280
  0
VERTEX
  8
0
  6
CONTINUOUS
 10
3.835920
 20
1.972520
  0
SEQEND
  8
0
  0
SOLID
  8
0
 62
    15
 10
3.855720
 20
1.952280
 11
3.858800
 21
2.699840
 12
3.877280
 22
1.935560
 13
3.879920
 23
2.683560
  0
POLYLINE
  8
0
  6
CONTINUOUS
 66
     1
 40
0.000000
 41
0.000000
  0
VERTEX
  8
0
  6
CONTINUOUS
 10
3.855720
 20
1.952280
  0
VERTEX
  8
0
  6
CONTINUOUS
 10
3.858800
 20
2.699840
  0
VERTEX
  8
0
  6
CONTINUOUS
 10
3.879920
 20
2.683560
  0
VERTEX
  8
0
  6
CONTINUOUS
 10
3.877280
 20
1.935560
  0
VERTEX
  8
0
  6
CONTINUOUS
 10
3.855720
 20
1.952280
  0
SEQEND
  8
0
  0
SOLID
  8
0
 62
    15
 10
3.877280
 20
1.935560
 11
3.879920
 21
2.683560
 12
3.924360
 22
1.913560
 13
3.927440
 23
2.661120
  0
POLYLINE
  8
0
  6
CONTINUOUS
 66
     1
 40
0.000000
 41
0.000000
  0
VERTEX
  8
0
  6
CONTINUOUS
 10
3.877280
 20
1.935560
  0
VERTEX
  8
0
  6
CONTINUOUS
 10
3.879920
 20
2.683560
  0
VERTEX
  8
0
  6
CONTINUOUS
 10
3.927440
 20
2.661120
  0
VERTEX
  8
0
  6
CONTINUOUS
 10
3.924360
 20
1.913560
  0
VERTEX
  8
0
  6
CONTINUOUS
 10
3.877280
 20
1.935560
  0
SEQEND
  8
0
  0
SOLID
  8
0
 62
    15
 10
3.924360
 20
1.913560
 11
3.927440
 21
2.661120
 12
3.981560
 22
1.903000
 13
3.984640
 23
2.650560
  0
POLYLINE
  8
0
  6
CONTINUOUS
 66
     1
 40
0.000000
 41
0.000000
  0
VERTEX
  8
0
  6
CONTINUOUS
 10
3.924360
 20
1.913560
  0
VERTEX
  8
0
  6
CONTINUOUS
 10
3.927440
 20
2.661120
  0
VERTEX
  8
0
  6
CONTINUOUS
 10
3.984640
 20
2.650560
  0
VERTEX
  8
0
  6
CONTINUOUS
 10
3.981560
 20
1.903000
  0
VERTEX
  8
0
  6
CONTINUOUS
 10
3.924360
 20
1.913560
  0
SEQEND
  8
0
  0
SOLID
  8
0
 62
    15
 10
3.981560
 20
1.903000
 11
3.984640
 21
2.650560
 12
4.014560
 22
1.901240
 13
4.017640
 23
2.648800
  0
POLYLINE
  8
0
  6
CONTINUOUS
 66
     1
 40
0.000000
 41
0.000000
  0
VERTEX
  8
0
  6
CONTINUOUS
 10
3.981560
 20
1.903000
  0
VERTEX
  8
0
  6
CONTINUOUS
 10
3.984640
 20
2.650560
  0
VERTEX
  8
0
  6
CONTINUOUS
 10
4.017640
 20
2.648800
  0
VERTEX
  8
0
  6
CONTINUOUS
 10
4.014560
 20
1.901240
  0
VERTEX
  8
0
  6
CONTINUOUS
 10
3.981560
 20
1.903000
  0
SEQEND
  8
0
  0
SOLID
  8
0
 62
    15
 10
4.014560
 20
1.901240
 11
4.017640
 21
2.648800
 12
4.051520
 22
1.900800
 13
4.054600
 23
2.648800
  0
POLYLINE
  8
0
  6
CONTINUOUS
 66
     1
 40
0.000000
 41
0.000000
  0
VERTEX
  8
0
  6
CONTINUOUS
 10
4.014560
 20
1.901240
  0
VERTEX
  8
0
  6
CONTINUOUS
 10
4.017640
 20
2.648800
  0
VERTEX
  8
0
  6
CONTINUOUS
 10
4.054600
 20
2.648800
  0
VERTEX
  8
0
  6
CONTINUOUS
 10
4.051520
 20
1.900800
  0
VERTEX
  8
0
  6
CONTINUOUS
 10
4.014560
 20
1.901240
  0
SEQEND
  8
0
  0
SOLID
  8
0
 62
    15
 10
4.051520
 20
1.900800
 11
4.054600
 21
2.648800
 12
4.092440
 22
1.902120
 13
4.095520
 23
2.650120
  0
POLYLINE
  8
0
  6
CONTINUOUS
 66
     1
 40
0.000000
 41
0.000000
  0
VERTEX
  8
0
  6
CONTINUOUS
 10
4.051520
 20
1.900800
  0
VERTEX
  8
0
  6
CONTINUOUS
 10
4.054600
 20
2.648800
  0
VERTEX
  8
0
  6
CONTINUOUS
 10
4.095520
 20
2.650120
  0
VERTEX
  8
0
  6
CONTINUOUS
 10
4.092440
 20
1.902120
  0
VERTEX
  8
0
  6
CONTINUOUS
 10
4.051520
 20
1.900800
  0
SEQEND
  8
0
  0
SOLID
  8
0
 62
    15
 10
4.092440
 20
1.902120
 11
4.095520
 21
2.650120
 12
4.137760
 22
1.904320
 13
4.140840
 23
2.652320
  0
POLYLINE
  8
0
  6
CONTINUOUS
 66
     1
 40
0.000000
 41
0.000000
  0
VERTEX
  8
0
  6
CONTINUOUS
 10
4.092440
 20
1.902120
  0
VERTEX
  8
0
  6
CONTINUOUS
 10
4.095520
 20
2.650120
  0
VERTEX
  8
0
  6
CONTINUOUS
 10
4.140840
 20
2.652320
  0
VERTEX
  8
0
  6
CONTINUOUS
 10
4.137760
 20
1.904320
  0
VERTEX
  8
0
  6
CONTINUOUS
 10
4.092440
 20
1.902120
  0
SEQEND
  8
0
  0
SOLID
  8
0
 62
    15
 10
4.137760
 20
1.904320
 11
4.140840
 21
2.652320
 12
4.243800
 22
1.910480
 13
4.246880
 23
2.658040
  0
POLYLINE
  8
0
  6
CONTINUOUS
 66
     1
 40
0.000000
 41
0.000000
  0
VERTEX
  8
0
  6
CONTINUOUS
 10
4.137760
 20
1.904320
  0
VERTEX
  8
0
  6
CONTINUOUS
 10
4.140840
 20
2.652320
  0
VERTEX
  8
0
  6
CONTINUOUS
 10
4.246880
 20
2.658040
  0
VERTEX
  8
0
  6
CONTINUOUS
 10
4.243800
 20
1.910480
  0
VERTEX
  8
0
  6
CONTINUOUS
 10
4.137760
 20
1.904320
  0
SEQEND
  8
0
  0
SOLID
  8
0
 62
    15
 10
4.243800
 20
1.910480
 11
4.246880
 21
2.658040
 12
4.299680
 22
1.912680
 13
4.302760
 23
2.660240
  0
POLYLINE
  8
0
  6
CONTINUOUS
 66
     1
 40
0.000000
 41
0.000000
  0
VERTEX
  8
0
  6
CONTINUOUS
 10
4.243800
 20
1.910480
  0
VERTEX
  8
0
  6
CONTINUOUS
 10
4.246880
 20
2.658040
  0
VERTEX
  8
0
  6
CONTINUOUS
 10
4.302760
 20
2.660240
  0
VERTEX
  8
0
  6
CONTINUOUS
 10
4.299680
 20
1.912680
  0
VERTEX
  8
0
  6
CONTINUOUS
 10
4.243800
 20
1.910480
  0
SEQEND
  8
0
  0
SOLID
  8
0
 62
    15
 10
4.299680
 20
1.912680
 11
4.302760
 21
2.660240
 12
4.349840
 22
1.913120
 13
4.352920
 23
2.660680
  0
POLYLINE
  8
0
  6
CONTINUOUS
 66
     1
 40
0.000000
 41
0.000000
  0
VERTEX
  8
0
  6
CONTINUOUS
 10
4.299680
 20
1.912680
  0
VERTEX
  8
0
  6
CONTINUOUS
 10
4.302760
 20
2.660240
  0
VERTEX
  8
0
  6
CONTINUOUS
 10
4.352920
 20
2.660680
  0
VERTEX
  8
0
  6
CONTINUOUS
 10
4.349840
 20
1.913120
  0
VERTEX
  8
0
  6
CONTINUOUS
 10
4.299680
 20
1.912680
  0
SEQEND
  8
0
  0
SOLID
  8
0
 62
    15
 10
4.349840
 20
1.913120
 11
4.352920
 21
2.660680
 12
4.395160
 22
1.911360
 13
4.398240
 23
2.659360
  0
POLYLINE
  8
0
  6
CONTINUOUS
 66
     1
 40
0.000000
 41
0.000000
  0
VERTEX
  8
0
  6
CONTINUOUS
 10
4.349840
 20
1.913120
  0
VERTEX
  8
0
  6
CONTINUOUS
 10
4.352920
 20
2.660680
  0
VERTEX
  8
0
  6
CONTINUOUS
 10
4.398240
 20
2.659360
  0
VERTEX
  8
0
  6
CONTINUOUS
 10
4.395160
 20
1.911360
  0
VERTEX
  8
0
  6
CONTINUOUS
 10
4.349840
 20
1.913120
  0
SEQEND
  8
0
  0
SOLID
  8
0
 62
    15
 10
4.395160
 20
1.911360
 11
4.398240
 21
2.659360
 12
4.435640
 22
1.908280
 13
4.438720
 23
2.656280
  0
POLYLINE
  8
0
  6
CONTINUOUS
 66
     1
 40
0.000000
 41
0.000000
  0
VERTEX
  8
0
  6
CONTINUOUS
 10
4.395160
 20
1.911360
  0
VERTEX
  8
0
  6
CONTINUOUS
 10
4.398240
 20
2.659360
  0
VERTEX
  8
0
  6
CONTINUOUS
 10
4.438720
 20
2.656280
  0
VERTEX
  8
0
  6
CONTINUOUS
 10
4.435640
 20
1.908280
  0
VERTEX
  8
0
  6
CONTINUOUS
 10
4.395160
 20
1.911360
  0
SEQEND
  8
0
  0
SOLID
  8
0
 62
    15
 10
4.435640
 20
1.908280
 11
4.438720
 21
2.656280
 12
4.471720
 22
1.903880
 13
4.474800
 23
2.651440
  0
POLYLINE
  8
0
  6
CONTINUOUS
 66
     1
 40
0.000000
 41
0.000000
  0
VERTEX
  8
0
  6
CONTINUOUS
 10
4.435640
 20
1.908280
  0
VERTEX
  8
0
  6
CONTINUOUS
 10
4.438720
 20
2.656280
  0
VERTEX
  8
0
  6
CONTINUOUS
 10
4.474800
 20
2.651440
  0
VERTEX
  8
0
  6
CONTINUOUS
 10
4.471720
 20
1.903880
  0
VERTEX
  8
0
  6
CONTINUOUS
 10
4.435640
 20
1.908280
  0
SEQEND
  8
0
  0
SOLID
  8
0
 62
    15
 10
4.471720
 20
1.903880
 11
4.474800
 21
2.651440
 12
4.503840
 22
1.897280
 13
4.506920
 23
2.645280
  0
POLYLINE
  8
0
  6
CONTINUOUS
 66
     1
 40
0.000000
 41
0.000000
  0
VERTEX
  8
0
  6
CONTINUOUS
 10
4.471720
 20
1.903880
  0
VERTEX
  8
0
  6
CONTINUOUS
 10
4.474800
 20
2.651440
  0
VERTEX
  8
0
  6
CONTINUOUS
 10
4.506920
 20
2.645280
  0
VERTEX
  8
0
  6
CONTINUOUS
 10
4.503840
 20
1.897280
  0
VERTEX
  8
0
  6
CONTINUOUS
 10
4.471720
 20
1.903880
  0
SEQEND
  8
0
  0
SOLID
  8
0
 62
    15
 10
4.503840
 20
1.897280
 11
4.506920
 21
2.645280
 12
4.557080
 22
1.880560
 13
4.560160
 23
2.628120
  0
POLYLINE
  8
0
  6
CONTINUOUS
 66
     1
 40
0.000000
 41
0.000000
  0
VERTEX
  8
0
  6
CONTINUOUS
 10
4.503840
 20
1.897280
  0
VERTEX
  8
0
  6
CONTINUOUS
 10
4.506920
 20
2.645280
  0
VERTEX
  8
0
  6
CONTINUOUS
 10
4.560160
 20
2.628120
  0
VERTEX
  8
0
  6
CONTINUOUS
 10
4.557080
 20
1.880560
  0
VERTEX
  8
0
  6
CONTINUOUS
 10
4.503840
 20
1.897280
  0
SEQEND
  8
0
  0
SOLID
  8
0
 62
    15
 10
4.557080
 20
1.880560
 11
4.560160
 21
2.628120
 12
4.598440
 22
1.858120
 13
4.601080
 23
2.606120
  0
POLYLINE
  8
0
  6
CONTINUOUS
 66
     1
 40
0.000000
 41
0.000000
  0
VERTEX
  8
0
  6
CONTINUOUS
 10
4.557080
 20
1.880560
  0
VERTEX
  8
0
  6
CONTINUOUS
 10
4.560160
 20
2.628120
  0
VERTEX
  8
0
  6
CONTINUOUS
 10
4.601080
 20
2.606120
  0
VERTEX
  8
0
  6
CONTINUOUS
 10
4.598440
 20
1.858120
  0
VERTEX
  8
0
  6
CONTINUOUS
 10
4.557080
 20
1.880560
  0
SEQEND
  8
0
  0
SOLID
  8
0
 62
    15
 10
4.598440
 20
1.858120
 11
4.601080
 21
2.606120
 12
4.630560
 22
1.830840
 13
4.633640
 23
2.578840
  0
POLYLINE
  8
0
  6
CONTINUOUS
 66
     1
 40
0.000000
 41
0.000000
  0
VERTEX
  8
0
  6
CONTINUOUS
 10
4.598440
 20
1.858120
  0
VERTEX
  8
0
  6
CONTINUOUS
 10
4.601080
 20
2.606120
  0
VERTEX
  8
0
  6
CONTINUOUS
 10
4.633640
 20
2.578840
  0
VERTEX
  8
0
  6
CONTINUOUS
 10
4.630560
 20
1.830840
  0
VERTEX
  8
0
  6
CONTINUOUS
 10
4.598440
 20
1.858120
  0
SEQEND
  8
0
  0
SOLID
  8
0
 62
    15
 10
4.630560
 20
1.830840
 11
4.633640
 21
2.578840
 12
4.656080
 22
1.799600
 13
4.659160
 23
2.547160
  0
POLYLINE
  8
0
  6
CONTINUOUS
 66
     1
 40
0.000000
 41
0.000000
  0
VERTEX
  8
0
  6
CONTINUOUS
 10
4.630560
 20
1.830840
  0
VERTEX
  8
0
  6
CONTINUOUS
 10
4.633640
 20
2.578840
  0
VERTEX
  8
0
  6
CONTINUOUS
 10
4.659160
 20
2.547160
  0
VERTEX
  8
0
  6
CONTINUOUS
 10
4.656080
 20
1.799600
  0
VERTEX
  8
0
  6
CONTINUOUS
 10
4.630560
 20
1.830840
  0
SEQEND
  8
0
  0
SOLID
  8
0
 62
    15
 10
4.656080
 20
1.799600
 11
4.659160
 21
2.547160
 12
4.678520
 22
1.763960
 13
4.681160
 23
2.511960
  0
POLYLINE
  8
0
  6
CONTINUOUS
 66
     1
 40
0.000000
 41
0.000000
  0
VERTEX
  8
0
  6
CONTINUOUS
 10
4.656080
 20
1.799600
  0
VERTEX
  8
0
  6
CONTINUOUS
 10
4.659160
 20
2.547160
  0
VERTEX
  8
0
  6
CONTINUOUS
 10
4.681160
 20
2.511960
  0
VERTEX
  8
0
  6
CONTINUOUS
 10
4.678520
 20
1.763960
  0
VERTEX
  8
0
  6
CONTINUOUS
 10
4.656080
 20
1.799600
  0
SEQEND
  8
0
  0
SOLID
  8
0
 62
    15
 10
4.678520
 20
1.763960
 11
4.681160
 21
2.511960
 12
4.833400
 22
1.763960
 13
4.836040
 23
2.511960
  0
POLYLINE
  8
0
  6
CONTINUOUS
 66
     1
 40
0.000000
 41
0.000000
  0
VERTEX
  8
0
  6
CONTINUOUS
 10
4.678520
 20
1.763960
  0
VERTEX
  8
0
  6
CONTINUOUS
 10
4.681160
 20
2.511960
  0
VERTEX
  8
0
  6
CONTINUOUS
 10
4.836040
 20
2.511960
  0
VERTEX
  8
0
  6
CONTINUOUS
 10
4.833400
 20
1.763960
  0
VERTEX
  8
0
  6
CONTINUOUS
 10
4.678520
 20
1.763960
  0
SEQEND
  8
0
  0
SOLID
  8
0
 62
    15
 10
6.563480
 20
1.463880
 11
6.566560
 21
2.211880
 12
6.563480
 22
1.249160
 13
6.566560
 23
1.996720
  0
POLYLINE
  8
0
  6
CONTINUOUS
 66
     1
 40
0.000000
 41
0.000000
  0
VERTEX
  8
0
  6
CONTINUOUS
 10
6.563480
 20
1.463880
  0
VERTEX
  8
0
  6
CONTINUOUS
 10
6.566560
 20
2.211880
  0
VERTEX
  8
0
  6
CONTINUOUS
 10
6.566560
 20
1.996720
  0
VERTEX
  8
0
  6
CONTINUOUS
 10
6.563480
 20
1.249160
  0
VERTEX
  8
0
  6
CONTINUOUS
 10
6.563480
 20
1.463880
  0
SEQEND
  8
0
  0
SOLID
  8
0
 62
    15
 10
4.833400
 20
1.666720
 11
4.836040
 21
2.414280
 12
4.916120
 22
1.666720
 13
4.919200
 23
2.414280
  0
POLYLINE
  8
0
  6
CONTINUOUS
 66
     1
 40
0.000000
 41
0.000000
  0
VERTEX
  8
0
  6
CONTINUOUS
 10
4.833400
 20
1.666720
  0
VERTEX
  8
0
  6
CONTINUOUS
 10
4.836040
 20
2.414280
  0
VERTEX
  8
0
  6
CONTINUOUS
 10
4.919200
 20
2.414280
  0
VERTEX
  8
0
  6
CONTINUOUS
 10
4.916120
 20
1.666720
  0
VERTEX
  8
0
  6
CONTINUOUS
 10
4.833400
 20
1.666720
  0
SEQEND
  8
0
  0
SOLID
  8
0
 62
    15
 10
4.916120
 20
1.666720
 11
4.919200
 21
2.414280
 12
4.918760
 22
1.693120
 13
4.921400
 23
2.440680
  0
POLYLINE
  8
0
  6
CONTINUOUS
 66
     1
 40
0.000000
 41
0.000000
  0
VERTEX
  8
0
  6
CONTINUOUS
 10
4.916120
 20
1.666720
  0
VERTEX
  8
0
  6
CONTINUOUS
 10
4.919200
 20
2.414280
  0
VERTEX
  8
0
  6
CONTINUOUS
 10
4.921400
 20
2.440680
  0
VERTEX
  8
0
  6
CONTINUOUS
 10
4.918760
 20
1.693120
  0
VERTEX
  8
0
  6
CONTINUOUS
 10
4.916120
 20
1.666720
  0
SEQEND
  8
0
  0
SOLID
  8
0
 62
    15
 10
4.918760
 20
1.693120
 11
4.921400
 21
2.440680
 12
4.925360
 22
1.716000
 13
4.928440
 23
2.463560
  0
POLYLINE
  8
0
  6
CONTINUOUS
 66
     1
 40
0.000000
 41
0.000000
  0
VERTEX
  8
0
  6
CONTINUOUS
 10
4.918760
 20
1.693120
  0
VERTEX
  8
0
  6
CONTINUOUS
 10
4.921400
 20
2.440680
  0
VERTEX
  8
0
  6
CONTINUOUS
 10
4.928440
 20
2.463560
  0
VERTEX
  8
0
  6
CONTINUOUS
 10
4.925360
 20
1.716000
  0
VERTEX
  8
0
  6
CONTINUOUS
 10
4.918760
 20
1.693120
  0
SEQEND
  8
0
  0
SOLID
  8
0
 62
    15
 10
4.925360
 20
1.716000
 11
4.928440
 21
2.463560
 12
4.935920
 22
1.735360
 13
4.939000
 23
2.482920
  0
POLYLINE
  8
0
  6
CONTINUOUS
 66
     1
 40
0.000000
 41
0.000000
  0
VERTEX
  8
0
  6
CONTINUOUS
 10
4.925360
 20
1.716000
  0
VERTEX
  8
0
  6
CONTINUOUS
 10
4.928440
 20
2.463560
  0
VERTEX
  8
0
  6
CONTINUOUS
 10
4.939000
 20
2.482920
  0
VERTEX
  8
0
  6
CONTINUOUS
 10
4.935920
 20
1.735360
  0
VERTEX
  8
0
  6
CONTINUOUS
 10
4.925360
 20
1.716000
  0
SEQEND
  8
0
  0
SOLID
  8
0
 62
    15
 10
4.935920
 20
1.735360
 11
4.939000
 21
2.482920
 12
4.949560
 22
1.751200
 13
4.952200
 23
2.498760
  0
POLYLINE
  8
0
  6
CONTINUOUS
 66
     1
 40
0.000000
 41
0.000000
  0
VERTEX
  8
0
  6
CONTINUOUS
 10
4.935920
 20
1.735360
  0
VERTEX
  8
0
  6
CONTINUOUS
 10
4.939000
 20
2.482920
  0
VERTEX
  8
0
  6
CONTINUOUS
 10
4.952200
 20
2.498760
  0
VERTEX
  8
0
  6
CONTINUOUS
 10
4.949560
 20
1.751200
  0
VERTEX
  8
0
  6
CONTINUOUS
 10
4.935920
 20
1.735360
  0
SEQEND
  8
0
  0
SOLID
  8
0
 62
    15
 10
4.949560
 20
1.751200
 11
4.952200
 21
2.498760
 12
4.965400
 22
1.763520
 13
4.968480
 23
2.511080
  0
POLYLINE
  8
0
  6
CONTINUOUS
 66
     1
 40
0.000000
 41
0.000000
  0
VERTEX
  8
0
  6
CONTINUOUS
 10
4.949560
 20
1.751200
  0
VERTEX
  8
0
  6
CONTINUOUS
 10
4.952200
 20
2.498760
  0
VERTEX
  8
0
  6
CONTINUOUS
 10
4.968480
 20
2.511080
  0
VERTEX
  8
0
  6
CONTINUOUS
 10
4.965400
 20
1.763520
  0
VERTEX
  8
0
  6
CONTINUOUS
 10
4.949560
 20
1.751200
  0
SEQEND
  8
0
  0
SOLID
  8
0
 62
    15
 10
4.965400
 20
1.763520
 11
4.968480
 21
2.511080
 12
4.983440
 22
1.772320
 13
4.986520
 23
2.519880
  0
POLYLINE
  8
0
  6
CONTINUOUS
 66
     1
 40
0.000000
 41
0.000000
  0
VERTEX
  8
0
  6
CONTINUOUS
 10
4.965400
 20
1.763520
  0
VERTEX
  8
0
  6
CONTINUOUS
 10
4.968480
 20
2.511080
  0
VERTEX
  8
0
  6
CONTINUOUS
 10
4.986520
 20
2.519880
  0
VERTEX
  8
0
  6
CONTINUOUS
 10
4.983440
 20
1.772320
  0
VERTEX
  8
0
  6
CONTINUOUS
 10
4.965400
 20
1.763520
  0
SEQEND
  8
0
  0
SOLID
  8
0
 62
    15
 10
4.983440
 20
1.772320
 11
4.986520
 21
2.519880
 12
5.022160
 22
1.779360
 13
5.025240
 23
2.526920
  0
POLYLINE
  8
0
  6
CONTINUOUS
 66
     1
 40
0.000000
 41
0.000000
  0
VERTEX
  8
0
  6
CONTINUOUS
 10
4.983440
 20
1.772320
  0
VERTEX
  8
0
  6
CONTINUOUS
 10
4.986520
 20
2.519880
  0
VERTEX
  8
0
  6
CONTINUOUS
 10
5.025240
 20
2.526920
  0
VERTEX
  8
0
  6
CONTINUOUS
 10
5.022160
 20
1.779360
  0
VERTEX
  8
0
  6
CONTINUOUS
 10
4.983440
 20
1.772320
  0
SEQEND
  8
0
  0
SOLID
  8
0
 62
    15
 10
5.022160
 20
1.779360
 11
5.025240
 21
2.526920
 12
5.061320
 22
1.772320
 13
5.064400
 23
2.519880
  0
POLYLINE
  8
0
  6
CONTINUOUS
 66
     1
 40
0.000000
 41
0.000000
  0
VERTEX
  8
0
  6
CONTINUOUS
 10
5.022160
 20
1.779360
  0
VERTEX
  8
0
  6
CONTINUOUS
 10
5.025240
 20
2.526920
  0
VERTEX
  8
0
  6
CONTINUOUS
 10
5.064400
 20
2.519880
  0
VERTEX
  8
0
  6
CONTINUOUS
 10
5.061320
 20
1.772320
  0
VERTEX
  8
0
  6
CONTINUOUS
 10
5.022160
 20
1.779360
  0
SEQEND
  8
0
  0
SOLID
  8
0
 62
    15
 10
5.061320
 20
1.772320
 11
5.064400
 21
2.519880
 12
5.079360
 22
1.763520
 13
5.082000
 23
2.511080
  0
POLYLINE
  8
0
  6
CONTINUOUS
 66
     1
 40
0.000000
 41
0.000000
  0
VERTEX
  8
0
  6
CONTINUOUS
 10
5.061320
 20
1.772320
  0
VERTEX
  8
0
  6
CONTINUOUS
 10
5.064400
 20
2.519880
  0
VERTEX
  8
0
  6
CONTINUOUS
 10
5.082000
 20
2.511080
  0
VERTEX
  8
0
  6
CONTINUOUS
 10
5.079360
 20
1.763520
  0
VERTEX
  8
0
  6
CONTINUOUS
 10
5.061320
 20
1.772320
  0
SEQEND
  8
0
  0
SOLID
  8
0
 62
    15
 10
5.079360
 20
1.763520
 11
5.082000
 21
2.511080
 12
5.095200
 22
1.750760
 13
5.098280
 23
2.498760
  0
POLYLINE
  8
0
  6
CONTINUOUS
 66
     1
 40
0.000000
 41
0.000000
  0
VERTEX
  8
0
  6
CONTINUOUS
 10
5.079360
 20
1.763520
  0
VERTEX
  8
0
  6
CONTINUOUS
 10
5.082000
 20
2.511080
  0
VERTEX
  8
0
  6
CONTINUOUS
 10
5.098280
 20
2.498760
  0
VERTEX
  8
0
  6
CONTINUOUS
 10
5.095200
 20
1.750760
  0
VERTEX
  8
0
  6
CONTINUOUS
 10
5.079360
 20
1.763520
  0
SEQEND
  8
0
  0
SOLID
  8
0
 62
    15
 10
5.095200
 20
1.750760
 11
5.098280
 21
2.498760
 12
5.108840
 22
1.734920
 13
5.111920
 23
2.482920
  0
POLYLINE
  8
0
  6
CONTINUOUS
 66
     1
 40
0.000000
 41
0.000000
  0
VERTEX
  8
0
  6
CONTINUOUS
 10
5.095200
 20
1.750760
  0
VERTEX
  8
0
  6
CONTINUOUS
 10
5.098280
 20
2.498760
  0
VERTEX
  8
0
  6
CONTINUOUS
 10
5.111920
 20
2.482920
  0
VERTEX
  8
0
  6
CONTINUOUS
 10
5.108840
 20
1.734920
  0
VERTEX
  8
0
  6
CONTINUOUS
 10
5.095200
 20
1.750760
  0
SEQEND
  8
0
  0
SOLID
  8
0
 62
    15
 10
5.108840
 20
1.734920
 11
5.111920
 21
2.482920
 12
5.119400
 22
1.715560
 13
5.122480
 23
2.463560
  0
POLYLINE
  8
0
  6
CONTINUOUS
 66
     1
 40
0.000000
 41
0.000000
  0
VERTEX
  8
0
  6
CONTINUOUS
 10
5.108840
 20
1.734920
  0
VERTEX
  8
0
  6
CONTINUOUS
 10
5.111920
 20
2.482920
  0
VERTEX
  8
0
  6
CONTINUOUS
 10
5.122480
 20
2.463560
  0
VERTEX
  8
0
  6
CONTINUOUS
 10
5.119400
 20
1.715560
  0
VERTEX
  8
0
  6
CONTINUOUS
 10
5.108840
 20
1.734920
  0
SEQEND
  8
0
  0
SOLID
  8
0
 62
    15
 10
5.119400
 20
1.715560
 11
5.122480
 21
2.463560
 12
5.126000
 22
1.692680
 13
5.129080
 23
2.440240
  0
POLYLINE
  8
0
  6
CONTINUOUS
 66
     1
 40
0.000000
 41
0.000000
  0
VERTEX
  8
0
  6
CONTINUOUS
 10
5.119400
 20
1.715560
  0
VERTEX
  8
0
  6
CONTINUOUS
 10
5.122480
 20
2.463560
  0
VERTEX
  8
0
  6
CONTINUOUS
 10
5.129080
 20
2.440240
  0
VERTEX
  8
0
  6
CONTINUOUS
 10
5.126000
 20
1.692680
  0
VERTEX
  8
0
  6
CONTINUOUS
 10
5.119400
 20
1.715560
  0
SEQEND
  8
0
  0
SOLID
  8
0
 62
    15
 10
5.126000
 20
1.692680
 11
5.129080
 21
2.440240
 12
5.128640
 22
1.666280
 13
5.131720
 23
2.413840
  0
POLYLINE
  8
0
  6
CONTINUOUS
 66
     1
 40
0.000000
 41
0.000000
  0
VERTEX
  8
0
  6
CONTINUOUS
 10
5.126000
 20
1.692680
  0
VERTEX
  8
0
  6
CONTINUOUS
 10
5.129080
 20
2.440240
  0
VERTEX
  8
0
  6
CONTINUOUS
 10
5.131720
 20
2.413840
  0
VERTEX
  8
0
  6
CONTINUOUS
 10
5.128640
 20
1.666280
  0
VERTEX
  8
0
  6
CONTINUOUS
 10
5.126000
 20
1.692680
  0
SEQEND
  8
0
  0
SOLID
  8
0
 62
    15
 10
6.335560
 20
1.666280
 11
6.338640
 21
2.413840
 12
6.337320
 22
1.635480
 13
6.340400
 23
2.383040
  0
POLYLINE
  8
0
  6
CONTINUOUS
 66
     1
 40
0.000000
 41
0.000000
  0
VERTEX
  8
0
  6
CONTINUOUS
 10
6.335560
 20
1.666280
  0
VERTEX
  8
0
  6
CONTINUOUS
 10
6.338640
 20
2.413840
  0
VERTEX
  8
0
  6
CONTINUOUS
 10
6.340400
 20
2.383040
  0
VERTEX
  8
0
  6
CONTINUOUS
 10
6.337320
 20
1.635480
  0
VERTEX
  8
0
  6
CONTINUOUS
 10
6.335560
 20
1.666280
  0
SEQEND
  8
0
  0
SOLID
  8
0
 62
    15
 10
5.128640
 20
1.666280
 11
5.131720
 21
2.413840
 12
6.335560
 22
1.666280
 13
6.338640
 23
2.413840
  0
POLYLINE
  8
0
  6
CONTINUOUS
 66
     1
 40
0.000000
 41
0.000000
  0
VERTEX
  8
0
  6
CONTINUOUS
 10
5.128640
 20
1.666280
  0
VERTEX
  8
0
  6
CONTINUOUS
 10
5.131720
 20
2.413840
  0
VERTEX
  8
0
  6
CONTINUOUS
 10
6.338640
 20
2.413840
  0
VERTEX
  8
0
  6
CONTINUOUS
 10
6.335560
 20
1.666280
  0
VERTEX
  8
0
  6
CONTINUOUS
 10
5.128640
 20
1.666280
  0
SEQEND
  8
0
  0
SOLID
  8
0
 62
    15
 10
6.342600
 20
1.607760
 11
6.345680
 21
2.355320
 12
6.361960
 22
1.561560
 13
6.365040
 23
2.309120
  0
POLYLINE
  8
0
  6
CONTINUOUS
 66
     1
 40
0.000000
 41
0.000000
  0
VERTEX
  8
0
  6
CONTINUOUS
 10
6.342600
 20
1.607760
  0
VERTEX
  8
0
  6
CONTINUOUS
 10
6.345680
 20
2.355320
  0
VERTEX
  8
0
  6
CONTINUOUS
 10
6.365040
 20
2.309120
  0
VERTEX
  8
0
  6
CONTINUOUS
 10
6.361960
 20
1.561560
  0
VERTEX
  8
0
  6
CONTINUOUS
 10
6.342600
 20
1.607760
  0
SEQEND
  8
0
  0
SOLID
  8
0
 62
    15
 10
6.337320
 20
1.635480
 11
6.340400
 21
2.383040
 12
6.342600
 22
1.607760
 13
6.345680
 23
2.355320
  0
POLYLINE
  8
0
  6
CONTINUOUS
 66
     1
 40
0.000000
 41
0.000000
  0
VERTEX
  8
0
  6
CONTINUOUS
 10
6.337320
 20
1.635480
  0
VERTEX
  8
0
  6
CONTINUOUS
 10
6.340400
 20
2.383040
  0
VERTEX
  8
0
  6
CONTINUOUS
 10
6.345680
 20
2.355320
  0
VERTEX
  8
0
  6
CONTINUOUS
 10
6.342600
 20
1.607760
  0
VERTEX
  8
0
  6
CONTINUOUS
 10
6.337320
 20
1.635480
  0
SEQEND
  8
0
  0
SOLID
  8
0
 62
    15
 10
6.361960
 20
1.561560
 11
6.365040
 21
2.309120
 12
6.390560
 22
1.526360
 13
6.393640
 23
2.273920
  0
POLYLINE
  8
0
  6
CONTINUOUS
 66
     1
 40
0.000000
 41
0.000000
  0
VERTEX
  8
0
  6
CONTINUOUS
 10
6.361960
 20
1.561560
  0
VERTEX
  8
0
  6
CONTINUOUS
 10
6.365040
 20
2.309120
  0
VERTEX
  8
0
  6
CONTINUOUS
 10
6.393640
 20
2.273920
  0
VERTEX
  8
0
  6
CONTINUOUS
 10
6.390560
 20
1.526360
  0
VERTEX
  8
0
  6
CONTINUOUS
 10
6.361960
 20
1.561560
  0
SEQEND
  8
0
  0
SOLID
  8
0
 62
    15
 10
6.390560
 20
1.526360
 11
6.393640
 21
2.273920
 12
6.425320
 22
1.500400
 13
6.428400
 23
2.247960
  0
POLYLINE
  8
0
  6
CONTINUOUS
 66
     1
 40
0.000000
 41
0.000000
  0
VERTEX
  8
0
  6
CONTINUOUS
 10
6.390560
 20
1.526360
  0
VERTEX
  8
0
  6
CONTINUOUS
 10
6.393640
 20
2.273920
  0
VERTEX
  8
0
  6
CONTINUOUS
 10
6.428400
 20
2.247960
  0
VERTEX
  8
0
  6
CONTINUOUS
 10
6.425320
 20
1.500400
  0
VERTEX
  8
0
  6
CONTINUOUS
 10
6.390560
 20
1.526360
  0
SEQEND
  8
0
  0
SOLID
  8
0
 62
    15
 10
6.425320
 20
1.500400
 11
6.428400
 21
2.247960
 12
6.463160
 22
1.482360
 13
6.465800
 23
2.230360
  0
POLYLINE
  8
0
  6
CONTINUOUS
 66
     1
 40
0.000000
 41
0.000000
  0
VERTEX
  8
0
  6
CONTINUOUS
 10
6.425320
 20
1.500400
  0
VERTEX
  8
0
  6
CONTINUOUS
 10
6.428400
 20
2.247960
  0
VERTEX
  8
0
  6
CONTINUOUS
 10
6.465800
 20
2.230360
  0
VERTEX
  8
0
  6
CONTINUOUS
 10
6.463160
 20
1.482360
  0
VERTEX
  8
0
  6
CONTINUOUS
 10
6.425320
 20
1.500400
  0
SEQEND
  8
0
  0
SOLID
  8
0
 62
    15
 10
6.463160
 20
1.482360
 11
6.465800
 21
2.230360
 12
6.500560
 22
1.471360
 13
6.503640
 23
2.219360
  0
POLYLINE
  8
0
  6
CONTINUOUS
 66
     1
 40
0.000000
 41
0.000000
  0
VERTEX
  8
0
  6
CONTINUOUS
 10
6.463160
 20
1.482360
  0
VERTEX
  8
0
  6
CONTINUOUS
 10
6.465800
 20
2.230360
  0
VERTEX
  8
0
  6
CONTINUOUS
 10
6.503640
 20
2.219360
  0
VERTEX
  8
0
  6
CONTINUOUS
 10
6.500560
 20
1.471360
  0
VERTEX
  8
0
  6
CONTINUOUS
 10
6.463160
 20
1.482360
  0
SEQEND
  8
0
  0
SOLID
  8
0
 62
    15
 10
6.500560
 20
1.471360
 11
6.503640
 21
2.219360
 12
6.534880
 22
1.465640
 13
6.537960
 23
2.213640
  0
POLYLINE
  8
0
  6
CONTINUOUS
 66
     1
 40
0.000000
 41
0.000000
  0
VERTEX
  8
0
  6
CONTINUOUS
 10
6.500560
 20
1.471360
  0
VERTEX
  8
0
  6
CONTINUOUS
 10
6.503640
 20
2.219360
  0
VERTEX
  8
0
  6
CONTINUOUS
 10
6.537960
 20
2.213640
  0
VERTEX
  8
0
  6
CONTINUOUS
 10
6.534880
 20
1.465640
  0
VERTEX
  8
0
  6
CONTINUOUS
 10
6.500560
 20
1.471360
  0
SEQEND
  8
0
  0
SOLID
  8
0
 62
    15
 10
6.534880
 20
1.465640
 11
6.537960
 21
2.213640
 12
6.563040
 22
1.464320
 13
6.566120
 23
2.211880
  0
POLYLINE
  8
0
  6
CONTINUOUS
 66
     1
 40
0.000000
 41
0.000000
  0
VERTEX
  8
0
  6
CONTINUOUS
 10
6.534880
 20
1.465640
  0
VERTEX
  8
0
  6
CONTINUOUS
 10
6.537960
 20
2.213640
  0
VERTEX
  8
0
  6
CONTINUOUS
 10
6.566120
 20
2.211880
  0
VERTEX
  8
0
  6
CONTINUOUS
 10
6.563040
 20
1.464320
  0
VERTEX
  8
0
  6
CONTINUOUS
 10
6.534880
 20
1.465640
  0
SEQEND
  8
0
  0
SOLID
  8
0
 62
    15
 10
6.563040
 20
1.464320
 11
6.566120
 21
2.211880
 12
6.563480
 22
1.463880
 13
6.566560
 23
2.211880
  0
POLYLINE
  8
0
  6
CONTINUOUS
 66
     1
 40
0.000000
 41
0.000000
  0
VERTEX
  8
0
  6
CONTINUOUS
 10
6.563040
 20
1.464320
  0
VERTEX
  8
0
  6
CONTINUOUS
 10
6.566120
 20
2.211880
  0
VERTEX
  8
0
  6
CONTINUOUS
 10
6.566560
 20
2.211880
  0
VERTEX
  8
0
  6
CONTINUOUS
 10
6.563480
 20
1.463880
  0
VERTEX
  8
0
  6
CONTINUOUS
 10
6.563040
 20
1.464320
  0
SEQEND
  8
0
  0
POLYLINE
  8
0
  6
CONTINUOUS
 66
     1
 40
0.000000
 41
0.000000
  0
VERTEX
  8
0
  6
CONTINUOUS
 10
6.563480
 20
1.463880
  0
VERTEX
  8
0
  6
CONTINUOUS
 10
6.563480
 20
1.249160
  0
VERTEX
  8
0
  6
CONTINUOUS
 10
3.109920
 20
1.249160
  0
VERTEX
  8
0
  6
CONTINUOUS
 10
3.109920
 20
2.102760
  0
VERTEX
  8
0
  6
CONTINUOUS
 10
3.757600
 20
2.102760
  0
VERTEX
  8
0
  6
CONTINUOUS
 10
3.777400
 20
2.062280
  0
VERTEX
  8
0
  6
CONTINUOUS
 10
3.796760
 20
2.027520
  0
VERTEX
  8
0
  6
CONTINUOUS
 10
3.816120
 20
1.997600
  0
VERTEX
  8
0
  6
CONTINUOUS
 10
3.835920
 20
1.972520
  0
VERTEX
  8
0
  6
CONTINUOUS
 10
3.855720
 20
1.952280
  0
VERTEX
  8
0
  6
CONTINUOUS
 10
3.877280
 20
1.935560
  0
VERTEX
  8
0
  6
CONTINUOUS
 10
3.924360
 20
1.913560
  0
VERTEX
  8
0
  6
CONTINUOUS
 10
3.981560
 20
1.903000
  0
VERTEX
  8
0
  6
CONTINUOUS
 10
4.014560
 20
1.901240
  0
VERTEX
  8
0
  6
CONTINUOUS
 10
4.051520
 20
1.900800
  0
VERTEX
  8
0
  6
CONTINUOUS
 10
4.299680
 20
1.912680
  0
VERTEX
  8
0
  6
CONTINUOUS
 10
4.349840
 20
1.913120
  0
VERTEX
  8
0
  6
CONTINUOUS
 10
4.395160
 20
1.911360
  0
VERTEX
  8
0
  6
CONTINUOUS
 10
4.435640
 20
1.908280
  0
VERTEX
  8
0
  6
CONTINUOUS
 10
4.471720
 20
1.903880
  0
VERTEX
  8
0
  6
CONTINUOUS
 10
4.503840
 20
1.897280
  0
VERTEX
  8
0
  6
CONTINUOUS
 10
4.557080
 20
1.880560
  0
VERTEX
  8
0
  6
CONTINUOUS
 10
4.598440
 20
1.858120
  0
VERTEX
  8
0
  6
CONTINUOUS
 10
4.630560
 20
1.830840
  0
VERTEX
  8
0
  6
CONTINUOUS
 10
4.656080
 20
1.799600
  0
VERTEX
  8
0
  6
CONTINUOUS
 10
4.678520
 20
1.763960
  0
VERTEX
  8
0
  6
CONTINUOUS
 10
4.833400
 20
1.763960
  0
VERTEX
  8
0
  6
CONTINUOUS
 10
4.833400
 20
1.666720
  0
VERTEX
  8
0
  6
CONTINUOUS
 10
4.916120
 20
1.666720
  0
VERTEX
  8
0
  6
CONTINUOUS
 10
4.918760
 20
1.693120
  0
VERTEX
  8
0
  6
CONTINUOUS
 10
4.925360
 20
1.716000
  0
VERTEX
  8
0
  6
CONTINUOUS
 10
4.935920
 20
1.735360
  0
VERTEX
  8
0
  6
CONTINUOUS
 10
4.949560
 20
1.751200
  0
VERTEX
  8
0
  6
CONTINUOUS
 10
4.965400
 20
1.763520
  0
VERTEX
  8
0
  6
CONTINUOUS
 10
4.983440
 20
1.772320
  0
VERTEX
  8
0
  6
CONTINUOUS
 10
5.022160
 20
1.779360
  0
VERTEX
  8
0
  6
CONTINUOUS
 10
5.061320
 20
1.772320
  0
VERTEX
  8
0
  6
CONTINUOUS
 10
5.079360
 20
1.763520
  0
VERTEX
  8
0
  6
CONTINUOUS
 10
5.095200
 20
1.750760
  0
VERTEX
  8
0
  6
CONTINUOUS
 10
5.108840
 20
1.734920
  0
VERTEX
  8
0
  6
CONTINUOUS
 10
5.119400
 20
1.715560
  0
VERTEX
  8
0
  6
CONTINUOUS
 10
5.126000
 20
1.692680
  0
VERTEX
  8
0
  6
CONTINUOUS
 10
5.128640
 20
1.666280
  0
VERTEX
  8
0
  6
CONTINUOUS
 10
6.335560
 20
1.666280
  0
VERTEX
  8
0
  6
CONTINUOUS
 10
6.337320
 20
1.635480
  0
VERTEX
  8
0
  6
CONTINUOUS
 10
6.342600
 20
1.607760
  0
VERTEX
  8
0
  6
CONTINUOUS
 10
6.361960
 20
1.561560
  0
VERTEX
  8
0
  6
CONTINUOUS
 10
6.390560
 20
1.526360
  0
VERTEX
  8
0
  6
CONTINUOUS
 10
6.425320
 20
1.500400
  0
VERTEX
  8
0
  6
CONTINUOUS
 10
6.463160
 20
1.482360
  0
VERTEX
  8
0
  6
CONTINUOUS
 10
6.500560
 20
1.471360
  0
VERTEX
  8
0
  6
CONTINUOUS
 10
6.534880
 20
1.465640
  0
VERTEX
  8
0
  6
CONTINUOUS
 10
6.563480
 20
1.463880
  0
SEQEND
  8
0
  0
TEXT
  8
0
 10
4.496360
 20
1.030480
 40
0.138133
  1
BA  1033
 41
1.000000
  7
SN0
 71
     0
 72
     5
 11
5.179046
 21
1.030480
  0
TEXT
  8
0
 10
4.386800
 20
0.839080
 40
0.138133
  1
7/8" x 3-1/2"
 41
1.000000
  7
SN0
 71
     0
 72
     5
 11
5.287605
 21
0.839080
  0
POLYLINE
  8
0
  6
CONTINUOUS
 66
     1
 40
0.014080
 41
0.014080
  0
VERTEX
  8
0
  6
CONTINUOUS
 10
6.551600
 20
3.296920
  0
VERTEX
  8
0
  6
CONTINUOUS
 10
6.523440
 20
3.298680
  0
VERTEX
  8
0
  6
CONTINUOUS
 10
6.489120
 20
3.303960
  0
VERTEX
  8
0
  6
CONTINUOUS
 10
6.451720
 20
3.314960
  0
VERTEX
  8
0
  6
CONTINUOUS
 10
6.432800
 20
3.322880
  0
VERTEX
  8
0
  6
CONTINUOUS
 10
6.413880
 20
3.333000
  0
VERTEX
  8
0
  6
CONTINUOUS
 10
6.387480
 20
3.351480
  0
VERTEX
  8
0
  6
CONTINUOUS
 10
6.364160
 20
3.375240
  0
VERTEX
  8
0
  6
CONTINUOUS
 10
6.350520
 20
3.394160
  0
VERTEX
  8
0
  6
CONTINUOUS
 10
6.339520
 20
3.415720
  0
VERTEX
  8
0
  6
CONTINUOUS
 10
6.331160
 20
3.440360
  0
VERTEX
  8
0
  6
CONTINUOUS
 10
6.325880
 20
3.468080
  0
VERTEX
  8
0
  6
CONTINUOUS
 10
6.324120
 20
3.498880
  0
VERTEX
  8
0
  6
CONTINUOUS
 10
5.117200
 20
3.498880
  0
VERTEX
  8
0
  6
CONTINUOUS
 10
5.116760
 20
3.512520
  0
VERTEX
  8
0
  6
CONTINUOUS
 10
5.111920
 20
3.537160
  0
VERTEX
  8
0
  6
CONTINUOUS
 10
5.103120
 20
3.558280
  0
VERTEX
  8
0
  6
CONTINUOUS
 10
5.090800
 20
3.575880
  0
VERTEX
  8
0
  6
CONTINUOUS
 10
5.075840
 20
3.589960
  0
VERTEX
  8
0
  6
CONTINUOUS
 10
5.059120
 20
3.600520
  0
VERTEX
  8
0
  6
CONTINUOUS
 10
5.040200
 20
3.608000
  0
VERTEX
  8
0
  6
CONTINUOUS
 10
5.020840
 20
3.611520
  0
VERTEX
  8
0
  6
CONTINUOUS
 10
5.001040
 20
3.611520
  0
VERTEX
  8
0
  6
CONTINUOUS
 10
4.981240
 20
3.608000
  0
VERTEX
  8
0
  6
CONTINUOUS
 10
4.962760
 20
3.600960
  0
VERTEX
  8
0
  6
CONTINUOUS
 10
4.945600
 20
3.590400
  0
VERTEX
  8
0
  6
CONTINUOUS
 10
4.930640
 20
3.576320
  0
VERTEX
  8
0
  6
CONTINUOUS
 10
4.918760
 20
3.558720
  0
VERTEX
  8
0
  6
CONTINUOUS
 10
4.909960
 20
3.537600
  0
VERTEX
  8
0
  6
CONTINUOUS
 10
4.905120
 20
3.512960
  0
VERTEX
  8
0
  6
CONTINUOUS
 10
4.904680
 20
3.499320
  0
VERTEX
  8
0
  6
CONTINUOUS
 10
4.821960
 20
3.499320
  0
VERTEX
  8
0
  6
CONTINUOUS
 10
4.821960
 20
3.596560
  0
VERTEX
  8
0
  6
CONTINUOUS
 10
4.667080
 20
3.596560
  0
VERTEX
  8
0
  6
CONTINUOUS
 10
4.644640
 20
3.631760
  0
VERTEX
  8
0
  6
CONTINUOUS
 10
4.619120
 20
3.663440
  0
VERTEX
  8
0
  6
CONTINUOUS
 10
4.603720
 20
3.677960
  0
VERTEX
  8
0
  6
CONTINUOUS
 10
4.577320
 20
3.696880
  0
VERTEX
  8
0
  6
CONTINUOUS
 10
4.557080
 20
3.708320
  0
VERTEX
  8
0
  6
CONTINUOUS
 10
4.520560
 20
3.722400
  0
VERTEX
  8
0
  6
CONTINUOUS
 10
4.477000
 20
3.733400
  0
VERTEX
  8
0
  6
CONTINUOUS
 10
4.424200
 20
3.741320
  0
VERTEX
  8
0
  6
CONTINUOUS
 10
4.361720
 20
3.745280
  0
VERTEX
  8
0
  6
CONTINUOUS
 10
4.288240
 20
3.745280
  0
VERTEX
  8
0
  6
CONTINUOUS
 10
4.059880
 20
3.733840
  0
VERTEX
  8
0
  6
CONTINUOUS
 10
4.003120
 20
3.733400
  0
VERTEX
  8
0
  6
CONTINUOUS
 10
3.954720
 20
3.737360
  0
VERTEX
  8
0
  6
CONTINUOUS
 10
3.926560
 20
3.742200
  0
VERTEX
  8
0
  6
CONTINUOUS
 10
3.900600
 20
3.750120
  0
VERTEX
  8
0
  6
CONTINUOUS
 10
3.865840
 20
3.768160
  0
VERTEX
  8
0
  6
CONTINUOUS
 10
3.844720
 20
3.784440
  0
VERTEX
  8
0
  6
CONTINUOUS
 10
3.814800
 20
3.817000
  0
VERTEX
  8
0
  6
CONTINUOUS
 10
3.785760
 20
3.859680
  0
VERTEX
  8
0
  6
CONTINUOUS
 10
3.746160
 20
3.935360
  0
VERTEX
  8
0
  6
CONTINUOUS
 10
3.098480
 20
3.935360
  0
VERTEX
  8
0
  6
CONTINUOUS
 10
3.098480
 20
3.081760
  0
VERTEX
  8
0
  6
CONTINUOUS
 10
6.552040
 20
3.081760
  0
VERTEX
  8
0
  6
CONTINUOUS
 10
6.551600
 20
3.296920
  0
SEQEND
  8
0
  0
TEXT
  8
0
 10
3.675760
 20
3.377440
 40
0.138133
  1
BA  1033
 41
1.000000
  7
SN0
 71
     0
 72
     5
 11
4.358446
 21
3.377440
  0
TEXT
  8
0
 10
3.566200
 20
3.186040
 40
0.138133
  1
7/8" x 3-1/2"
 41
1.000000
  7
SN0
 71
     0
 72
     5
 11
4.467005
 21
3.186040
  0
ENDSEC
  0
EOF
