  0
SECTION
  2
HEADER
  9
$ACADVER
  1
AC1006
  9
$EXTMIN
 10
3.560480
 20
0.510400
  9
$EXTMAX
 10
7.009640
 20
2.861320
  9
$LTSCALE
 40
0.044000
  9
$PDMODE
 70
    35
  9
$PDSIZE
 40
0.035200
  0
ENDSEC
  0
SECTION
  2
TABLES
  0
TABLE
  2
LTYPE
 70
     9
  0
LTYPE
  2
CONTINUOUS
 70
    64
  3
Solid line
 72
    65
 73
     0
 40
0.000000
  0
LTYPE
  2
DASHED
 70
    64
  3
__ __ __ __ __ __ __ __ __ __ __ __ __ __ __
 72
    65
 73
     2
 40
0.000330
 49
0.000220
 49
-0.000110
  0
LTYPE
  2
HIDDEN
 70
    64
  3
 _ _ _ _ _ _ _ _ _ _ _ _ _ _ _ _ _ _ _ _ _ _
 72
    65
 73
     2
 40
0.000165
 49
0.000110
 49
-0.000055
  0
LTYPE
  2
CENTER
 70
    64
  3
____ _ ____ _ ____ _ ____ _ ____ _ ____ _ ____
 72
    65
 73
     4
 40
0.000880
 49
0.000550
 49
-0.000110
 49
0.000110
 49
-0.000110
  0
LTYPE
  2
PHANTOM
 70
    64
  3
_____ _ _ _____ _ _ _____ _ _ _____ _ _ ____
 72
    65
 73
     6
 40
0.001100
 49
0.000550
 49
-0.000110
 49
0.000110
 49
-0.000110
 49
0.000110
 49
-0.000110
  0
LTYPE
  2
DOT
 70
    64
  3
...............................................
 72
    65
 73
     2
 40
0.000110
 49
0.000000
 49
-0.000110
  0
LTYPE
  2
DASHDOT
 70
    64
  3
__ . __ . __ . __ . __ . __ . __ . __ . __ . __
 72
    65
 73
     4
 40
0.000440
 49
0.000220
 49
-0.000110
 49
0.000000
 49
-0.000110
  0
LTYPE
  2
BORDER
 70
    64
  3
__ __ . __ __ . __ __ . __ __ . __ __ . __ __
 72
    65
 73
     6
 40
0.000770
 49
0.000220
 49
-0.000110
 49
0.000220
 49
-0.000110
 49
0.000000
 49
-0.000110
  0
LTYPE
  2
DIVIDE
 70
    64
  3
__ . . __ . . __ . . __ . . __ . . __ . . __
 72
    65
 73
     6
 40
0.000550
 49
0.000220
 49
-0.000110
 49
0.000000
 49
-0.000110
 49
0.000000
 49
-0.000110
  0
LTYPE
  2
DOTDOT
 70
    64
  3
 . .  . .  . .  . .  . .  . . 
 72
    65
 73
     5
 40
0.000242
 49
-0.000110
 49
0.000000
 49
-0.000110
 49
0.000000
 49
-0.000110
  0
ENDTAB
  0
TABLE
  2
STYLE
 70
     2
  0
STYLE
 70
     0
  2
SN0
 40
0.000000
 41
0.000440
 50
0.000000
 71
     0
 42
0.000000
  3
ROMAND
  0
STYLE
 70
    68
  2
SV0
 40
0.000000
 41
0.000440
 50
0.000000
 71
     0
 42
0.000000
  3
ROMAND
  0
ENDTAB
  0
TABLE
  2
LAYER
 70
     3
  0
LAYER
  2
FOREGROUND
 70
    64
 62
     7
  6
CONTINUOUS
  0
LAYER
  2
BACKGROUND
 70
    65
 62
    -7
  6
CONTINUOUS
  0
LAYER
  2
0
 70
    64
 62
     7
  6
CONTINUOUS
  0
ENDTAB
  0
ENDSEC
  0
SECTION
  2
ENTITIES
  0
POLYLINE
  8
FOREGROUND
  6
CONTINUOUS
 66
     1
 40
0.000000
 41
0.000000
  0
VERTEX
  8
FOREGROUND
  6
CONTINUOUS
 10
0.000000
 20
3.371720
  0
VERTEX
  8
FOREGROUND
  6
CONTINUOUS
 10
8.499920
 20
3.371720
  0
VERTEX
  8
FOREGROUND
  6
CONTINUOUS
 10
8.499920
 20
-7.628280
  0
VERTEX
  8
FOREGROUND
  6
CONTINUOUS
 10
0.000000
 20
-7.628280
  0
VERTEX
  8
FOREGROUND
  6
CONTINUOUS
 10
0.000000
 20
3.371720
  0
SEQEND
  8
0
  0
POLYLINE
  8
FOREGROUND
  6
CONTINUOUS
 66
     1
 40
0.000000
 41
0.000000
  0
VERTEX
  8
FOREGROUND
  6
CONTINUOUS
 10
0.000000
 20
3.371720
  0
VERTEX
  8
FOREGROUND
  6
CONTINUOUS
 10
8.499920
 20
3.371720
  0
VERTEX
  8
FOREGROUND
  6
CONTINUOUS
 10
8.499920
 20
-7.628280
  0
VERTEX
  8
FOREGROUND
  6
CONTINUOUS
 10
0.000000
 20
-7.628280
  0
VERTEX
  8
FOREGROUND
  6
CONTINUOUS
 10
0.000000
 20
3.371720
  0
SEQEND
  8
0
  0
SOLID
  8
0
 62
     7
 10
3.867600
 20
1.900360
 11
4.512200
 21
2.274800
 12
3.867600
 22
1.866920
 13
4.512200
 23
2.241360
  0
POLYLINE
  8
0
  6
CONTINUOUS
 66
     1
 40
0.000000
 41
0.000000
  0
VERTEX
  8
0
  6
CONTINUOUS
 10
3.867600
 20
1.900360
  0
VERTEX
  8
0
  6
CONTINUOUS
 10
4.512200
 20
2.274800
  0
VERTEX
  8
0
  6
CONTINUOUS
 10
4.512200
 20
2.241360
  0
VERTEX
  8
0
  6
CONTINUOUS
 10
3.867600
 20
1.866920
  0
VERTEX
  8
0
  6
CONTINUOUS
 10
3.867600
 20
1.900360
  0
SEQEND
  8
0
  0
SOLID
  8
0
 62
     7
 10
3.650680
 20
2.486000
 11
4.295720
 21
2.860440
 12
3.664320
 22
2.422640
 13
4.309360
 23
2.797080
  0
POLYLINE
  8
0
  6
CONTINUOUS
 66
     1
 40
0.000000
 41
0.000000
  0
VERTEX
  8
0
  6
CONTINUOUS
 10
3.650680
 20
2.486000
  0
VERTEX
  8
0
  6
CONTINUOUS
 10
4.295720
 20
2.860440
  0
VERTEX
  8
0
  6
CONTINUOUS
 10
4.309360
 20
2.797080
  0
VERTEX
  8
0
  6
CONTINUOUS
 10
3.664320
 20
2.422640
  0
VERTEX
  8
0
  6
CONTINUOUS
 10
3.650680
 20
2.486000
  0
SEQEND
  8
0
  0
SOLID
  8
0
 62
     7
 10
3.664320
 20
2.422640
 11
4.309360
 21
2.797080
 12
3.682800
 22
2.368080
 13
4.327840
 23
2.742520
  0
POLYLINE
  8
0
  6
CONTINUOUS
 66
     1
 40
0.000000
 41
0.000000
  0
VERTEX
  8
0
  6
CONTINUOUS
 10
3.664320
 20
2.422640
  0
VERTEX
  8
0
  6
CONTINUOUS
 10
4.309360
 20
2.797080
  0
VERTEX
  8
0
  6
CONTINUOUS
 10
4.327840
 20
2.742520
  0
VERTEX
  8
0
  6
CONTINUOUS
 10
3.682800
 20
2.368080
  0
VERTEX
  8
0
  6
CONTINUOUS
 10
3.664320
 20
2.422640
  0
SEQEND
  8
0
  0
SOLID
  8
0
 62
     7
 10
3.682800
 20
2.368080
 11
4.327840
 21
2.742520
 12
3.705240
 22
2.324520
 13
4.349840
 23
2.698960
  0
POLYLINE
  8
0
  6
CONTINUOUS
 66
     1
 40
0.000000
 41
0.000000
  0
VERTEX
  8
0
  6
CONTINUOUS
 10
3.682800
 20
2.368080
  0
VERTEX
  8
0
  6
CONTINUOUS
 10
4.327840
 20
2.742520
  0
VERTEX
  8
0
  6
CONTINUOUS
 10
4.349840
 20
2.698960
  0
VERTEX
  8
0
  6
CONTINUOUS
 10
3.705240
 20
2.324520
  0
VERTEX
  8
0
  6
CONTINUOUS
 10
3.682800
 20
2.368080
  0
SEQEND
  8
0
  0
SOLID
  8
0
 62
     7
 10
3.705240
 20
2.324520
 11
4.349840
 21
2.698960
 12
3.729440
 22
2.293280
 13
4.374040
 23
2.667720
  0
POLYLINE
  8
0
  6
CONTINUOUS
 66
     1
 40
0.000000
 41
0.000000
  0
VERTEX
  8
0
  6
CONTINUOUS
 10
3.705240
 20
2.324520
  0
VERTEX
  8
0
  6
CONTINUOUS
 10
4.349840
 20
2.698960
  0
VERTEX
  8
0
  6
CONTINUOUS
 10
4.374040
 20
2.667720
  0
VERTEX
  8
0
  6
CONTINUOUS
 10
3.729440
 20
2.293280
  0
VERTEX
  8
0
  6
CONTINUOUS
 10
3.705240
 20
2.324520
  0
SEQEND
  8
0
  0
SOLID
  8
0
 62
     7
 10
3.729440
 20
2.293280
 11
4.374040
 21
2.667720
 12
3.763320
 22
2.267760
 13
4.407920
 23
2.642640
  0
POLYLINE
  8
0
  6
CONTINUOUS
 66
     1
 40
0.000000
 41
0.000000
  0
VERTEX
  8
0
  6
CONTINUOUS
 10
3.729440
 20
2.293280
  0
VERTEX
  8
0
  6
CONTINUOUS
 10
4.374040
 20
2.667720
  0
VERTEX
  8
0
  6
CONTINUOUS
 10
4.407920
 20
2.642640
  0
VERTEX
  8
0
  6
CONTINUOUS
 10
3.763320
 20
2.267760
  0
VERTEX
  8
0
  6
CONTINUOUS
 10
3.729440
 20
2.293280
  0
SEQEND
  8
0
  0
SOLID
  8
0
 62
    15
 10
3.763320
 20
2.267760
 11
4.407920
 21
2.642640
 12
3.805120
 22
2.244880
 13
4.449720
 23
2.619320
  0
POLYLINE
  8
0
  6
CONTINUOUS
 66
     1
 40
0.000000
 41
0.000000
  0
VERTEX
  8
0
  6
CONTINUOUS
 10
3.763320
 20
2.267760
  0
VERTEX
  8
0
  6
CONTINUOUS
 10
4.407920
 20
2.642640
  0
VERTEX
  8
0
  6
CONTINUOUS
 10
4.449720
 20
2.619320
  0
VERTEX
  8
0
  6
CONTINUOUS
 10
3.805120
 20
2.244880
  0
VERTEX
  8
0
  6
CONTINUOUS
 10
3.763320
 20
2.267760
  0
SEQEND
  8
0
  0
SOLID
  8
0
 62
    15
 10
3.805120
 20
2.244880
 11
4.449720
 21
2.619320
 12
3.824480
 22
2.235640
 13
4.469080
 23
2.610080
  0
POLYLINE
  8
0
  6
CONTINUOUS
 66
     1
 40
0.000000
 41
0.000000
  0
VERTEX
  8
0
  6
CONTINUOUS
 10
3.805120
 20
2.244880
  0
VERTEX
  8
0
  6
CONTINUOUS
 10
4.449720
 20
2.619320
  0
VERTEX
  8
0
  6
CONTINUOUS
 10
4.469080
 20
2.610080
  0
VERTEX
  8
0
  6
CONTINUOUS
 10
3.824480
 20
2.235640
  0
VERTEX
  8
0
  6
CONTINUOUS
 10
3.805120
 20
2.244880
  0
SEQEND
  8
0
  0
SOLID
  8
0
 62
    15
 10
3.824480
 20
2.235640
 11
4.469080
 21
2.610080
 12
3.840760
 22
2.228160
 13
4.485360
 23
2.602600
  0
POLYLINE
  8
0
  6
CONTINUOUS
 66
     1
 40
0.000000
 41
0.000000
  0
VERTEX
  8
0
  6
CONTINUOUS
 10
3.824480
 20
2.235640
  0
VERTEX
  8
0
  6
CONTINUOUS
 10
4.469080
 20
2.610080
  0
VERTEX
  8
0
  6
CONTINUOUS
 10
4.485360
 20
2.602600
  0
VERTEX
  8
0
  6
CONTINUOUS
 10
3.840760
 20
2.228160
  0
VERTEX
  8
0
  6
CONTINUOUS
 10
3.824480
 20
2.235640
  0
SEQEND
  8
0
  0
SOLID
  8
0
 62
    15
 10
3.840760
 20
2.228160
 11
4.485360
 21
2.602600
 12
3.851760
 22
2.223320
 13
4.496360
 23
2.597760
  0
POLYLINE
  8
0
  6
CONTINUOUS
 66
     1
 40
0.000000
 41
0.000000
  0
VERTEX
  8
0
  6
CONTINUOUS
 10
3.840760
 20
2.228160
  0
VERTEX
  8
0
  6
CONTINUOUS
 10
4.485360
 20
2.602600
  0
VERTEX
  8
0
  6
CONTINUOUS
 10
4.496360
 20
2.597760
  0
VERTEX
  8
0
  6
CONTINUOUS
 10
3.851760
 20
2.223320
  0
VERTEX
  8
0
  6
CONTINUOUS
 10
3.840760
 20
2.228160
  0
SEQEND
  8
0
  0
SOLID
  8
0
 62
    15
 10
3.851760
 20
2.223320
 11
4.496360
 21
2.597760
 12
3.855720
 22
2.221560
 13
4.500320
 23
2.596440
  0
POLYLINE
  8
0
  6
CONTINUOUS
 66
     1
 40
0.000000
 41
0.000000
  0
VERTEX
  8
0
  6
CONTINUOUS
 10
3.851760
 20
2.223320
  0
VERTEX
  8
0
  6
CONTINUOUS
 10
4.496360
 20
2.597760
  0
VERTEX
  8
0
  6
CONTINUOUS
 10
4.500320
 20
2.596440
  0
VERTEX
  8
0
  6
CONTINUOUS
 10
3.855720
 20
2.221560
  0
VERTEX
  8
0
  6
CONTINUOUS
 10
3.851760
 20
2.223320
  0
SEQEND
  8
0
  0
SOLID
  8
0
 62
     7
 10
3.855720
 20
2.221560
 11
4.500320
 21
2.596440
 12
3.855720
 22
2.133560
 13
4.500320
 23
2.508000
  0
POLYLINE
  8
0
  6
CONTINUOUS
 66
     1
 40
0.000000
 41
0.000000
  0
VERTEX
  8
0
  6
CONTINUOUS
 10
3.855720
 20
2.221560
  0
VERTEX
  8
0
  6
CONTINUOUS
 10
4.500320
 20
2.596440
  0
VERTEX
  8
0
  6
CONTINUOUS
 10
4.500320
 20
2.508000
  0
VERTEX
  8
0
  6
CONTINUOUS
 10
3.855720
 20
2.133560
  0
VERTEX
  8
0
  6
CONTINUOUS
 10
3.855720
 20
2.221560
  0
SEQEND
  8
0
  0
SOLID
  8
0
 62
    15
 10
3.855720
 20
2.133560
 11
4.500320
 21
2.508000
 12
3.889160
 22
2.122560
 13
4.533760
 23
2.497000
  0
POLYLINE
  8
0
  6
CONTINUOUS
 66
     1
 40
0.000000
 41
0.000000
  0
VERTEX
  8
0
  6
CONTINUOUS
 10
3.855720
 20
2.133560
  0
VERTEX
  8
0
  6
CONTINUOUS
 10
4.500320
 20
2.508000
  0
VERTEX
  8
0
  6
CONTINUOUS
 10
4.533760
 20
2.497000
  0
VERTEX
  8
0
  6
CONTINUOUS
 10
3.889160
 20
2.122560
  0
VERTEX
  8
0
  6
CONTINUOUS
 10
3.855720
 20
2.133560
  0
SEQEND
  8
0
  0
SOLID
  8
0
 62
    15
 10
3.889160
 20
2.122560
 11
4.533760
 21
2.497000
 12
3.923920
 22
2.105840
 13
4.568960
 23
2.480280
  0
POLYLINE
  8
0
  6
CONTINUOUS
 66
     1
 40
0.000000
 41
0.000000
  0
VERTEX
  8
0
  6
CONTINUOUS
 10
3.889160
 20
2.122560
  0
VERTEX
  8
0
  6
CONTINUOUS
 10
4.533760
 20
2.497000
  0
VERTEX
  8
0
  6
CONTINUOUS
 10
4.568960
 20
2.480280
  0
VERTEX
  8
0
  6
CONTINUOUS
 10
3.923920
 20
2.105840
  0
VERTEX
  8
0
  6
CONTINUOUS
 10
3.889160
 20
2.122560
  0
SEQEND
  8
0
  0
SOLID
  8
0
 62
     7
 10
3.923920
 20
2.105840
 11
4.568960
 21
2.480280
 12
3.955160
 22
2.084280
 13
4.599760
 23
2.458720
  0
POLYLINE
  8
0
  6
CONTINUOUS
 66
     1
 40
0.000000
 41
0.000000
  0
VERTEX
  8
0
  6
CONTINUOUS
 10
3.923920
 20
2.105840
  0
VERTEX
  8
0
  6
CONTINUOUS
 10
4.568960
 20
2.480280
  0
VERTEX
  8
0
  6
CONTINUOUS
 10
4.599760
 20
2.458720
  0
VERTEX
  8
0
  6
CONTINUOUS
 10
3.955160
 20
2.084280
  0
VERTEX
  8
0
  6
CONTINUOUS
 10
3.923920
 20
2.105840
  0
SEQEND
  8
0
  0
SOLID
  8
0
 62
     7
 10
3.955160
 20
2.084280
 11
4.599760
 21
2.458720
 12
3.976720
 22
2.057000
 13
4.621320
 23
2.431440
  0
POLYLINE
  8
0
  6
CONTINUOUS
 66
     1
 40
0.000000
 41
0.000000
  0
VERTEX
  8
0
  6
CONTINUOUS
 10
3.955160
 20
2.084280
  0
VERTEX
  8
0
  6
CONTINUOUS
 10
4.599760
 20
2.458720
  0
VERTEX
  8
0
  6
CONTINUOUS
 10
4.621320
 20
2.431440
  0
VERTEX
  8
0
  6
CONTINUOUS
 10
3.976720
 20
2.057000
  0
VERTEX
  8
0
  6
CONTINUOUS
 10
3.955160
 20
2.084280
  0
SEQEND
  8
0
  0
SOLID
  8
0
 62
     7
 10
3.976720
 20
2.057000
 11
4.621320
 21
2.431440
 12
3.982440
 22
2.041600
 13
4.627040
 23
2.416040
  0
POLYLINE
  8
0
  6
CONTINUOUS
 66
     1
 40
0.000000
 41
0.000000
  0
VERTEX
  8
0
  6
CONTINUOUS
 10
3.976720
 20
2.057000
  0
VERTEX
  8
0
  6
CONTINUOUS
 10
4.621320
 20
2.431440
  0
VERTEX
  8
0
  6
CONTINUOUS
 10
4.627040
 20
2.416040
  0
VERTEX
  8
0
  6
CONTINUOUS
 10
3.982440
 20
2.041600
  0
VERTEX
  8
0
  6
CONTINUOUS
 10
3.976720
 20
2.057000
  0
SEQEND
  8
0
  0
SOLID
  8
0
 62
     7
 10
3.982440
 20
2.041600
 11
4.627040
 21
2.416040
 12
3.984200
 22
2.024880
 13
4.628800
 23
2.399320
  0
POLYLINE
  8
0
  6
CONTINUOUS
 66
     1
 40
0.000000
 41
0.000000
  0
VERTEX
  8
0
  6
CONTINUOUS
 10
3.982440
 20
2.041600
  0
VERTEX
  8
0
  6
CONTINUOUS
 10
4.627040
 20
2.416040
  0
VERTEX
  8
0
  6
CONTINUOUS
 10
4.628800
 20
2.399320
  0
VERTEX
  8
0
  6
CONTINUOUS
 10
3.984200
 20
2.024880
  0
VERTEX
  8
0
  6
CONTINUOUS
 10
3.982440
 20
2.041600
  0
SEQEND
  8
0
  0
SOLID
  8
0
 62
    15
 10
3.984200
 20
2.024880
 11
4.628800
 21
2.399320
 12
3.980680
 22
2.007280
 13
4.625280
 23
2.381720
  0
POLYLINE
  8
0
  6
CONTINUOUS
 66
     1
 40
0.000000
 41
0.000000
  0
VERTEX
  8
0
  6
CONTINUOUS
 10
3.984200
 20
2.024880
  0
VERTEX
  8
0
  6
CONTINUOUS
 10
4.628800
 20
2.399320
  0
VERTEX
  8
0
  6
CONTINUOUS
 10
4.625280
 20
2.381720
  0
VERTEX
  8
0
  6
CONTINUOUS
 10
3.980680
 20
2.007280
  0
VERTEX
  8
0
  6
CONTINUOUS
 10
3.984200
 20
2.024880
  0
SEQEND
  8
0
  0
SOLID
  8
0
 62
    15
 10
3.980680
 20
2.007280
 11
4.625280
 21
2.381720
 12
3.971880
 22
1.987920
 13
4.616480
 23
2.362800
  0
POLYLINE
  8
0
  6
CONTINUOUS
 66
     1
 40
0.000000
 41
0.000000
  0
VERTEX
  8
0
  6
CONTINUOUS
 10
3.980680
 20
2.007280
  0
VERTEX
  8
0
  6
CONTINUOUS
 10
4.625280
 20
2.381720
  0
VERTEX
  8
0
  6
CONTINUOUS
 10
4.616480
 20
2.362800
  0
VERTEX
  8
0
  6
CONTINUOUS
 10
3.971880
 20
1.987920
  0
VERTEX
  8
0
  6
CONTINUOUS
 10
3.980680
 20
2.007280
  0
SEQEND
  8
0
  0
SOLID
  8
0
 62
    15
 10
3.971880
 20
1.987920
 11
4.616480
 21
2.362800
 12
3.956480
 22
1.968120
 13
4.601520
 23
2.342560
  0
POLYLINE
  8
0
  6
CONTINUOUS
 66
     1
 40
0.000000
 41
0.000000
  0
VERTEX
  8
0
  6
CONTINUOUS
 10
3.971880
 20
1.987920
  0
VERTEX
  8
0
  6
CONTINUOUS
 10
4.616480
 20
2.362800
  0
VERTEX
  8
0
  6
CONTINUOUS
 10
4.601520
 20
2.342560
  0
VERTEX
  8
0
  6
CONTINUOUS
 10
3.956480
 20
1.968120
  0
VERTEX
  8
0
  6
CONTINUOUS
 10
3.971880
 20
1.987920
  0
SEQEND
  8
0
  0
SOLID
  8
0
 62
    15
 10
3.956480
 20
1.968120
 11
4.601520
 21
2.342560
 12
3.934480
 22
1.946560
 13
4.579520
 23
2.321000
  0
POLYLINE
  8
0
  6
CONTINUOUS
 66
     1
 40
0.000000
 41
0.000000
  0
VERTEX
  8
0
  6
CONTINUOUS
 10
3.956480
 20
1.968120
  0
VERTEX
  8
0
  6
CONTINUOUS
 10
4.601520
 20
2.342560
  0
VERTEX
  8
0
  6
CONTINUOUS
 10
4.579520
 20
2.321000
  0
VERTEX
  8
0
  6
CONTINUOUS
 10
3.934480
 20
1.946560
  0
VERTEX
  8
0
  6
CONTINUOUS
 10
3.956480
 20
1.968120
  0
SEQEND
  8
0
  0
SOLID
  8
0
 62
    15
 10
3.934480
 20
1.946560
 11
4.579520
 21
2.321000
 12
3.905000
 22
1.924120
 13
4.550040
 23
2.298560
  0
POLYLINE
  8
0
  6
CONTINUOUS
 66
     1
 40
0.000000
 41
0.000000
  0
VERTEX
  8
0
  6
CONTINUOUS
 10
3.934480
 20
1.946560
  0
VERTEX
  8
0
  6
CONTINUOUS
 10
4.579520
 20
2.321000
  0
VERTEX
  8
0
  6
CONTINUOUS
 10
4.550040
 20
2.298560
  0
VERTEX
  8
0
  6
CONTINUOUS
 10
3.905000
 20
1.924120
  0
VERTEX
  8
0
  6
CONTINUOUS
 10
3.934480
 20
1.946560
  0
SEQEND
  8
0
  0
SOLID
  8
0
 62
    15
 10
3.905000
 20
1.924120
 11
4.550040
 21
2.298560
 12
3.867600
 22
1.900360
 13
4.512200
 23
2.274800
  0
POLYLINE
  8
0
  6
CONTINUOUS
 66
     1
 40
0.000000
 41
0.000000
  0
VERTEX
  8
0
  6
CONTINUOUS
 10
3.905000
 20
1.924120
  0
VERTEX
  8
0
  6
CONTINUOUS
 10
4.550040
 20
2.298560
  0
VERTEX
  8
0
  6
CONTINUOUS
 10
4.512200
 20
2.274800
  0
VERTEX
  8
0
  6
CONTINUOUS
 10
3.867600
 20
1.900360
  0
VERTEX
  8
0
  6
CONTINUOUS
 10
3.905000
 20
1.924120
  0
SEQEND
  8
0
  0
SOLID
  8
0
 62
    15
 10
3.562680
 20
2.486000
 11
4.207280
 21
2.860440
 12
3.650680
 22
2.486000
 13
4.295720
 23
2.860440
  0
POLYLINE
  8
0
  6
CONTINUOUS
 66
     1
 40
0.000000
 41
0.000000
  0
VERTEX
  8
0
  6
CONTINUOUS
 10
3.562680
 20
2.486000
  0
VERTEX
  8
0
  6
CONTINUOUS
 10
4.207280
 20
2.860440
  0
VERTEX
  8
0
  6
CONTINUOUS
 10
4.295720
 20
2.860440
  0
VERTEX
  8
0
  6
CONTINUOUS
 10
3.650680
 20
2.486000
  0
VERTEX
  8
0
  6
CONTINUOUS
 10
3.562680
 20
2.486000
  0
SEQEND
  8
0
  0
SOLID
  8
0
 62
    15
 10
3.867600
 20
1.866920
 11
4.512200
 21
2.241360
 12
4.060320
 22
1.866920
 13
4.704920
 23
2.241360
  0
POLYLINE
  8
0
  6
CONTINUOUS
 66
     1
 40
0.000000
 41
0.000000
  0
VERTEX
  8
0
  6
CONTINUOUS
 10
3.867600
 20
1.866920
  0
VERTEX
  8
0
  6
CONTINUOUS
 10
4.512200
 20
2.241360
  0
VERTEX
  8
0
  6
CONTINUOUS
 10
4.704920
 20
2.241360
  0
VERTEX
  8
0
  6
CONTINUOUS
 10
4.060320
 20
1.866920
  0
VERTEX
  8
0
  6
CONTINUOUS
 10
3.867600
 20
1.866920
  0
SEQEND
  8
0
  0
SOLID
  8
0
 62
     7
 10
4.060320
 20
1.866920
 11
4.704920
 21
2.241360
 12
4.062960
 22
1.839640
 13
4.707560
 23
2.214080
  0
POLYLINE
  8
0
  6
CONTINUOUS
 66
     1
 40
0.000000
 41
0.000000
  0
VERTEX
  8
0
  6
CONTINUOUS
 10
4.060320
 20
1.866920
  0
VERTEX
  8
0
  6
CONTINUOUS
 10
4.704920
 20
2.241360
  0
VERTEX
  8
0
  6
CONTINUOUS
 10
4.707560
 20
2.214080
  0
VERTEX
  8
0
  6
CONTINUOUS
 10
4.062960
 20
1.839640
  0
VERTEX
  8
0
  6
CONTINUOUS
 10
4.060320
 20
1.866920
  0
SEQEND
  8
0
  0
SOLID
  8
0
 62
     7
 10
4.062960
 20
1.839640
 11
4.707560
 21
2.214080
 12
4.067800
 22
1.804000
 13
4.712400
 23
2.178440
  0
POLYLINE
  8
0
  6
CONTINUOUS
 66
     1
 40
0.000000
 41
0.000000
  0
VERTEX
  8
0
  6
CONTINUOUS
 10
4.062960
 20
1.839640
  0
VERTEX
  8
0
  6
CONTINUOUS
 10
4.707560
 20
2.214080
  0
VERTEX
  8
0
  6
CONTINUOUS
 10
4.712400
 20
2.178440
  0
VERTEX
  8
0
  6
CONTINUOUS
 10
4.067800
 20
1.804000
  0
VERTEX
  8
0
  6
CONTINUOUS
 10
4.062960
 20
1.839640
  0
SEQEND
  8
0
  0
SOLID
  8
0
 62
     7
 10
4.067800
 20
1.804000
 11
4.712400
 21
2.178440
 12
4.076160
 22
1.763080
 13
4.720760
 23
2.137520
  0
POLYLINE
  8
0
  6
CONTINUOUS
 66
     1
 40
0.000000
 41
0.000000
  0
VERTEX
  8
0
  6
CONTINUOUS
 10
4.067800
 20
1.804000
  0
VERTEX
  8
0
  6
CONTINUOUS
 10
4.712400
 20
2.178440
  0
VERTEX
  8
0
  6
CONTINUOUS
 10
4.720760
 20
2.137520
  0
VERTEX
  8
0
  6
CONTINUOUS
 10
4.076160
 20
1.763080
  0
VERTEX
  8
0
  6
CONTINUOUS
 10
4.067800
 20
1.804000
  0
SEQEND
  8
0
  0
SOLID
  8
0
 62
     7
 10
4.076160
 20
1.763080
 11
4.720760
 21
2.137520
 12
4.087600
 22
1.719520
 13
4.732200
 23
2.093960
  0
POLYLINE
  8
0
  6
CONTINUOUS
 66
     1
 40
0.000000
 41
0.000000
  0
VERTEX
  8
0
  6
CONTINUOUS
 10
4.076160
 20
1.763080
  0
VERTEX
  8
0
  6
CONTINUOUS
 10
4.720760
 20
2.137520
  0
VERTEX
  8
0
  6
CONTINUOUS
 10
4.732200
 20
2.093960
  0
VERTEX
  8
0
  6
CONTINUOUS
 10
4.087600
 20
1.719520
  0
VERTEX
  8
0
  6
CONTINUOUS
 10
4.076160
 20
1.763080
  0
SEQEND
  8
0
  0
SOLID
  8
0
 62
     7
 10
4.087600
 20
1.719520
 11
4.732200
 21
2.093960
 12
4.102560
 22
1.675080
 13
4.747160
 23
2.049520
  0
POLYLINE
  8
0
  6
CONTINUOUS
 66
     1
 40
0.000000
 41
0.000000
  0
VERTEX
  8
0
  6
CONTINUOUS
 10
4.087600
 20
1.719520
  0
VERTEX
  8
0
  6
CONTINUOUS
 10
4.732200
 20
2.093960
  0
VERTEX
  8
0
  6
CONTINUOUS
 10
4.747160
 20
2.049520
  0
VERTEX
  8
0
  6
CONTINUOUS
 10
4.102560
 20
1.675080
  0
VERTEX
  8
0
  6
CONTINUOUS
 10
4.087600
 20
1.719520
  0
SEQEND
  8
0
  0
SOLID
  8
0
 62
     7
 10
4.102560
 20
1.675080
 11
4.747160
 21
2.049520
 12
4.121480
 22
1.632840
 13
4.766080
 23
2.007280
  0
POLYLINE
  8
0
  6
CONTINUOUS
 66
     1
 40
0.000000
 41
0.000000
  0
VERTEX
  8
0
  6
CONTINUOUS
 10
4.102560
 20
1.675080
  0
VERTEX
  8
0
  6
CONTINUOUS
 10
4.747160
 20
2.049520
  0
VERTEX
  8
0
  6
CONTINUOUS
 10
4.766080
 20
2.007280
  0
VERTEX
  8
0
  6
CONTINUOUS
 10
4.121480
 20
1.632840
  0
VERTEX
  8
0
  6
CONTINUOUS
 10
4.102560
 20
1.675080
  0
SEQEND
  8
0
  0
SOLID
  8
0
 62
     7
 10
4.121480
 20
1.632840
 11
4.766080
 21
2.007280
 12
4.144800
 22
1.595000
 13
4.789400
 23
1.969440
  0
POLYLINE
  8
0
  6
CONTINUOUS
 66
     1
 40
0.000000
 41
0.000000
  0
VERTEX
  8
0
  6
CONTINUOUS
 10
4.121480
 20
1.632840
  0
VERTEX
  8
0
  6
CONTINUOUS
 10
4.766080
 20
2.007280
  0
VERTEX
  8
0
  6
CONTINUOUS
 10
4.789400
 20
1.969440
  0
VERTEX
  8
0
  6
CONTINUOUS
 10
4.144800
 20
1.595000
  0
VERTEX
  8
0
  6
CONTINUOUS
 10
4.121480
 20
1.632840
  0
SEQEND
  8
0
  0
SOLID
  8
0
 62
     7
 10
4.144800
 20
1.595000
 11
4.789400
 21
1.969440
 12
4.172960
 22
1.564200
 13
4.817560
 23
1.938640
  0
POLYLINE
  8
0
  6
CONTINUOUS
 66
     1
 40
0.000000
 41
0.000000
  0
VERTEX
  8
0
  6
CONTINUOUS
 10
4.144800
 20
1.595000
  0
VERTEX
  8
0
  6
CONTINUOUS
 10
4.789400
 20
1.969440
  0
VERTEX
  8
0
  6
CONTINUOUS
 10
4.817560
 20
1.938640
  0
VERTEX
  8
0
  6
CONTINUOUS
 10
4.172960
 20
1.564200
  0
VERTEX
  8
0
  6
CONTINUOUS
 10
4.144800
 20
1.595000
  0
SEQEND
  8
0
  0
SOLID
  8
0
 62
     7
 10
4.172960
 20
1.564200
 11
4.817560
 21
1.938640
 12
4.192760
 22
1.544840
 13
4.837360
 23
1.919720
  0
POLYLINE
  8
0
  6
CONTINUOUS
 66
     1
 40
0.000000
 41
0.000000
  0
VERTEX
  8
0
  6
CONTINUOUS
 10
4.172960
 20
1.564200
  0
VERTEX
  8
0
  6
CONTINUOUS
 10
4.817560
 20
1.938640
  0
VERTEX
  8
0
  6
CONTINUOUS
 10
4.837360
 20
1.919720
  0
VERTEX
  8
0
  6
CONTINUOUS
 10
4.192760
 20
1.544840
  0
VERTEX
  8
0
  6
CONTINUOUS
 10
4.172960
 20
1.564200
  0
SEQEND
  8
0
  0
SOLID
  8
0
 62
     7
 10
4.192760
 20
1.544840
 11
4.837360
 21
1.919720
 12
4.216520
 22
1.519320
 13
4.861120
 23
1.893760
  0
POLYLINE
  8
0
  6
CONTINUOUS
 66
     1
 40
0.000000
 41
0.000000
  0
VERTEX
  8
0
  6
CONTINUOUS
 10
4.192760
 20
1.544840
  0
VERTEX
  8
0
  6
CONTINUOUS
 10
4.837360
 20
1.919720
  0
VERTEX
  8
0
  6
CONTINUOUS
 10
4.861120
 20
1.893760
  0
VERTEX
  8
0
  6
CONTINUOUS
 10
4.216520
 20
1.519320
  0
VERTEX
  8
0
  6
CONTINUOUS
 10
4.192760
 20
1.544840
  0
SEQEND
  8
0
  0
SOLID
  8
0
 62
     7
 10
4.216520
 20
1.519320
 11
4.861120
 21
1.893760
 12
4.242920
 22
1.487640
 13
4.887960
 23
1.862080
  0
POLYLINE
  8
0
  6
CONTINUOUS
 66
     1
 40
0.000000
 41
0.000000
  0
VERTEX
  8
0
  6
CONTINUOUS
 10
4.216520
 20
1.519320
  0
VERTEX
  8
0
  6
CONTINUOUS
 10
4.861120
 20
1.893760
  0
VERTEX
  8
0
  6
CONTINUOUS
 10
4.887960
 20
1.862080
  0
VERTEX
  8
0
  6
CONTINUOUS
 10
4.242920
 20
1.487640
  0
VERTEX
  8
0
  6
CONTINUOUS
 10
4.216520
 20
1.519320
  0
SEQEND
  8
0
  0
SOLID
  8
0
 62
     7
 10
4.242920
 20
1.487640
 11
4.887960
 21
1.862080
 12
4.270640
 22
1.451120
 13
4.915680
 23
1.825560
  0
POLYLINE
  8
0
  6
CONTINUOUS
 66
     1
 40
0.000000
 41
0.000000
  0
VERTEX
  8
0
  6
CONTINUOUS
 10
4.242920
 20
1.487640
  0
VERTEX
  8
0
  6
CONTINUOUS
 10
4.887960
 20
1.862080
  0
VERTEX
  8
0
  6
CONTINUOUS
 10
4.915680
 20
1.825560
  0
VERTEX
  8
0
  6
CONTINUOUS
 10
4.270640
 20
1.451120
  0
VERTEX
  8
0
  6
CONTINUOUS
 10
4.242920
 20
1.487640
  0
SEQEND
  8
0
  0
SOLID
  8
0
 62
     7
 10
4.270640
 20
1.451120
 11
4.915680
 21
1.825560
 12
4.324320
 22
1.367520
 13
4.968920
 23
1.741960
  0
POLYLINE
  8
0
  6
CONTINUOUS
 66
     1
 40
0.000000
 41
0.000000
  0
VERTEX
  8
0
  6
CONTINUOUS
 10
4.270640
 20
1.451120
  0
VERTEX
  8
0
  6
CONTINUOUS
 10
4.915680
 20
1.825560
  0
VERTEX
  8
0
  6
CONTINUOUS
 10
4.968920
 20
1.741960
  0
VERTEX
  8
0
  6
CONTINUOUS
 10
4.324320
 20
1.367520
  0
VERTEX
  8
0
  6
CONTINUOUS
 10
4.270640
 20
1.451120
  0
SEQEND
  8
0
  0
SOLID
  8
0
 62
     7
 10
4.324320
 20
1.367520
 11
4.968920
 21
1.741960
 12
4.347640
 22
1.322640
 13
4.992240
 23
1.697080
  0
POLYLINE
  8
0
  6
CONTINUOUS
 66
     1
 40
0.000000
 41
0.000000
  0
VERTEX
  8
0
  6
CONTINUOUS
 10
4.324320
 20
1.367520
  0
VERTEX
  8
0
  6
CONTINUOUS
 10
4.968920
 20
1.741960
  0
VERTEX
  8
0
  6
CONTINUOUS
 10
4.992240
 20
1.697080
  0
VERTEX
  8
0
  6
CONTINUOUS
 10
4.347640
 20
1.322640
  0
VERTEX
  8
0
  6
CONTINUOUS
 10
4.324320
 20
1.367520
  0
SEQEND
  8
0
  0
SOLID
  8
0
 62
     7
 10
4.347640
 20
1.322640
 11
4.992240
 21
1.697080
 12
4.366560
 22
1.276880
 13
5.011160
 23
1.651320
  0
POLYLINE
  8
0
  6
CONTINUOUS
 66
     1
 40
0.000000
 41
0.000000
  0
VERTEX
  8
0
  6
CONTINUOUS
 10
4.347640
 20
1.322640
  0
VERTEX
  8
0
  6
CONTINUOUS
 10
4.992240
 20
1.697080
  0
VERTEX
  8
0
  6
CONTINUOUS
 10
5.011160
 20
1.651320
  0
VERTEX
  8
0
  6
CONTINUOUS
 10
4.366560
 20
1.276880
  0
VERTEX
  8
0
  6
CONTINUOUS
 10
4.347640
 20
1.322640
  0
SEQEND
  8
0
  0
SOLID
  8
0
 62
     7
 10
4.366560
 20
1.276880
 11
5.011160
 21
1.651320
 12
4.380200
 22
1.231120
 13
5.024800
 23
1.605560
  0
POLYLINE
  8
0
  6
CONTINUOUS
 66
     1
 40
0.000000
 41
0.000000
  0
VERTEX
  8
0
  6
CONTINUOUS
 10
4.366560
 20
1.276880
  0
VERTEX
  8
0
  6
CONTINUOUS
 10
5.011160
 20
1.651320
  0
VERTEX
  8
0
  6
CONTINUOUS
 10
5.024800
 20
1.605560
  0
VERTEX
  8
0
  6
CONTINUOUS
 10
4.380200
 20
1.231120
  0
VERTEX
  8
0
  6
CONTINUOUS
 10
4.366560
 20
1.276880
  0
SEQEND
  8
0
  0
SOLID
  8
0
 62
     7
 10
4.380200
 20
1.231120
 11
5.024800
 21
1.605560
 12
4.386360
 22
1.186240
 13
5.030960
 23
1.560680
  0
POLYLINE
  8
0
  6
CONTINUOUS
 66
     1
 40
0.000000
 41
0.000000
  0
VERTEX
  8
0
  6
CONTINUOUS
 10
4.380200
 20
1.231120
  0
VERTEX
  8
0
  6
CONTINUOUS
 10
5.024800
 20
1.605560
  0
VERTEX
  8
0
  6
CONTINUOUS
 10
5.030960
 20
1.560680
  0
VERTEX
  8
0
  6
CONTINUOUS
 10
4.386360
 20
1.186240
  0
VERTEX
  8
0
  6
CONTINUOUS
 10
4.380200
 20
1.231120
  0
SEQEND
  8
0
  0
SOLID
  8
0
 62
    15
 10
4.386360
 20
1.186240
 11
5.030960
 21
1.560680
 12
4.384600
 22
1.143560
 13
5.029200
 23
1.518440
  0
POLYLINE
  8
0
  6
CONTINUOUS
 66
     1
 40
0.000000
 41
0.000000
  0
VERTEX
  8
0
  6
CONTINUOUS
 10
4.386360
 20
1.186240
  0
VERTEX
  8
0
  6
CONTINUOUS
 10
5.030960
 20
1.560680
  0
VERTEX
  8
0
  6
CONTINUOUS
 10
5.029200
 20
1.518440
  0
VERTEX
  8
0
  6
CONTINUOUS
 10
4.384600
 20
1.143560
  0
VERTEX
  8
0
  6
CONTINUOUS
 10
4.386360
 20
1.186240
  0
SEQEND
  8
0
  0
SOLID
  8
0
 62
    15
 10
4.384600
 20
1.143560
 11
5.029200
 21
1.518440
 12
4.372720
 22
1.104400
 13
5.017320
 23
1.478840
  0
POLYLINE
  8
0
  6
CONTINUOUS
 66
     1
 40
0.000000
 41
0.000000
  0
VERTEX
  8
0
  6
CONTINUOUS
 10
4.384600
 20
1.143560
  0
VERTEX
  8
0
  6
CONTINUOUS
 10
5.029200
 20
1.518440
  0
VERTEX
  8
0
  6
CONTINUOUS
 10
5.017320
 20
1.478840
  0
VERTEX
  8
0
  6
CONTINUOUS
 10
4.372720
 20
1.104400
  0
VERTEX
  8
0
  6
CONTINUOUS
 10
4.384600
 20
1.143560
  0
SEQEND
  8
0
  0
SOLID
  8
0
 62
    15
 10
4.201560
 20
0.997480
 11
4.846160
 21
1.371920
 12
4.201560
 22
0.953480
 13
4.846160
 23
1.327920
  0
POLYLINE
  8
0
  6
CONTINUOUS
 66
     1
 40
0.000000
 41
0.000000
  0
VERTEX
  8
0
  6
CONTINUOUS
 10
4.201560
 20
0.997480
  0
VERTEX
  8
0
  6
CONTINUOUS
 10
4.846160
 20
1.371920
  0
VERTEX
  8
0
  6
CONTINUOUS
 10
4.846160
 20
1.327920
  0
VERTEX
  8
0
  6
CONTINUOUS
 10
4.201560
 20
0.953480
  0
VERTEX
  8
0
  6
CONTINUOUS
 10
4.201560
 20
0.997480
  0
SEQEND
  8
0
  0
SOLID
  8
0
 62
    15
 10
4.349840
 20
1.068760
 11
4.994880
 21
1.443640
 12
4.314640
 22
1.038840
 13
4.959240
 23
1.413280
  0
POLYLINE
  8
0
  6
CONTINUOUS
 66
     1
 40
0.000000
 41
0.000000
  0
VERTEX
  8
0
  6
CONTINUOUS
 10
4.349840
 20
1.068760
  0
VERTEX
  8
0
  6
CONTINUOUS
 10
4.994880
 20
1.443640
  0
VERTEX
  8
0
  6
CONTINUOUS
 10
4.959240
 20
1.413280
  0
VERTEX
  8
0
  6
CONTINUOUS
 10
4.314640
 20
1.038840
  0
VERTEX
  8
0
  6
CONTINUOUS
 10
4.349840
 20
1.068760
  0
SEQEND
  8
0
  0
SOLID
  8
0
 62
    15
 10
4.372720
 20
1.104400
 11
5.017320
 21
1.478840
 12
4.349840
 22
1.068760
 13
4.994880
 23
1.443640
  0
POLYLINE
  8
0
  6
CONTINUOUS
 66
     1
 40
0.000000
 41
0.000000
  0
VERTEX
  8
0
  6
CONTINUOUS
 10
4.372720
 20
1.104400
  0
VERTEX
  8
0
  6
CONTINUOUS
 10
5.017320
 20
1.478840
  0
VERTEX
  8
0
  6
CONTINUOUS
 10
4.994880
 20
1.443640
  0
VERTEX
  8
0
  6
CONTINUOUS
 10
4.349840
 20
1.068760
  0
VERTEX
  8
0
  6
CONTINUOUS
 10
4.372720
 20
1.104400
  0
SEQEND
  8
0
  0
SOLID
  8
0
 62
    15
 10
3.560920
 20
2.486000
 11
4.205520
 21
2.860440
 12
3.562680
 22
2.486000
 13
4.207280
 23
2.860440
  0
POLYLINE
  8
0
  6
CONTINUOUS
 66
     1
 40
0.000000
 41
0.000000
  0
VERTEX
  8
0
  6
CONTINUOUS
 10
3.560920
 20
2.486000
  0
VERTEX
  8
0
  6
CONTINUOUS
 10
4.205520
 20
2.860440
  0
VERTEX
  8
0
  6
CONTINUOUS
 10
4.207280
 20
2.860440
  0
VERTEX
  8
0
  6
CONTINUOUS
 10
3.562680
 20
2.486000
  0
VERTEX
  8
0
  6
CONTINUOUS
 10
3.560920
 20
2.486000
  0
SEQEND
  8
0
  0
POLYLINE
  8
0
  6
CONTINUOUS
 66
     1
 40
0.000000
 41
0.000000
  0
VERTEX
  8
0
  6
CONTINUOUS
 10
3.562680
 20
2.486000
  0
VERTEX
  8
0
  6
CONTINUOUS
 10
3.650680
 20
2.486000
  0
VERTEX
  8
0
  6
CONTINUOUS
 10
3.664320
 20
2.422640
  0
VERTEX
  8
0
  6
CONTINUOUS
 10
3.682800
 20
2.368080
  0
VERTEX
  8
0
  6
CONTINUOUS
 10
3.705240
 20
2.324520
  0
VERTEX
  8
0
  6
CONTINUOUS
 10
3.729440
 20
2.293280
  0
VERTEX
  8
0
  6
CONTINUOUS
 10
3.763320
 20
2.267760
  0
VERTEX
  8
0
  6
CONTINUOUS
 10
3.824480
 20
2.235640
  0
VERTEX
  8
0
  6
CONTINUOUS
 10
3.855720
 20
2.221560
  0
VERTEX
  8
0
  6
CONTINUOUS
 10
3.855720
 20
2.133560
  0
VERTEX
  8
0
  6
CONTINUOUS
 10
3.889160
 20
2.122560
  0
VERTEX
  8
0
  6
CONTINUOUS
 10
3.923920
 20
2.105840
  0
VERTEX
  8
0
  6
CONTINUOUS
 10
3.955160
 20
2.084280
  0
VERTEX
  8
0
  6
CONTINUOUS
 10
3.976720
 20
2.057000
  0
VERTEX
  8
0
  6
CONTINUOUS
 10
3.982440
 20
2.041600
  0
VERTEX
  8
0
  6
CONTINUOUS
 10
3.984200
 20
2.024880
  0
VERTEX
  8
0
  6
CONTINUOUS
 10
3.980680
 20
2.007280
  0
VERTEX
  8
0
  6
CONTINUOUS
 10
3.971880
 20
1.987920
  0
VERTEX
  8
0
  6
CONTINUOUS
 10
3.956480
 20
1.968120
  0
VERTEX
  8
0
  6
CONTINUOUS
 10
3.934480
 20
1.946560
  0
VERTEX
  8
0
  6
CONTINUOUS
 10
3.905000
 20
1.924120
  0
VERTEX
  8
0
  6
CONTINUOUS
 10
3.867600
 20
1.900360
  0
VERTEX
  8
0
  6
CONTINUOUS
 10
3.867600
 20
1.866920
  0
VERTEX
  8
0
  6
CONTINUOUS
 10
4.060320
 20
1.866920
  0
VERTEX
  8
0
  6
CONTINUOUS
 10
4.067800
 20
1.804000
  0
VERTEX
  8
0
  6
CONTINUOUS
 10
4.076160
 20
1.763080
  0
VERTEX
  8
0
  6
CONTINUOUS
 10
4.087600
 20
1.719520
  0
VERTEX
  8
0
  6
CONTINUOUS
 10
4.102560
 20
1.675080
  0
VERTEX
  8
0
  6
CONTINUOUS
 10
4.121480
 20
1.632840
  0
VERTEX
  8
0
  6
CONTINUOUS
 10
4.144800
 20
1.595000
  0
VERTEX
  8
0
  6
CONTINUOUS
 10
4.216520
 20
1.519320
  0
VERTEX
  8
0
  6
CONTINUOUS
 10
4.242920
 20
1.487640
  0
VERTEX
  8
0
  6
CONTINUOUS
 10
4.270640
 20
1.451120
  0
VERTEX
  8
0
  6
CONTINUOUS
 10
4.324320
 20
1.367520
  0
VERTEX
  8
0
  6
CONTINUOUS
 10
4.347640
 20
1.322640
  0
VERTEX
  8
0
  6
CONTINUOUS
 10
4.366560
 20
1.276880
  0
VERTEX
  8
0
  6
CONTINUOUS
 10
4.380200
 20
1.231120
  0
VERTEX
  8
0
  6
CONTINUOUS
 10
4.386360
 20
1.186240
  0
VERTEX
  8
0
  6
CONTINUOUS
 10
4.384600
 20
1.143560
  0
VERTEX
  8
0
  6
CONTINUOUS
 10
4.372720
 20
1.104400
  0
VERTEX
  8
0
  6
CONTINUOUS
 10
4.349840
 20
1.068760
  0
VERTEX
  8
0
  6
CONTINUOUS
 10
4.314640
 20
1.038840
  0
VERTEX
  8
0
  6
CONTINUOUS
 10
4.292200
 20
1.025640
  0
VERTEX
  8
0
  6
CONTINUOUS
 10
4.265800
 20
1.014640
  0
VERTEX
  8
0
  6
CONTINUOUS
 10
4.235440
 20
1.004960
  0
VERTEX
  8
0
  6
CONTINUOUS
 10
4.201560
 20
0.997480
  0
VERTEX
  8
0
  6
CONTINUOUS
 10
4.201560
 20
0.953480
  0
VERTEX
  8
0
  6
CONTINUOUS
 10
3.560920
 20
0.953480
  0
VERTEX
  8
0
  6
CONTINUOUS
 10
3.560920
 20
2.486000
  0
VERTEX
  8
0
  6
CONTINUOUS
 10
3.562680
 20
2.486000
  0
SEQEND
  8
0
  0
TEXT
  8
0
 10
3.955600
 20
0.744920
 40
0.138173
  1
BA  1032
 41
1.000000
  7
SN0
 71
     0
 72
     5
 11
4.638189
 21
0.744920
  0
TEXT
  8
0
 10
3.753640
 20
0.553080
 40
0.138173
  1
13/16" x 1-1/2"
 41
1.000000
  7
SN0
 71
     0
 72
     5
 11
4.838918
 21
0.553080
  0
POLYLINE
  8
0
  6
CONTINUOUS
 66
     1
 40
0.014080
 41
0.014080
  0
VERTEX
  8
0
  6
CONTINUOUS
 10
7.002160
 20
1.851520
  0
VERTEX
  8
0
  6
CONTINUOUS
 10
7.002160
 20
1.939960
  0
VERTEX
  8
0
  6
CONTINUOUS
 10
6.953760
 20
1.949640
  0
VERTEX
  8
0
  6
CONTINUOUS
 10
6.910200
 20
1.961960
  0
VERTEX
  8
0
  6
CONTINUOUS
 10
6.872360
 20
1.976920
  0
VERTEX
  8
0
  6
CONTINUOUS
 10
6.841120
 20
1.994080
  0
VERTEX
  8
0
  6
CONTINUOUS
 10
6.816040
 20
2.012120
  0
VERTEX
  8
0
  6
CONTINUOUS
 10
6.796680
 20
2.033240
  0
VERTEX
  8
0
  6
CONTINUOUS
 10
6.772040
 20
2.072840
  0
VERTEX
  8
0
  6
CONTINUOUS
 10
6.741680
 20
2.135760
  0
VERTEX
  8
0
  6
CONTINUOUS
 10
6.738160
 20
2.144560
  0
VERTEX
  8
0
  6
CONTINUOUS
 10
6.649720
 20
2.144560
  0
VERTEX
  8
0
  6
CONTINUOUS
 10
6.638720
 20
2.178440
  0
VERTEX
  8
0
  6
CONTINUOUS
 10
6.631240
 20
2.196040
  0
VERTEX
  8
0
  6
CONTINUOUS
 10
6.611880
 20
2.229480
  0
VERTEX
  8
0
  6
CONTINUOUS
 10
6.594280
 20
2.250600
  0
VERTEX
  8
0
  6
CONTINUOUS
 10
6.573600
 20
2.266000
  0
VERTEX
  8
0
  6
CONTINUOUS
 10
6.558200
 20
2.271720
  0
VERTEX
  8
0
  6
CONTINUOUS
 10
6.541480
 20
2.273040
  0
VERTEX
  8
0
  6
CONTINUOUS
 10
6.523440
 20
2.269960
  0
VERTEX
  8
0
  6
CONTINUOUS
 10
6.504520
 20
2.260720
  0
VERTEX
  8
0
  6
CONTINUOUS
 10
6.484280
 20
2.245760
  0
VERTEX
  8
0
  6
CONTINUOUS
 10
6.462720
 20
2.223760
  0
VERTEX
  8
0
  6
CONTINUOUS
 10
6.440280
 20
2.194280
  0
VERTEX
  8
0
  6
CONTINUOUS
 10
6.416520
 20
2.156440
  0
VERTEX
  8
0
  6
CONTINUOUS
 10
6.383080
 20
2.156440
  0
VERTEX
  8
0
  6
CONTINUOUS
 10
6.383080
 20
2.349160
  0
VERTEX
  8
0
  6
CONTINUOUS
 10
6.338640
 20
2.353560
  0
VERTEX
  8
0
  6
CONTINUOUS
 10
6.300360
 20
2.360160
  0
VERTEX
  8
0
  6
CONTINUOUS
 10
6.235680
 20
2.376440
  0
VERTEX
  8
0
  6
CONTINUOUS
 10
6.191240
 20
2.391400
  0
VERTEX
  8
0
  6
CONTINUOUS
 10
6.149000
 20
2.410320
  0
VERTEX
  8
0
  6
CONTINUOUS
 10
6.111160
 20
2.433640
  0
VERTEX
  8
0
  6
CONTINUOUS
 10
6.080360
 20
2.461800
  0
VERTEX
  8
0
  6
CONTINUOUS
 10
6.049120
 20
2.493040
  0
VERTEX
  8
0
  6
CONTINUOUS
 10
6.003800
 20
2.532200
  0
VERTEX
  8
0
  6
CONTINUOUS
 10
5.927240
 20
2.587200
  0
VERTEX
  8
0
  6
CONTINUOUS
 10
5.884120
 20
2.613600
  0
VERTEX
  8
0
  6
CONTINUOUS
 10
5.838800
 20
2.636480
  0
VERTEX
  8
0
  6
CONTINUOUS
 10
5.793040
 20
2.655400
  0
VERTEX
  8
0
  6
CONTINUOUS
 10
5.747280
 20
2.669040
  0
VERTEX
  8
0
  6
CONTINUOUS
 10
5.724840
 20
2.673000
  0
VERTEX
  8
0
  6
CONTINUOUS
 10
5.702840
 20
2.675200
  0
VERTEX
  8
0
  6
CONTINUOUS
 10
5.680840
 20
2.675640
  0
VERTEX
  8
0
  6
CONTINUOUS
 10
5.650040
 20
2.671680
  0
VERTEX
  8
0
  6
CONTINUOUS
 10
5.620560
 20
2.661560
  0
VERTEX
  8
0
  6
CONTINUOUS
 10
5.602520
 20
2.651880
  0
VERTEX
  8
0
  6
CONTINUOUS
 10
5.577000
 20
2.631640
  0
VERTEX
  8
0
  6
CONTINUOUS
 10
5.555000
 20
2.603920
  0
VERTEX
  8
0
  6
CONTINUOUS
 10
5.536080
 20
2.568280
  0
VERTEX
  8
0
  6
CONTINUOUS
 10
5.521120
 20
2.524720
  0
VERTEX
  8
0
  6
CONTINUOUS
 10
5.513640
 20
2.490400
  0
VERTEX
  8
0
  6
CONTINUOUS
 10
5.469640
 20
2.490400
  0
VERTEX
  8
0
  6
CONTINUOUS
 10
5.469640
 20
1.849760
  0
VERTEX
  8
0
  6
CONTINUOUS
 10
7.002160
 20
1.849760
  0
SEQEND
  8
0
  0
TEXT
  8
0
 10
5.885440
 20
1.604240
 40
0.138173
  1
BA  1032
 41
1.000000
  7
SN0
 71
     0
 72
     5
 11
6.568029
 21
1.604240
  0
TEXT
  8
0
 10
5.683480
 20
1.412400
 40
0.138173
  1
13/16" x 1-1/2"
 41
1.000000
  7
SN0
 71
     0
 72
     5
 11
6.768758
 21
1.412400
  0
ENDSEC
  0
EOF
