  0
SECTION
  2
HEADER
  9
$ACADVER
  1
AC1006
  9
$EXTMIN
 10
2.899600
 20
4.447080
  9
$EXTMAX
 10
5.599880
 20
6.552480
  9
$LTSCALE
 40
0.044000
  9
$PDMODE
 70
    35
  9
$PDSIZE
 40
0.035200
  0
ENDSEC
  0
SECTION
  2
TABLES
  0
TABLE
  2
LTYPE
 70
     9
  0
LTYPE
  2
CONTINUOUS
 70
    64
  3
Solid line
 72
    65
 73
     0
 40
0.000000
  0
LTYPE
  2
DASHED
 70
    64
  3
__ __ __ __ __ __ __ __ __ __ __ __ __ __ __
 72
    65
 73
     2
 40
0.000330
 49
0.000220
 49
-0.000110
  0
LTYPE
  2
HIDDEN
 70
    64
  3
 _ _ _ _ _ _ _ _ _ _ _ _ _ _ _ _ _ _ _ _ _ _
 72
    65
 73
     2
 40
0.000165
 49
0.000110
 49
-0.000055
  0
LTYPE
  2
CENTER
 70
    64
  3
____ _ ____ _ ____ _ ____ _ ____ _ ____ _ ____
 72
    65
 73
     4
 40
0.000880
 49
0.000550
 49
-0.000110
 49
0.000110
 49
-0.000110
  0
LTYPE
  2
PHANTOM
 70
    64
  3
_____ _ _ _____ _ _ _____ _ _ _____ _ _ ____
 72
    65
 73
     6
 40
0.001100
 49
0.000550
 49
-0.000110
 49
0.000110
 49
-0.000110
 49
0.000110
 49
-0.000110
  0
LTYPE
  2
DOT
 70
    64
  3
...............................................
 72
    65
 73
     2
 40
0.000110
 49
0.000000
 49
-0.000110
  0
LTYPE
  2
DASHDOT
 70
    64
  3
__ . __ . __ . __ . __ . __ . __ . __ . __ . __
 72
    65
 73
     4
 40
0.000440
 49
0.000220
 49
-0.000110
 49
0.000000
 49
-0.000110
  0
LTYPE
  2
BORDER
 70
    64
  3
__ __ . __ __ . __ __ . __ __ . __ __ . __ __
 72
    65
 73
     6
 40
0.000770
 49
0.000220
 49
-0.000110
 49
0.000220
 49
-0.000110
 49
0.000000
 49
-0.000110
  0
LTYPE
  2
DIVIDE
 70
    64
  3
__ . . __ . . __ . . __ . . __ . . __ . . __
 72
    65
 73
     6
 40
0.000550
 49
0.000220
 49
-0.000110
 49
0.000000
 49
-0.000110
 49
0.000000
 49
-0.000110
  0
LTYPE
  2
DOTDOT
 70
    64
  3
 . .  . .  . .  . .  . .  . . 
 72
    65
 73
     5
 40
0.000242
 49
-0.000110
 49
0.000000
 49
-0.000110
 49
0.000000
 49
-0.000110
  0
ENDTAB
  0
TABLE
  2
STYLE
 70
     2
  0
STYLE
 70
     0
  2
SN0
 40
0.000000
 41
0.000440
 50
0.000000
 71
     0
 42
0.000000
  3
ROMAND
  0
STYLE
 70
    68
  2
SV0
 40
0.000000
 41
0.000440
 50
0.000000
 71
     0
 42
0.000000
  3
ROMAND
  0
ENDTAB
  0
TABLE
  2
LAYER
 70
     3
  0
LAYER
  2
FOREGROUND
 70
    64
 62
     7
  6
CONTINUOUS
  0
LAYER
  2
BACKGROUND
 70
    65
 62
    -7
  6
CONTINUOUS
  0
LAYER
  2
0
 70
    64
 62
     7
  6
CONTINUOUS
  0
ENDTAB
  0
ENDSEC
  0
SECTION
  2
ENTITIES
  0
POLYLINE
  8
FOREGROUND
  6
CONTINUOUS
 66
     1
 40
0.000000
 41
0.000000
  0
VERTEX
  8
FOREGROUND
  6
CONTINUOUS
 10
0.000000
 20
10.999560
  0
VERTEX
  8
FOREGROUND
  6
CONTINUOUS
 10
8.499920
 20
10.999560
  0
VERTEX
  8
FOREGROUND
  6
CONTINUOUS
 10
8.499920
 20
-0.000440
  0
VERTEX
  8
FOREGROUND
  6
CONTINUOUS
 10
0.000000
 20
-0.000440
  0
VERTEX
  8
FOREGROUND
  6
CONTINUOUS
 10
0.000000
 20
10.999560
  0
SEQEND
  8
0
  0
POLYLINE
  8
FOREGROUND
  6
CONTINUOUS
 66
     1
 40
0.000000
 41
0.000000
  0
VERTEX
  8
FOREGROUND
  6
CONTINUOUS
 10
0.000000
 20
10.999560
  0
VERTEX
  8
FOREGROUND
  6
CONTINUOUS
 10
8.499920
 20
10.999560
  0
VERTEX
  8
FOREGROUND
  6
CONTINUOUS
 10
8.499920
 20
-0.000440
  0
VERTEX
  8
FOREGROUND
  6
CONTINUOUS
 10
0.000000
 20
-0.000440
  0
VERTEX
  8
FOREGROUND
  6
CONTINUOUS
 10
0.000000
 20
10.999560
  0
SEQEND
  8
0
  0
POLYLINE
  8
0
  6
CONTINUOUS
 66
     1
 40
0.014080
 41
0.014080
  0
VERTEX
  8
0
  6
CONTINUOUS
 10
5.434440
 20
5.488560
  0
VERTEX
  8
0
  6
CONTINUOUS
 10
5.434440
 20
5.510120
  0
VERTEX
  8
0
  6
CONTINUOUS
 10
5.433120
 20
5.530360
  0
VERTEX
  8
0
  6
CONTINUOUS
 10
5.430920
 20
5.549280
  0
VERTEX
  8
0
  6
CONTINUOUS
 10
5.427840
 20
5.566880
  0
VERTEX
  8
0
  6
CONTINUOUS
 10
5.423880
 20
5.583600
  0
VERTEX
  8
0
  6
CONTINUOUS
 10
5.419040
 20
5.599000
  0
VERTEX
  8
0
  6
CONTINUOUS
 10
5.413320
 20
5.613520
  0
VERTEX
  8
0
  6
CONTINUOUS
 10
5.406720
 20
5.626720
  0
VERTEX
  8
0
  6
CONTINUOUS
 10
5.399680
 20
5.639040
  0
VERTEX
  8
0
  6
CONTINUOUS
 10
5.392200
 20
5.650920
  0
VERTEX
  8
0
  6
CONTINUOUS
 10
5.383840
 20
5.661480
  0
VERTEX
  8
0
  6
CONTINUOUS
 10
5.375040
 20
5.671600
  0
VERTEX
  8
0
  6
CONTINUOUS
 10
5.365360
 20
5.680840
  0
VERTEX
  8
0
  6
CONTINUOUS
 10
5.355680
 20
5.689640
  0
VERTEX
  8
0
  6
CONTINUOUS
 10
5.345560
 20
5.697560
  0
VERTEX
  8
0
  6
CONTINUOUS
 10
5.335000
 20
5.705040
  0
VERTEX
  8
0
  6
CONTINUOUS
 10
5.313000
 20
5.718680
  0
VERTEX
  8
0
  6
CONTINUOUS
 10
5.290560
 20
5.730560
  0
VERTEX
  8
0
  6
CONTINUOUS
 10
5.267680
 20
5.741560
  0
VERTEX
  8
0
  6
CONTINUOUS
 10
5.244800
 20
5.752120
  0
VERTEX
  8
0
  6
CONTINUOUS
 10
5.222360
 20
5.762240
  0
VERTEX
  8
0
  6
CONTINUOUS
 10
5.200360
 20
5.772800
  0
VERTEX
  8
0
  6
CONTINUOUS
 10
5.180120
 20
5.784240
  0
VERTEX
  8
0
  6
CONTINUOUS
 10
5.161640
 20
5.797000
  0
VERTEX
  8
0
  6
CONTINUOUS
 10
5.144480
 20
5.811080
  0
VERTEX
  8
0
  6
CONTINUOUS
 10
5.129080
 20
5.826040
  0
VERTEX
  8
0
  6
CONTINUOUS
 10
5.114560
 20
5.841880
  0
VERTEX
  8
0
  6
CONTINUOUS
 10
5.100920
 20
5.858160
  0
VERTEX
  8
0
  6
CONTINUOUS
 10
5.089040
 20
5.875760
  0
VERTEX
  8
0
  6
CONTINUOUS
 10
5.077600
 20
5.893800
  0
VERTEX
  8
0
  6
CONTINUOUS
 10
5.067920
 20
5.912720
  0
VERTEX
  8
0
  6
CONTINUOUS
 10
5.058680
 20
5.932520
  0
VERTEX
  8
0
  6
CONTINUOUS
 10
5.050760
 20
5.952320
  0
VERTEX
  8
0
  6
CONTINUOUS
 10
5.044160
 20
5.973000
  0
VERTEX
  8
0
  6
CONTINUOUS
 10
5.038440
 20
5.994120
  0
VERTEX
  8
0
  6
CONTINUOUS
 10
5.033160
 20
6.015240
  0
VERTEX
  8
0
  6
CONTINUOUS
 10
5.029640
 20
6.037240
  0
VERTEX
  8
0
  6
CONTINUOUS
 10
5.026560
 20
6.059240
  0
VERTEX
  8
0
  6
CONTINUOUS
 10
5.024360
 20
6.081240
  0
VERTEX
  8
0
  6
CONTINUOUS
 10
5.023040
 20
6.103680
  0
VERTEX
  8
0
  6
CONTINUOUS
 10
4.570280
 20
6.103680
  0
VERTEX
  8
0
  6
CONTINUOUS
 10
4.570280
 20
5.246120
  0
VERTEX
  8
0
  6
CONTINUOUS
 10
5.592840
 20
5.246120
  0
VERTEX
  8
0
  6
CONTINUOUS
 10
5.592840
 20
5.453360
  0
VERTEX
  8
0
  6
CONTINUOUS
 10
5.592840
 20
5.487680
  0
VERTEX
  8
0
  6
CONTINUOUS
 10
5.434440
 20
5.487680
  0
VERTEX
  8
0
  6
CONTINUOUS
 10
5.434440
 20
5.488560
  0
SEQEND
  8
0
  0
TEXT
  8
0
 10
4.739240
 20
5.005440
 40
0.138124
  1
BA  1030
 41
1.000000
  7
SN0
 71
     0
 72
     5
 11
5.421466
 21
5.005440
  0
TEXT
  8
0
 10
4.680280
 20
4.814040
 40
0.138124
  1
13/16" x 1"
 41
1.000000
  7
SN0
 71
     0
 72
     5
 11
5.479833
 21
4.814040
  0
TEXT
  8
0
 10
3.071640
 20
4.682920
 40
0.138124
  1
BA  1030
 41
1.000000
  7
SN0
 71
     0
 72
     5
 11
3.753866
 21
4.682920
  0
TEXT
  8
0
 10
3.012680
 20
4.491080
 40
0.138124
  1
13/16" x 1"
 41
1.000000
  7
SN0
 71
     0
 72
     5
 11
3.812233
 21
4.491080
  0
SOLID
  8
0
 62
    15
 10
3.531000
 20
5.477560
 11
3.533640
 21
6.221160
 12
3.575000
 22
5.456440
 13
3.577640
 23
6.200040
  0
POLYLINE
  8
0
  6
CONTINUOUS
 66
     1
 40
0.000000
 41
0.000000
  0
VERTEX
  8
0
  6
CONTINUOUS
 10
3.531000
 20
5.477560
  0
VERTEX
  8
0
  6
CONTINUOUS
 10
3.533640
 20
6.221160
  0
VERTEX
  8
0
  6
CONTINUOUS
 10
3.577640
 20
6.200040
  0
VERTEX
  8
0
  6
CONTINUOUS
 10
3.575000
 20
5.456440
  0
VERTEX
  8
0
  6
CONTINUOUS
 10
3.531000
 20
5.477560
  0
SEQEND
  8
0
  0
SOLID
  8
0
 62
    15
 10
3.923040
 20
5.192000
 11
3.925680
 21
5.935600
 12
3.923040
 22
4.950440
 13
3.925680
 23
5.694040
  0
POLYLINE
  8
0
  6
CONTINUOUS
 66
     1
 40
0.000000
 41
0.000000
  0
VERTEX
  8
0
  6
CONTINUOUS
 10
3.923040
 20
5.192000
  0
VERTEX
  8
0
  6
CONTINUOUS
 10
3.925680
 20
5.935600
  0
VERTEX
  8
0
  6
CONTINUOUS
 10
3.925680
 20
5.694040
  0
VERTEX
  8
0
  6
CONTINUOUS
 10
3.923040
 20
4.950440
  0
VERTEX
  8
0
  6
CONTINUOUS
 10
3.923040
 20
5.192000
  0
SEQEND
  8
0
  0
SOLID
  8
0
 62
    15
 10
2.900480
 20
5.808000
 11
2.903120
 21
6.551600
 12
3.353680
 22
5.808000
 13
3.356320
 23
6.551600
  0
POLYLINE
  8
0
  6
CONTINUOUS
 66
     1
 40
0.000000
 41
0.000000
  0
VERTEX
  8
0
  6
CONTINUOUS
 10
2.900480
 20
5.808000
  0
VERTEX
  8
0
  6
CONTINUOUS
 10
2.903120
 20
6.551600
  0
VERTEX
  8
0
  6
CONTINUOUS
 10
3.356320
 20
6.551600
  0
VERTEX
  8
0
  6
CONTINUOUS
 10
3.353680
 20
5.808000
  0
VERTEX
  8
0
  6
CONTINUOUS
 10
2.900480
 20
5.808000
  0
SEQEND
  8
0
  0
SOLID
  8
0
 62
    15
 10
3.353680
 20
5.808000
 11
3.356320
 21
6.551600
 12
3.363800
 22
5.719560
 13
3.366440
 23
6.463160
  0
POLYLINE
  8
0
  6
CONTINUOUS
 66
     1
 40
0.000000
 41
0.000000
  0
VERTEX
  8
0
  6
CONTINUOUS
 10
3.353680
 20
5.808000
  0
VERTEX
  8
0
  6
CONTINUOUS
 10
3.356320
 20
6.551600
  0
VERTEX
  8
0
  6
CONTINUOUS
 10
3.366440
 20
6.463160
  0
VERTEX
  8
0
  6
CONTINUOUS
 10
3.363800
 20
5.719560
  0
VERTEX
  8
0
  6
CONTINUOUS
 10
3.353680
 20
5.808000
  0
SEQEND
  8
0
  0
SOLID
  8
0
 62
    15
 10
3.363800
 20
5.719560
 11
3.366440
 21
6.463160
 12
3.374360
 22
5.677320
 13
3.377440
 23
6.420920
  0
POLYLINE
  8
0
  6
CONTINUOUS
 66
     1
 40
0.000000
 41
0.000000
  0
VERTEX
  8
0
  6
CONTINUOUS
 10
3.363800
 20
5.719560
  0
VERTEX
  8
0
  6
CONTINUOUS
 10
3.366440
 20
6.463160
  0
VERTEX
  8
0
  6
CONTINUOUS
 10
3.377440
 20
6.420920
  0
VERTEX
  8
0
  6
CONTINUOUS
 10
3.374360
 20
5.677320
  0
VERTEX
  8
0
  6
CONTINUOUS
 10
3.363800
 20
5.719560
  0
SEQEND
  8
0
  0
SOLID
  8
0
 62
    15
 10
3.374360
 20
5.677320
 11
3.377440
 21
6.420920
 12
3.389320
 22
5.636400
 13
3.391960
 23
6.380440
  0
POLYLINE
  8
0
  6
CONTINUOUS
 66
     1
 40
0.000000
 41
0.000000
  0
VERTEX
  8
0
  6
CONTINUOUS
 10
3.374360
 20
5.677320
  0
VERTEX
  8
0
  6
CONTINUOUS
 10
3.377440
 20
6.420920
  0
VERTEX
  8
0
  6
CONTINUOUS
 10
3.391960
 20
6.380440
  0
VERTEX
  8
0
  6
CONTINUOUS
 10
3.389320
 20
5.636400
  0
VERTEX
  8
0
  6
CONTINUOUS
 10
3.374360
 20
5.677320
  0
SEQEND
  8
0
  0
SOLID
  8
0
 62
    15
 10
3.389320
 20
5.636400
 11
3.391960
 21
6.380440
 12
3.408240
 22
5.598120
 13
3.410880
 23
6.342160
  0
POLYLINE
  8
0
  6
CONTINUOUS
 66
     1
 40
0.000000
 41
0.000000
  0
VERTEX
  8
0
  6
CONTINUOUS
 10
3.389320
 20
5.636400
  0
VERTEX
  8
0
  6
CONTINUOUS
 10
3.391960
 20
6.380440
  0
VERTEX
  8
0
  6
CONTINUOUS
 10
3.410880
 20
6.342160
  0
VERTEX
  8
0
  6
CONTINUOUS
 10
3.408240
 20
5.598120
  0
VERTEX
  8
0
  6
CONTINUOUS
 10
3.389320
 20
5.636400
  0
SEQEND
  8
0
  0
SOLID
  8
0
 62
    15
 10
3.408240
 20
5.598120
 11
3.410880
 21
6.342160
 12
3.431560
 22
5.562480
 13
3.434200
 23
6.306520
  0
POLYLINE
  8
0
  6
CONTINUOUS
 66
     1
 40
0.000000
 41
0.000000
  0
VERTEX
  8
0
  6
CONTINUOUS
 10
3.408240
 20
5.598120
  0
VERTEX
  8
0
  6
CONTINUOUS
 10
3.410880
 20
6.342160
  0
VERTEX
  8
0
  6
CONTINUOUS
 10
3.434200
 20
6.306520
  0
VERTEX
  8
0
  6
CONTINUOUS
 10
3.431560
 20
5.562480
  0
VERTEX
  8
0
  6
CONTINUOUS
 10
3.408240
 20
5.598120
  0
SEQEND
  8
0
  0
SOLID
  8
0
 62
    15
 10
3.431560
 20
5.562480
 11
3.434200
 21
6.306520
 12
3.459280
 22
5.530360
 13
3.462360
 23
6.273960
  0
POLYLINE
  8
0
  6
CONTINUOUS
 66
     1
 40
0.000000
 41
0.000000
  0
VERTEX
  8
0
  6
CONTINUOUS
 10
3.431560
 20
5.562480
  0
VERTEX
  8
0
  6
CONTINUOUS
 10
3.434200
 20
6.306520
  0
VERTEX
  8
0
  6
CONTINUOUS
 10
3.462360
 20
6.273960
  0
VERTEX
  8
0
  6
CONTINUOUS
 10
3.459280
 20
5.530360
  0
VERTEX
  8
0
  6
CONTINUOUS
 10
3.431560
 20
5.562480
  0
SEQEND
  8
0
  0
SOLID
  8
0
 62
    15
 10
3.459280
 20
5.530360
 11
3.462360
 21
6.273960
 12
3.492280
 22
5.501320
 13
3.494920
 23
6.245360
  0
POLYLINE
  8
0
  6
CONTINUOUS
 66
     1
 40
0.000000
 41
0.000000
  0
VERTEX
  8
0
  6
CONTINUOUS
 10
3.459280
 20
5.530360
  0
VERTEX
  8
0
  6
CONTINUOUS
 10
3.462360
 20
6.273960
  0
VERTEX
  8
0
  6
CONTINUOUS
 10
3.494920
 20
6.245360
  0
VERTEX
  8
0
  6
CONTINUOUS
 10
3.492280
 20
5.501320
  0
VERTEX
  8
0
  6
CONTINUOUS
 10
3.459280
 20
5.530360
  0
SEQEND
  8
0
  0
SOLID
  8
0
 62
    15
 10
3.492280
 20
5.501320
 11
3.494920
 21
6.245360
 12
3.531000
 22
5.477560
 13
3.533640
 23
6.221160
  0
POLYLINE
  8
0
  6
CONTINUOUS
 66
     1
 40
0.000000
 41
0.000000
  0
VERTEX
  8
0
  6
CONTINUOUS
 10
3.492280
 20
5.501320
  0
VERTEX
  8
0
  6
CONTINUOUS
 10
3.494920
 20
6.245360
  0
VERTEX
  8
0
  6
CONTINUOUS
 10
3.533640
 20
6.221160
  0
VERTEX
  8
0
  6
CONTINUOUS
 10
3.531000
 20
5.477560
  0
VERTEX
  8
0
  6
CONTINUOUS
 10
3.492280
 20
5.501320
  0
SEQEND
  8
0
  0
SOLID
  8
0
 62
    15
 10
3.764640
 20
5.192000
 11
3.767720
 21
5.935600
 12
3.923040
 22
5.192000
 13
3.925680
 23
5.935600
  0
POLYLINE
  8
0
  6
CONTINUOUS
 66
     1
 40
0.000000
 41
0.000000
  0
VERTEX
  8
0
  6
CONTINUOUS
 10
3.764640
 20
5.192000
  0
VERTEX
  8
0
  6
CONTINUOUS
 10
3.767720
 20
5.935600
  0
VERTEX
  8
0
  6
CONTINUOUS
 10
3.925680
 20
5.935600
  0
VERTEX
  8
0
  6
CONTINUOUS
 10
3.923040
 20
5.192000
  0
VERTEX
  8
0
  6
CONTINUOUS
 10
3.764640
 20
5.192000
  0
SEQEND
  8
0
  0
SOLID
  8
0
 62
    15
 10
3.575000
 20
5.456440
 11
3.577640
 21
6.200040
 12
3.597880
 22
5.445880
 13
3.600520
 23
6.189920
  0
POLYLINE
  8
0
  6
CONTINUOUS
 66
     1
 40
0.000000
 41
0.000000
  0
VERTEX
  8
0
  6
CONTINUOUS
 10
3.575000
 20
5.456440
  0
VERTEX
  8
0
  6
CONTINUOUS
 10
3.577640
 20
6.200040
  0
VERTEX
  8
0
  6
CONTINUOUS
 10
3.600520
 20
6.189920
  0
VERTEX
  8
0
  6
CONTINUOUS
 10
3.597880
 20
5.445880
  0
VERTEX
  8
0
  6
CONTINUOUS
 10
3.575000
 20
5.456440
  0
SEQEND
  8
0
  0
SOLID
  8
0
 62
    15
 10
3.597880
 20
5.445880
 11
3.600520
 21
6.189920
 12
3.620760
 22
5.434880
 13
3.623400
 23
6.178480
  0
POLYLINE
  8
0
  6
CONTINUOUS
 66
     1
 40
0.000000
 41
0.000000
  0
VERTEX
  8
0
  6
CONTINUOUS
 10
3.597880
 20
5.445880
  0
VERTEX
  8
0
  6
CONTINUOUS
 10
3.600520
 20
6.189920
  0
VERTEX
  8
0
  6
CONTINUOUS
 10
3.623400
 20
6.178480
  0
VERTEX
  8
0
  6
CONTINUOUS
 10
3.620760
 20
5.434880
  0
VERTEX
  8
0
  6
CONTINUOUS
 10
3.597880
 20
5.445880
  0
SEQEND
  8
0
  0
SOLID
  8
0
 62
    15
 10
3.620760
 20
5.434880
 11
3.623400
 21
6.178480
 12
3.665200
 22
5.409360
 13
3.668280
 23
6.152960
  0
POLYLINE
  8
0
  6
CONTINUOUS
 66
     1
 40
0.000000
 41
0.000000
  0
VERTEX
  8
0
  6
CONTINUOUS
 10
3.620760
 20
5.434880
  0
VERTEX
  8
0
  6
CONTINUOUS
 10
3.623400
 20
6.178480
  0
VERTEX
  8
0
  6
CONTINUOUS
 10
3.668280
 20
6.152960
  0
VERTEX
  8
0
  6
CONTINUOUS
 10
3.665200
 20
5.409360
  0
VERTEX
  8
0
  6
CONTINUOUS
 10
3.620760
 20
5.434880
  0
SEQEND
  8
0
  0
SOLID
  8
0
 62
    15
 10
3.665200
 20
5.409360
 11
3.668280
 21
6.152960
 12
3.705240
 22
5.375920
 13
3.707880
 23
6.119520
  0
POLYLINE
  8
0
  6
CONTINUOUS
 66
     1
 40
0.000000
 41
0.000000
  0
VERTEX
  8
0
  6
CONTINUOUS
 10
3.665200
 20
5.409360
  0
VERTEX
  8
0
  6
CONTINUOUS
 10
3.668280
 20
6.152960
  0
VERTEX
  8
0
  6
CONTINUOUS
 10
3.707880
 20
6.119520
  0
VERTEX
  8
0
  6
CONTINUOUS
 10
3.705240
 20
5.375920
  0
VERTEX
  8
0
  6
CONTINUOUS
 10
3.665200
 20
5.409360
  0
SEQEND
  8
0
  0
SOLID
  8
0
 62
    15
 10
3.705240
 20
5.375920
 11
3.707880
 21
6.119520
 12
3.722400
 22
5.355240
 13
3.725040
 23
6.098840
  0
POLYLINE
  8
0
  6
CONTINUOUS
 66
     1
 40
0.000000
 41
0.000000
  0
VERTEX
  8
0
  6
CONTINUOUS
 10
3.705240
 20
5.375920
  0
VERTEX
  8
0
  6
CONTINUOUS
 10
3.707880
 20
6.119520
  0
VERTEX
  8
0
  6
CONTINUOUS
 10
3.725040
 20
6.098840
  0
VERTEX
  8
0
  6
CONTINUOUS
 10
3.722400
 20
5.355240
  0
VERTEX
  8
0
  6
CONTINUOUS
 10
3.705240
 20
5.375920
  0
SEQEND
  8
0
  0
SOLID
  8
0
 62
    15
 10
3.722400
 20
5.355240
 11
3.725040
 21
6.098840
 12
3.737360
 22
5.331040
 13
3.740000
 23
6.075080
  0
POLYLINE
  8
0
  6
CONTINUOUS
 66
     1
 40
0.000000
 41
0.000000
  0
VERTEX
  8
0
  6
CONTINUOUS
 10
3.722400
 20
5.355240
  0
VERTEX
  8
0
  6
CONTINUOUS
 10
3.725040
 20
6.098840
  0
VERTEX
  8
0
  6
CONTINUOUS
 10
3.740000
 20
6.075080
  0
VERTEX
  8
0
  6
CONTINUOUS
 10
3.737360
 20
5.331040
  0
VERTEX
  8
0
  6
CONTINUOUS
 10
3.722400
 20
5.355240
  0
SEQEND
  8
0
  0
SOLID
  8
0
 62
    15
 10
3.737360
 20
5.331040
 11
3.740000
 21
6.075080
 12
3.749240
 22
5.303320
 13
3.752320
 23
6.046920
  0
POLYLINE
  8
0
  6
CONTINUOUS
 66
     1
 40
0.000000
 41
0.000000
  0
VERTEX
  8
0
  6
CONTINUOUS
 10
3.737360
 20
5.331040
  0
VERTEX
  8
0
  6
CONTINUOUS
 10
3.740000
 20
6.075080
  0
VERTEX
  8
0
  6
CONTINUOUS
 10
3.752320
 20
6.046920
  0
VERTEX
  8
0
  6
CONTINUOUS
 10
3.749240
 20
5.303320
  0
VERTEX
  8
0
  6
CONTINUOUS
 10
3.737360
 20
5.331040
  0
SEQEND
  8
0
  0
SOLID
  8
0
 62
    15
 10
3.749240
 20
5.303320
 11
3.752320
 21
6.046920
 12
3.758480
 22
5.271200
 13
3.761120
 23
6.015240
  0
POLYLINE
  8
0
  6
CONTINUOUS
 66
     1
 40
0.000000
 41
0.000000
  0
VERTEX
  8
0
  6
CONTINUOUS
 10
3.749240
 20
5.303320
  0
VERTEX
  8
0
  6
CONTINUOUS
 10
3.752320
 20
6.046920
  0
VERTEX
  8
0
  6
CONTINUOUS
 10
3.761120
 20
6.015240
  0
VERTEX
  8
0
  6
CONTINUOUS
 10
3.758480
 20
5.271200
  0
VERTEX
  8
0
  6
CONTINUOUS
 10
3.749240
 20
5.303320
  0
SEQEND
  8
0
  0
SOLID
  8
0
 62
    15
 10
3.758480
 20
5.271200
 11
3.761120
 21
6.015240
 12
3.763760
 22
5.234680
 13
3.766400
 23
5.978280
  0
POLYLINE
  8
0
  6
CONTINUOUS
 66
     1
 40
0.000000
 41
0.000000
  0
VERTEX
  8
0
  6
CONTINUOUS
 10
3.758480
 20
5.271200
  0
VERTEX
  8
0
  6
CONTINUOUS
 10
3.761120
 20
6.015240
  0
VERTEX
  8
0
  6
CONTINUOUS
 10
3.766400
 20
5.978280
  0
VERTEX
  8
0
  6
CONTINUOUS
 10
3.763760
 20
5.234680
  0
VERTEX
  8
0
  6
CONTINUOUS
 10
3.758480
 20
5.271200
  0
SEQEND
  8
0
  0
SOLID
  8
0
 62
    15
 10
3.764640
 20
5.192880
 11
3.767720
 21
5.936920
 12
3.764640
 22
5.192000
 13
3.767720
 23
5.935600
  0
POLYLINE
  8
0
  6
CONTINUOUS
 66
     1
 40
0.000000
 41
0.000000
  0
VERTEX
  8
0
  6
CONTINUOUS
 10
3.764640
 20
5.192880
  0
VERTEX
  8
0
  6
CONTINUOUS
 10
3.767720
 20
5.936920
  0
VERTEX
  8
0
  6
CONTINUOUS
 10
3.767720
 20
5.935600
  0
VERTEX
  8
0
  6
CONTINUOUS
 10
3.764640
 20
5.192000
  0
VERTEX
  8
0
  6
CONTINUOUS
 10
3.764640
 20
5.192880
  0
SEQEND
  8
0
  0
SOLID
  8
0
 62
    15
 10
3.763760
 20
5.234680
 11
3.766400
 21
5.978280
 12
3.764640
 22
5.192880
 13
3.767720
 23
5.936920
  0
POLYLINE
  8
0
  6
CONTINUOUS
 66
     1
 40
0.000000
 41
0.000000
  0
VERTEX
  8
0
  6
CONTINUOUS
 10
3.763760
 20
5.234680
  0
VERTEX
  8
0
  6
CONTINUOUS
 10
3.766400
 20
5.978280
  0
VERTEX
  8
0
  6
CONTINUOUS
 10
3.767720
 20
5.936920
  0
VERTEX
  8
0
  6
CONTINUOUS
 10
3.764640
 20
5.192880
  0
VERTEX
  8
0
  6
CONTINUOUS
 10
3.763760
 20
5.234680
  0
SEQEND
  8
0
  0
POLYLINE
  8
0
  6
CONTINUOUS
 66
     1
 40
0.000000
 41
0.000000
  0
VERTEX
  8
0
  6
CONTINUOUS
 10
3.764640
 20
5.192000
  0
VERTEX
  8
0
  6
CONTINUOUS
 10
3.923040
 20
5.192000
  0
VERTEX
  8
0
  6
CONTINUOUS
 10
3.923040
 20
4.950440
  0
VERTEX
  8
0
  6
CONTINUOUS
 10
2.900480
 20
4.950440
  0
VERTEX
  8
0
  6
CONTINUOUS
 10
2.900480
 20
5.808000
  0
VERTEX
  8
0
  6
CONTINUOUS
 10
3.353680
 20
5.808000
  0
VERTEX
  8
0
  6
CONTINUOUS
 10
3.363800
 20
5.719560
  0
VERTEX
  8
0
  6
CONTINUOUS
 10
3.374360
 20
5.677320
  0
VERTEX
  8
0
  6
CONTINUOUS
 10
3.389320
 20
5.636400
  0
VERTEX
  8
0
  6
CONTINUOUS
 10
3.408240
 20
5.598120
  0
VERTEX
  8
0
  6
CONTINUOUS
 10
3.431560
 20
5.562480
  0
VERTEX
  8
0
  6
CONTINUOUS
 10
3.459280
 20
5.530360
  0
VERTEX
  8
0
  6
CONTINUOUS
 10
3.492280
 20
5.501320
  0
VERTEX
  8
0
  6
CONTINUOUS
 10
3.531000
 20
5.477560
  0
VERTEX
  8
0
  6
CONTINUOUS
 10
3.575000
 20
5.456440
  0
VERTEX
  8
0
  6
CONTINUOUS
 10
3.597880
 20
5.445880
  0
VERTEX
  8
0
  6
CONTINUOUS
 10
3.620760
 20
5.434880
  0
VERTEX
  8
0
  6
CONTINUOUS
 10
3.665200
 20
5.409360
  0
VERTEX
  8
0
  6
CONTINUOUS
 10
3.705240
 20
5.375920
  0
VERTEX
  8
0
  6
CONTINUOUS
 10
3.722400
 20
5.355240
  0
VERTEX
  8
0
  6
CONTINUOUS
 10
3.737360
 20
5.331040
  0
VERTEX
  8
0
  6
CONTINUOUS
 10
3.749240
 20
5.303320
  0
VERTEX
  8
0
  6
CONTINUOUS
 10
3.758480
 20
5.271200
  0
VERTEX
  8
0
  6
CONTINUOUS
 10
3.763760
 20
5.234680
  0
VERTEX
  8
0
  6
CONTINUOUS
 10
3.764640
 20
5.192880
  0
VERTEX
  8
0
  6
CONTINUOUS
 10
3.764640
 20
5.192000
  0
SEQEND
  8
0
  0
ENDSEC
  0
EOF
