  0
SECTION
  2
HEADER
  9
$ACADVER
  1
AC1006
  9
$EXTMIN
 10
2.571800
 20
4.470400
  9
$EXTMAX
 10
5.927680
 20
6.529160
  9
$LTSCALE
 40
0.044000
  9
$PDMODE
 70
    35
  9
$PDSIZE
 40
0.035200
  0
ENDSEC
  0
SECTION
  2
TABLES
  0
TABLE
  2
LTYPE
 70
     9
  0
LTYPE
  2
CONTINUOUS
 70
    64
  3
Solid line
 72
    65
 73
     0
 40
0.000000
  0
LTYPE
  2
DASHED
 70
    64
  3
__ __ __ __ __ __ __ __ __ __ __ __ __ __ __
 72
    65
 73
     2
 40
0.000330
 49
0.000220
 49
-0.000110
  0
LTYPE
  2
HIDDEN
 70
    64
  3
 _ _ _ _ _ _ _ _ _ _ _ _ _ _ _ _ _ _ _ _ _ _
 72
    65
 73
     2
 40
0.000165
 49
0.000110
 49
-0.000055
  0
LTYPE
  2
CENTER
 70
    64
  3
____ _ ____ _ ____ _ ____ _ ____ _ ____ _ ____
 72
    65
 73
     4
 40
0.000880
 49
0.000550
 49
-0.000110
 49
0.000110
 49
-0.000110
  0
LTYPE
  2
PHANTOM
 70
    64
  3
_____ _ _ _____ _ _ _____ _ _ _____ _ _ ____
 72
    65
 73
     6
 40
0.001100
 49
0.000550
 49
-0.000110
 49
0.000110
 49
-0.000110
 49
0.000110
 49
-0.000110
  0
LTYPE
  2
DOT
 70
    64
  3
...............................................
 72
    65
 73
     2
 40
0.000110
 49
0.000000
 49
-0.000110
  0
LTYPE
  2
DASHDOT
 70
    64
  3
__ . __ . __ . __ . __ . __ . __ . __ . __ . __
 72
    65
 73
     4
 40
0.000440
 49
0.000220
 49
-0.000110
 49
0.000000
 49
-0.000110
  0
LTYPE
  2
BORDER
 70
    64
  3
__ __ . __ __ . __ __ . __ __ . __ __ . __ __
 72
    65
 73
     6
 40
0.000770
 49
0.000220
 49
-0.000110
 49
0.000220
 49
-0.000110
 49
0.000000
 49
-0.000110
  0
LTYPE
  2
DIVIDE
 70
    64
  3
__ . . __ . . __ . . __ . . __ . . __ . . __
 72
    65
 73
     6
 40
0.000550
 49
0.000220
 49
-0.000110
 49
0.000000
 49
-0.000110
 49
0.000000
 49
-0.000110
  0
LTYPE
  2
DOTDOT
 70
    64
  3
 . .  . .  . .  . .  . .  . . 
 72
    65
 73
     5
 40
0.000242
 49
-0.000110
 49
0.000000
 49
-0.000110
 49
0.000000
 49
-0.000110
  0
ENDTAB
  0
TABLE
  2
STYLE
 70
     2
  0
STYLE
 70
     0
  2
SN0
 40
0.000000
 41
0.000440
 50
0.000000
 71
     0
 42
0.000000
  3
ROMAND
  0
STYLE
 70
    68
  2
SV0
 40
0.000000
 41
0.000440
 50
0.000000
 71
     0
 42
0.000000
  3
ROMAND
  0
ENDTAB
  0
TABLE
  2
LAYER
 70
     3
  0
LAYER
  2
FOREGROUND
 70
    64
 62
     7
  6
CONTINUOUS
  0
LAYER
  2
BACKGROUND
 70
    65
 62
    -7
  6
CONTINUOUS
  0
LAYER
  2
0
 70
    64
 62
     7
  6
CONTINUOUS
  0
ENDTAB
  0
ENDSEC
  0
SECTION
  2
ENTITIES
  0
POLYLINE
  8
FOREGROUND
  6
CONTINUOUS
 66
     1
 40
0.000000
 41
0.000000
  0
VERTEX
  8
FOREGROUND
  6
CONTINUOUS
 10
0.000000
 20
10.999560
  0
VERTEX
  8
FOREGROUND
  6
CONTINUOUS
 10
8.499920
 20
10.999560
  0
VERTEX
  8
FOREGROUND
  6
CONTINUOUS
 10
8.499920
 20
-0.000440
  0
VERTEX
  8
FOREGROUND
  6
CONTINUOUS
 10
0.000000
 20
-0.000440
  0
VERTEX
  8
FOREGROUND
  6
CONTINUOUS
 10
0.000000
 20
10.999560
  0
SEQEND
  8
0
  0
POLYLINE
  8
FOREGROUND
  6
CONTINUOUS
 66
     1
 40
0.000000
 41
0.000000
  0
VERTEX
  8
FOREGROUND
  6
CONTINUOUS
 10
0.000000
 20
10.999560
  0
VERTEX
  8
FOREGROUND
  6
CONTINUOUS
 10
8.499920
 20
10.999560
  0
VERTEX
  8
FOREGROUND
  6
CONTINUOUS
 10
8.499920
 20
-0.000440
  0
VERTEX
  8
FOREGROUND
  6
CONTINUOUS
 10
0.000000
 20
-0.000440
  0
VERTEX
  8
FOREGROUND
  6
CONTINUOUS
 10
0.000000
 20
10.999560
  0
SEQEND
  8
0
  0
POLYLINE
  8
0
  6
CONTINUOUS
 66
     1
 40
0.014080
 41
0.014080
  0
VERTEX
  8
0
  6
CONTINUOUS
 10
5.916680
 20
5.730120
  0
VERTEX
  8
0
  6
CONTINUOUS
 10
5.834840
 20
5.731000
  0
VERTEX
  8
0
  6
CONTINUOUS
 10
5.756520
 20
5.734520
  0
VERTEX
  8
0
  6
CONTINUOUS
 10
5.681720
 20
5.742880
  0
VERTEX
  8
0
  6
CONTINUOUS
 10
5.611320
 20
5.758280
  0
VERTEX
  8
0
  6
CONTINUOUS
 10
5.561600
 20
5.775440
  0
VERTEX
  8
0
  6
CONTINUOUS
 10
5.529920
 20
5.790400
  0
VERTEX
  8
0
  6
CONTINUOUS
 10
5.484600
 20
5.818120
  0
VERTEX
  8
0
  6
CONTINUOUS
 10
5.442800
 20
5.852880
  0
VERTEX
  8
0
  6
CONTINUOUS
 10
5.403640
 20
5.896000
  0
VERTEX
  8
0
  6
CONTINUOUS
 10
5.356560
 20
5.963320
  0
VERTEX
  8
0
  6
CONTINUOUS
 10
5.320480
 20
6.006440
  0
VERTEX
  8
0
  6
CONTINUOUS
 10
5.283520
 20
6.040760
  0
VERTEX
  8
0
  6
CONTINUOUS
 10
5.246120
 20
6.068040
  0
VERTEX
  8
0
  6
CONTINUOUS
 10
5.208280
 20
6.088280
  0
VERTEX
  8
0
  6
CONTINUOUS
 10
5.183640
 20
6.098840
  0
VERTEX
  8
0
  6
CONTINUOUS
 10
5.159000
 20
6.107200
  0
VERTEX
  8
0
  6
CONTINUOUS
 10
5.110600
 20
6.118200
  0
VERTEX
  8
0
  6
CONTINUOUS
 10
5.064840
 20
6.123040
  0
VERTEX
  8
0
  6
CONTINUOUS
 10
5.021720
 20
6.124800
  0
VERTEX
  8
0
  6
CONTINUOUS
 10
5.001920
 20
6.124800
  0
VERTEX
  8
0
  6
CONTINUOUS
 10
5.001920
 20
6.284080
  0
VERTEX
  8
0
  6
CONTINUOUS
 10
4.556640
 20
6.284080
  0
VERTEX
  8
0
  6
CONTINUOUS
 10
4.556640
 20
5.470520
  0
VERTEX
  8
0
  6
CONTINUOUS
 10
5.920640
 20
5.470520
  0
VERTEX
  8
0
  6
CONTINUOUS
 10
5.920640
 20
5.730120
  0
VERTEX
  8
0
  6
CONTINUOUS
 10
5.916680
 20
5.730120
  0
SEQEND
  8
0
  0
TEXT
  8
0
 10
4.886640
 20
5.202560
 40
0.138127
  1
BA  1029
 41
1.000000
  7
SN0
 71
     0
 72
     5
 11
5.569562
 21
5.202560
  0
TEXT
  8
0
 10
4.730880
 20
5.011160
 40
0.138127
  1
3/4" x 1-5/16"
 41
1.000000
  7
SN0
 71
     0
 72
     5
 11
5.724220
 21
5.011160
  0
TEXT
  8
0
 10
2.915000
 20
4.706240
 40
0.138127
  1
BA  1029
 41
1.000000
  7
SN0
 71
     0
 72
     5
 11
3.597922
 21
4.706240
  0
TEXT
  8
0
 10
2.759240
 20
4.514400
 40
0.138127
  1
3/4" x 1-5/16"
 41
1.000000
  7
SN0
 71
     0
 72
     5
 11
3.752580
 21
4.514400
  0
SOLID
  8
0
 62
    15
 10
3.399880
 20
5.431800
 11
3.396360
 21
6.174520
 12
3.423640
 22
5.397920
 13
3.420120
 23
6.140640
  0
POLYLINE
  8
0
  6
CONTINUOUS
 66
     1
 40
0.000000
 41
0.000000
  0
VERTEX
  8
0
  6
CONTINUOUS
 10
3.399880
 20
5.431800
  0
VERTEX
  8
0
  6
CONTINUOUS
 10
3.396360
 20
6.174520
  0
VERTEX
  8
0
  6
CONTINUOUS
 10
3.420120
 20
6.140640
  0
VERTEX
  8
0
  6
CONTINUOUS
 10
3.423640
 20
5.397920
  0
VERTEX
  8
0
  6
CONTINUOUS
 10
3.399880
 20
5.431800
  0
SEQEND
  8
0
  0
SOLID
  8
0
 62
    15
 10
3.021480
 20
5.626720
 11
3.017960
 21
6.369440
 12
3.062400
 22
5.626280
 13
3.058880
 23
6.369000
  0
POLYLINE
  8
0
  6
CONTINUOUS
 66
     1
 40
0.000000
 41
0.000000
  0
VERTEX
  8
0
  6
CONTINUOUS
 10
3.021480
 20
5.626720
  0
VERTEX
  8
0
  6
CONTINUOUS
 10
3.017960
 20
6.369440
  0
VERTEX
  8
0
  6
CONTINUOUS
 10
3.058880
 20
6.369000
  0
VERTEX
  8
0
  6
CONTINUOUS
 10
3.062400
 20
5.626280
  0
VERTEX
  8
0
  6
CONTINUOUS
 10
3.021480
 20
5.626720
  0
SEQEND
  8
0
  0
SOLID
  8
0
 62
    15
 10
2.576200
 20
4.972440
 11
2.572680
 21
5.715160
 12
2.576200
 22
5.786000
 13
2.572680
 23
6.528720
  0
POLYLINE
  8
0
  6
CONTINUOUS
 66
     1
 40
0.000000
 41
0.000000
  0
VERTEX
  8
0
  6
CONTINUOUS
 10
2.576200
 20
4.972440
  0
VERTEX
  8
0
  6
CONTINUOUS
 10
2.572680
 20
5.715160
  0
VERTEX
  8
0
  6
CONTINUOUS
 10
2.572680
 20
6.528720
  0
VERTEX
  8
0
  6
CONTINUOUS
 10
2.576200
 20
5.786000
  0
VERTEX
  8
0
  6
CONTINUOUS
 10
2.576200
 20
4.972440
  0
SEQEND
  8
0
  0
SOLID
  8
0
 62
    15
 10
3.062400
 20
5.626280
 11
3.058880
 21
6.369000
 12
3.106840
 22
5.623200
 13
3.103320
 23
6.365920
  0
POLYLINE
  8
0
  6
CONTINUOUS
 66
     1
 40
0.000000
 41
0.000000
  0
VERTEX
  8
0
  6
CONTINUOUS
 10
3.062400
 20
5.626280
  0
VERTEX
  8
0
  6
CONTINUOUS
 10
3.058880
 20
6.369000
  0
VERTEX
  8
0
  6
CONTINUOUS
 10
3.103320
 20
6.365920
  0
VERTEX
  8
0
  6
CONTINUOUS
 10
3.106840
 20
5.623200
  0
VERTEX
  8
0
  6
CONTINUOUS
 10
3.062400
 20
5.626280
  0
SEQEND
  8
0
  0
SOLID
  8
0
 62
    15
 10
3.106840
 20
5.623200
 11
3.103320
 21
6.365920
 12
3.154360
 22
5.615280
 13
3.150840
 23
6.358000
  0
POLYLINE
  8
0
  6
CONTINUOUS
 66
     1
 40
0.000000
 41
0.000000
  0
VERTEX
  8
0
  6
CONTINUOUS
 10
3.106840
 20
5.623200
  0
VERTEX
  8
0
  6
CONTINUOUS
 10
3.103320
 20
6.365920
  0
VERTEX
  8
0
  6
CONTINUOUS
 10
3.150840
 20
6.358000
  0
VERTEX
  8
0
  6
CONTINUOUS
 10
3.154360
 20
5.615280
  0
VERTEX
  8
0
  6
CONTINUOUS
 10
3.106840
 20
5.623200
  0
SEQEND
  8
0
  0
SOLID
  8
0
 62
    15
 10
3.154360
 20
5.615280
 11
3.150840
 21
6.358000
 12
3.203200
 22
5.600760
 13
3.199680
 23
6.343480
  0
POLYLINE
  8
0
  6
CONTINUOUS
 66
     1
 40
0.000000
 41
0.000000
  0
VERTEX
  8
0
  6
CONTINUOUS
 10
3.154360
 20
5.615280
  0
VERTEX
  8
0
  6
CONTINUOUS
 10
3.150840
 20
6.358000
  0
VERTEX
  8
0
  6
CONTINUOUS
 10
3.199680
 20
6.343480
  0
VERTEX
  8
0
  6
CONTINUOUS
 10
3.203200
 20
5.600760
  0
VERTEX
  8
0
  6
CONTINUOUS
 10
3.154360
 20
5.615280
  0
SEQEND
  8
0
  0
SOLID
  8
0
 62
    15
 10
3.203200
 20
5.600760
 11
3.199680
 21
6.343480
 12
3.253360
 22
5.577440
 13
3.249840
 23
6.320160
  0
POLYLINE
  8
0
  6
CONTINUOUS
 66
     1
 40
0.000000
 41
0.000000
  0
VERTEX
  8
0
  6
CONTINUOUS
 10
3.203200
 20
5.600760
  0
VERTEX
  8
0
  6
CONTINUOUS
 10
3.199680
 20
6.343480
  0
VERTEX
  8
0
  6
CONTINUOUS
 10
3.249840
 20
6.320160
  0
VERTEX
  8
0
  6
CONTINUOUS
 10
3.253360
 20
5.577440
  0
VERTEX
  8
0
  6
CONTINUOUS
 10
3.203200
 20
5.600760
  0
SEQEND
  8
0
  0
SOLID
  8
0
 62
    15
 10
3.253360
 20
5.577440
 11
3.249840
 21
6.320160
 12
3.303080
 22
5.542680
 13
3.299560
 23
6.285400
  0
POLYLINE
  8
0
  6
CONTINUOUS
 66
     1
 40
0.000000
 41
0.000000
  0
VERTEX
  8
0
  6
CONTINUOUS
 10
3.253360
 20
5.577440
  0
VERTEX
  8
0
  6
CONTINUOUS
 10
3.249840
 20
6.320160
  0
VERTEX
  8
0
  6
CONTINUOUS
 10
3.299560
 20
6.285400
  0
VERTEX
  8
0
  6
CONTINUOUS
 10
3.303080
 20
5.542680
  0
VERTEX
  8
0
  6
CONTINUOUS
 10
3.253360
 20
5.577440
  0
SEQEND
  8
0
  0
SOLID
  8
0
 62
    15
 10
3.303080
 20
5.542680
 11
3.299560
 21
6.285400
 12
3.352360
 22
5.495160
 13
3.348840
 23
6.237440
  0
POLYLINE
  8
0
  6
CONTINUOUS
 66
     1
 40
0.000000
 41
0.000000
  0
VERTEX
  8
0
  6
CONTINUOUS
 10
3.303080
 20
5.542680
  0
VERTEX
  8
0
  6
CONTINUOUS
 10
3.299560
 20
6.285400
  0
VERTEX
  8
0
  6
CONTINUOUS
 10
3.348840
 20
6.237440
  0
VERTEX
  8
0
  6
CONTINUOUS
 10
3.352360
 20
5.495160
  0
VERTEX
  8
0
  6
CONTINUOUS
 10
3.303080
 20
5.542680
  0
SEQEND
  8
0
  0
SOLID
  8
0
 62
    15
 10
3.352360
 20
5.495160
 11
3.348840
 21
6.237440
 12
3.376560
 22
5.465240
 13
3.372600
 23
6.207960
  0
POLYLINE
  8
0
  6
CONTINUOUS
 66
     1
 40
0.000000
 41
0.000000
  0
VERTEX
  8
0
  6
CONTINUOUS
 10
3.352360
 20
5.495160
  0
VERTEX
  8
0
  6
CONTINUOUS
 10
3.348840
 20
6.237440
  0
VERTEX
  8
0
  6
CONTINUOUS
 10
3.372600
 20
6.207960
  0
VERTEX
  8
0
  6
CONTINUOUS
 10
3.376560
 20
5.465240
  0
VERTEX
  8
0
  6
CONTINUOUS
 10
3.352360
 20
5.495160
  0
SEQEND
  8
0
  0
SOLID
  8
0
 62
    15
 10
3.376560
 20
5.465240
 11
3.372600
 21
6.207960
 12
3.399880
 22
5.431800
 13
3.396360
 23
6.174520
  0
POLYLINE
  8
0
  6
CONTINUOUS
 66
     1
 40
0.000000
 41
0.000000
  0
VERTEX
  8
0
  6
CONTINUOUS
 10
3.376560
 20
5.465240
  0
VERTEX
  8
0
  6
CONTINUOUS
 10
3.372600
 20
6.207960
  0
VERTEX
  8
0
  6
CONTINUOUS
 10
3.396360
 20
6.174520
  0
VERTEX
  8
0
  6
CONTINUOUS
 10
3.399880
 20
5.431800
  0
VERTEX
  8
0
  6
CONTINUOUS
 10
3.376560
 20
5.465240
  0
SEQEND
  8
0
  0
SOLID
  8
0
 62
    15
 10
2.576200
 20
5.786000
 11
2.572680
 21
6.528720
 12
3.021480
 22
5.786000
 13
3.017960
 23
6.528720
  0
POLYLINE
  8
0
  6
CONTINUOUS
 66
     1
 40
0.000000
 41
0.000000
  0
VERTEX
  8
0
  6
CONTINUOUS
 10
2.576200
 20
5.786000
  0
VERTEX
  8
0
  6
CONTINUOUS
 10
2.572680
 20
6.528720
  0
VERTEX
  8
0
  6
CONTINUOUS
 10
3.017960
 20
6.528720
  0
VERTEX
  8
0
  6
CONTINUOUS
 10
3.021480
 20
5.786000
  0
VERTEX
  8
0
  6
CONTINUOUS
 10
2.576200
 20
5.786000
  0
SEQEND
  8
0
  0
SOLID
  8
0
 62
    15
 10
3.423640
 20
5.397920
 11
3.420120
 21
6.140640
 12
3.449160
 22
5.368440
 13
3.445640
 23
6.110720
  0
POLYLINE
  8
0
  6
CONTINUOUS
 66
     1
 40
0.000000
 41
0.000000
  0
VERTEX
  8
0
  6
CONTINUOUS
 10
3.423640
 20
5.397920
  0
VERTEX
  8
0
  6
CONTINUOUS
 10
3.420120
 20
6.140640
  0
VERTEX
  8
0
  6
CONTINUOUS
 10
3.445640
 20
6.110720
  0
VERTEX
  8
0
  6
CONTINUOUS
 10
3.449160
 20
5.368440
  0
VERTEX
  8
0
  6
CONTINUOUS
 10
3.423640
 20
5.397920
  0
SEQEND
  8
0
  0
SOLID
  8
0
 62
    15
 10
3.449160
 20
5.368440
 11
3.445640
 21
6.110720
 12
3.476000
 22
5.342480
 13
3.472480
 23
6.085200
  0
POLYLINE
  8
0
  6
CONTINUOUS
 66
     1
 40
0.000000
 41
0.000000
  0
VERTEX
  8
0
  6
CONTINUOUS
 10
3.449160
 20
5.368440
  0
VERTEX
  8
0
  6
CONTINUOUS
 10
3.445640
 20
6.110720
  0
VERTEX
  8
0
  6
CONTINUOUS
 10
3.472480
 20
6.085200
  0
VERTEX
  8
0
  6
CONTINUOUS
 10
3.476000
 20
5.342480
  0
VERTEX
  8
0
  6
CONTINUOUS
 10
3.449160
 20
5.368440
  0
SEQEND
  8
0
  0
SOLID
  8
0
 62
    15
 10
3.476000
 20
5.342480
 11
3.472480
 21
6.085200
 12
3.504600
 22
5.320040
 13
3.501080
 23
6.062760
  0
POLYLINE
  8
0
  6
CONTINUOUS
 66
     1
 40
0.000000
 41
0.000000
  0
VERTEX
  8
0
  6
CONTINUOUS
 10
3.476000
 20
5.342480
  0
VERTEX
  8
0
  6
CONTINUOUS
 10
3.472480
 20
6.085200
  0
VERTEX
  8
0
  6
CONTINUOUS
 10
3.501080
 20
6.062760
  0
VERTEX
  8
0
  6
CONTINUOUS
 10
3.504600
 20
5.320040
  0
VERTEX
  8
0
  6
CONTINUOUS
 10
3.476000
 20
5.342480
  0
SEQEND
  8
0
  0
SOLID
  8
0
 62
    15
 10
3.504600
 20
5.320040
 11
3.501080
 21
6.062760
 12
3.565320
 22
5.284840
 13
3.561800
 23
6.027560
  0
POLYLINE
  8
0
  6
CONTINUOUS
 66
     1
 40
0.000000
 41
0.000000
  0
VERTEX
  8
0
  6
CONTINUOUS
 10
3.504600
 20
5.320040
  0
VERTEX
  8
0
  6
CONTINUOUS
 10
3.501080
 20
6.062760
  0
VERTEX
  8
0
  6
CONTINUOUS
 10
3.561800
 20
6.027560
  0
VERTEX
  8
0
  6
CONTINUOUS
 10
3.565320
 20
5.284840
  0
VERTEX
  8
0
  6
CONTINUOUS
 10
3.504600
 20
5.320040
  0
SEQEND
  8
0
  0
SOLID
  8
0
 62
    15
 10
3.565320
 20
5.284840
 11
3.561800
 21
6.027560
 12
3.631320
 22
5.260200
 13
3.627360
 23
6.002920
  0
POLYLINE
  8
0
  6
CONTINUOUS
 66
     1
 40
0.000000
 41
0.000000
  0
VERTEX
  8
0
  6
CONTINUOUS
 10
3.565320
 20
5.284840
  0
VERTEX
  8
0
  6
CONTINUOUS
 10
3.561800
 20
6.027560
  0
VERTEX
  8
0
  6
CONTINUOUS
 10
3.627360
 20
6.002920
  0
VERTEX
  8
0
  6
CONTINUOUS
 10
3.631320
 20
5.260200
  0
VERTEX
  8
0
  6
CONTINUOUS
 10
3.565320
 20
5.284840
  0
SEQEND
  8
0
  0
SOLID
  8
0
 62
    15
 10
3.631320
 20
5.260200
 11
3.627360
 21
6.002920
 12
3.701720
 22
5.245240
 13
3.698200
 23
5.987520
  0
POLYLINE
  8
0
  6
CONTINUOUS
 66
     1
 40
0.000000
 41
0.000000
  0
VERTEX
  8
0
  6
CONTINUOUS
 10
3.631320
 20
5.260200
  0
VERTEX
  8
0
  6
CONTINUOUS
 10
3.627360
 20
6.002920
  0
VERTEX
  8
0
  6
CONTINUOUS
 10
3.698200
 20
5.987520
  0
VERTEX
  8
0
  6
CONTINUOUS
 10
3.701720
 20
5.245240
  0
VERTEX
  8
0
  6
CONTINUOUS
 10
3.631320
 20
5.260200
  0
SEQEND
  8
0
  0
SOLID
  8
0
 62
    15
 10
3.701720
 20
5.245240
 11
3.698200
 21
5.987520
 12
3.776080
 22
5.236440
 13
3.772560
 23
5.979160
  0
POLYLINE
  8
0
  6
CONTINUOUS
 66
     1
 40
0.000000
 41
0.000000
  0
VERTEX
  8
0
  6
CONTINUOUS
 10
3.701720
 20
5.245240
  0
VERTEX
  8
0
  6
CONTINUOUS
 10
3.698200
 20
5.987520
  0
VERTEX
  8
0
  6
CONTINUOUS
 10
3.772560
 20
5.979160
  0
VERTEX
  8
0
  6
CONTINUOUS
 10
3.776080
 20
5.236440
  0
VERTEX
  8
0
  6
CONTINUOUS
 10
3.701720
 20
5.245240
  0
SEQEND
  8
0
  0
SOLID
  8
0
 62
    15
 10
3.776080
 20
5.236440
 11
3.772560
 21
5.979160
 12
3.854400
 22
5.232920
 13
3.850880
 23
5.975640
  0
POLYLINE
  8
0
  6
CONTINUOUS
 66
     1
 40
0.000000
 41
0.000000
  0
VERTEX
  8
0
  6
CONTINUOUS
 10
3.776080
 20
5.236440
  0
VERTEX
  8
0
  6
CONTINUOUS
 10
3.772560
 20
5.979160
  0
VERTEX
  8
0
  6
CONTINUOUS
 10
3.850880
 20
5.975640
  0
VERTEX
  8
0
  6
CONTINUOUS
 10
3.854400
 20
5.232920
  0
VERTEX
  8
0
  6
CONTINUOUS
 10
3.776080
 20
5.236440
  0
SEQEND
  8
0
  0
SOLID
  8
0
 62
    15
 10
3.854400
 20
5.232920
 11
3.850880
 21
5.975640
 12
3.936240
 22
5.232040
 13
3.932720
 23
5.974760
  0
POLYLINE
  8
0
  6
CONTINUOUS
 66
     1
 40
0.000000
 41
0.000000
  0
VERTEX
  8
0
  6
CONTINUOUS
 10
3.854400
 20
5.232920
  0
VERTEX
  8
0
  6
CONTINUOUS
 10
3.850880
 20
5.975640
  0
VERTEX
  8
0
  6
CONTINUOUS
 10
3.932720
 20
5.974760
  0
VERTEX
  8
0
  6
CONTINUOUS
 10
3.936240
 20
5.232040
  0
VERTEX
  8
0
  6
CONTINUOUS
 10
3.854400
 20
5.232920
  0
SEQEND
  8
0
  0
SOLID
  8
0
 62
    15
 10
3.936240
 20
5.232040
 11
3.932720
 21
5.974760
 12
3.940200
 22
5.232040
 13
3.936680
 23
5.974760
  0
POLYLINE
  8
0
  6
CONTINUOUS
 66
     1
 40
0.000000
 41
0.000000
  0
VERTEX
  8
0
  6
CONTINUOUS
 10
3.936240
 20
5.232040
  0
VERTEX
  8
0
  6
CONTINUOUS
 10
3.932720
 20
5.974760
  0
VERTEX
  8
0
  6
CONTINUOUS
 10
3.936680
 20
5.974760
  0
VERTEX
  8
0
  6
CONTINUOUS
 10
3.940200
 20
5.232040
  0
VERTEX
  8
0
  6
CONTINUOUS
 10
3.936240
 20
5.232040
  0
SEQEND
  8
0
  0
POLYLINE
  8
0
  6
CONTINUOUS
 66
     1
 40
0.000000
 41
0.000000
  0
VERTEX
  8
0
  6
CONTINUOUS
 10
3.940200
 20
5.232040
  0
VERTEX
  8
0
  6
CONTINUOUS
 10
3.940200
 20
4.972440
  0
VERTEX
  8
0
  6
CONTINUOUS
 10
2.576200
 20
4.972440
  0
VERTEX
  8
0
  6
CONTINUOUS
 10
2.576200
 20
5.786000
  0
VERTEX
  8
0
  6
CONTINUOUS
 10
3.021480
 20
5.786000
  0
VERTEX
  8
0
  6
CONTINUOUS
 10
3.021480
 20
5.626720
  0
VERTEX
  8
0
  6
CONTINUOUS
 10
3.062400
 20
5.626280
  0
VERTEX
  8
0
  6
CONTINUOUS
 10
3.106840
 20
5.623200
  0
VERTEX
  8
0
  6
CONTINUOUS
 10
3.154360
 20
5.615280
  0
VERTEX
  8
0
  6
CONTINUOUS
 10
3.203200
 20
5.600760
  0
VERTEX
  8
0
  6
CONTINUOUS
 10
3.253360
 20
5.577440
  0
VERTEX
  8
0
  6
CONTINUOUS
 10
3.303080
 20
5.542680
  0
VERTEX
  8
0
  6
CONTINUOUS
 10
3.352360
 20
5.495160
  0
VERTEX
  8
0
  6
CONTINUOUS
 10
3.376560
 20
5.465240
  0
VERTEX
  8
0
  6
CONTINUOUS
 10
3.399880
 20
5.431800
  0
VERTEX
  8
0
  6
CONTINUOUS
 10
3.423640
 20
5.397920
  0
VERTEX
  8
0
  6
CONTINUOUS
 10
3.449160
 20
5.368440
  0
VERTEX
  8
0
  6
CONTINUOUS
 10
3.476000
 20
5.342480
  0
VERTEX
  8
0
  6
CONTINUOUS
 10
3.504600
 20
5.320040
  0
VERTEX
  8
0
  6
CONTINUOUS
 10
3.565320
 20
5.284840
  0
VERTEX
  8
0
  6
CONTINUOUS
 10
3.631320
 20
5.260200
  0
VERTEX
  8
0
  6
CONTINUOUS
 10
3.701720
 20
5.245240
  0
VERTEX
  8
0
  6
CONTINUOUS
 10
3.776080
 20
5.236440
  0
VERTEX
  8
0
  6
CONTINUOUS
 10
3.854400
 20
5.232920
  0
VERTEX
  8
0
  6
CONTINUOUS
 10
3.936240
 20
5.232040
  0
VERTEX
  8
0
  6
CONTINUOUS
 10
3.940200
 20
5.232040
  0
SEQEND
  8
0
  0
ENDSEC
  0
EOF
