  0
SECTION
  2
HEADER
  9
$ACADVER
  1
AC1006
  9
$EXTMIN
 10
2.871440
 20
0.843920
  9
$EXTMAX
 10
5.420360
 20
4.302760
  9
$LTSCALE
 40
0.044000
  9
$PDMODE
 70
    35
  9
$PDSIZE
 40
0.035200
  0
ENDSEC
  0
SECTION
  2
TABLES
  0
TABLE
  2
LTYPE
 70
     9
  0
LTYPE
  2
CONTINUOUS
 70
    64
  3
Solid line
 72
    65
 73
     0
 40
0.000000
  0
LTYPE
  2
DASHED
 70
    64
  3
__ __ __ __ __ __ __ __ __ __ __ __ __ __ __
 72
    65
 73
     2
 40
0.000330
 49
0.000220
 49
-0.000110
  0
LTYPE
  2
HIDDEN
 70
    64
  3
 _ _ _ _ _ _ _ _ _ _ _ _ _ _ _ _ _ _ _ _ _ _
 72
    65
 73
     2
 40
0.000165
 49
0.000110
 49
-0.000055
  0
LTYPE
  2
CENTER
 70
    64
  3
____ _ ____ _ ____ _ ____ _ ____ _ ____ _ ____
 72
    65
 73
     4
 40
0.000880
 49
0.000550
 49
-0.000110
 49
0.000110
 49
-0.000110
  0
LTYPE
  2
PHANTOM
 70
    64
  3
_____ _ _ _____ _ _ _____ _ _ _____ _ _ ____
 72
    65
 73
     6
 40
0.001100
 49
0.000550
 49
-0.000110
 49
0.000110
 49
-0.000110
 49
0.000110
 49
-0.000110
  0
LTYPE
  2
DOT
 70
    64
  3
...............................................
 72
    65
 73
     2
 40
0.000110
 49
0.000000
 49
-0.000110
  0
LTYPE
  2
DASHDOT
 70
    64
  3
__ . __ . __ . __ . __ . __ . __ . __ . __ . __
 72
    65
 73
     4
 40
0.000440
 49
0.000220
 49
-0.000110
 49
0.000000
 49
-0.000110
  0
LTYPE
  2
BORDER
 70
    64
  3
__ __ . __ __ . __ __ . __ __ . __ __ . __ __
 72
    65
 73
     6
 40
0.000770
 49
0.000220
 49
-0.000110
 49
0.000220
 49
-0.000110
 49
0.000000
 49
-0.000110
  0
LTYPE
  2
DIVIDE
 70
    64
  3
__ . . __ . . __ . . __ . . __ . . __ . . __
 72
    65
 73
     6
 40
0.000550
 49
0.000220
 49
-0.000110
 49
0.000000
 49
-0.000110
 49
0.000000
 49
-0.000110
  0
LTYPE
  2
DOTDOT
 70
    64
  3
 . .  . .  . .  . .  . .  . . 
 72
    65
 73
     5
 40
0.000242
 49
-0.000110
 49
0.000000
 49
-0.000110
 49
0.000000
 49
-0.000110
  0
ENDTAB
  0
TABLE
  2
STYLE
 70
     2
  0
STYLE
 70
     0
  2
SN0
 40
0.000000
 41
0.000440
 50
0.000000
 71
     0
 42
0.000000
  3
ROMAND
  0
STYLE
 70
    68
  2
SV0
 40
0.000000
 41
0.000440
 50
0.000000
 71
     0
 42
0.000000
  3
ROMAND
  0
ENDTAB
  0
TABLE
  2
LAYER
 70
     3
  0
LAYER
  2
FOREGROUND
 70
    64
 62
     7
  6
CONTINUOUS
  0
LAYER
  2
BACKGROUND
 70
    65
 62
    -7
  6
CONTINUOUS
  0
LAYER
  2
0
 70
    64
 62
     7
  6
CONTINUOUS
  0
ENDTAB
  0
ENDSEC
  0
SECTION
  2
ENTITIES
  0
POLYLINE
  8
FOREGROUND
  6
CONTINUOUS
 66
     1
 40
0.000000
 41
0.000000
  0
VERTEX
  8
FOREGROUND
  6
CONTINUOUS
 10
0.000000
 20
5.146680
  0
VERTEX
  8
FOREGROUND
  6
CONTINUOUS
 10
8.470440
 20
5.146680
  0
VERTEX
  8
FOREGROUND
  6
CONTINUOUS
 10
8.470440
 20
-5.853320
  0
VERTEX
  8
FOREGROUND
  6
CONTINUOUS
 10
0.000000
 20
-5.853320
  0
VERTEX
  8
FOREGROUND
  6
CONTINUOUS
 10
0.000000
 20
5.146680
  0
SEQEND
  8
0
  0
POLYLINE
  8
FOREGROUND
  6
CONTINUOUS
 66
     1
 40
0.000000
 41
0.000000
  0
VERTEX
  8
FOREGROUND
  6
CONTINUOUS
 10
0.000000
 20
5.146680
  0
VERTEX
  8
FOREGROUND
  6
CONTINUOUS
 10
8.470440
 20
5.146680
  0
VERTEX
  8
FOREGROUND
  6
CONTINUOUS
 10
8.470440
 20
-5.853320
  0
VERTEX
  8
FOREGROUND
  6
CONTINUOUS
 10
0.000000
 20
-5.853320
  0
VERTEX
  8
FOREGROUND
  6
CONTINUOUS
 10
0.000000
 20
5.146680
  0
SEQEND
  8
0
  0
SOLID
  8
0
 62
    15
 10
2.915000
 20
2.269080
 11
2.915440
 21
3.014880
 12
3.544200
 22
2.257200
 13
3.544200
 23
3.003000
  0
POLYLINE
  8
0
  6
CONTINUOUS
 66
     1
 40
0.000000
 41
0.000000
  0
VERTEX
  8
0
  6
CONTINUOUS
 10
2.915000
 20
2.269080
  0
VERTEX
  8
0
  6
CONTINUOUS
 10
2.915440
 20
3.014880
  0
VERTEX
  8
0
  6
CONTINUOUS
 10
3.544200
 20
3.003000
  0
VERTEX
  8
0
  6
CONTINUOUS
 10
3.544200
 20
2.257200
  0
VERTEX
  8
0
  6
CONTINUOUS
 10
2.915000
 20
2.269080
  0
SEQEND
  8
0
  0
SOLID
  8
0
 62
    15
 10
3.544200
 20
2.257200
 11
3.544200
 21
3.003000
 12
4.173400
 22
2.252800
 13
4.173400
 23
2.998600
  0
POLYLINE
  8
0
  6
CONTINUOUS
 66
     1
 40
0.000000
 41
0.000000
  0
VERTEX
  8
0
  6
CONTINUOUS
 10
3.544200
 20
2.257200
  0
VERTEX
  8
0
  6
CONTINUOUS
 10
3.544200
 20
3.003000
  0
VERTEX
  8
0
  6
CONTINUOUS
 10
4.173400
 20
2.998600
  0
VERTEX
  8
0
  6
CONTINUOUS
 10
4.173400
 20
2.252800
  0
VERTEX
  8
0
  6
CONTINUOUS
 10
3.544200
 20
2.257200
  0
SEQEND
  8
0
  0
SOLID
  8
0
 62
    15
 10
4.173400
 20
2.252800
 11
4.173400
 21
2.998600
 12
4.796880
 22
2.256760
 13
4.796880
 23
3.002560
  0
POLYLINE
  8
0
  6
CONTINUOUS
 66
     1
 40
0.000000
 41
0.000000
  0
VERTEX
  8
0
  6
CONTINUOUS
 10
4.173400
 20
2.252800
  0
VERTEX
  8
0
  6
CONTINUOUS
 10
4.173400
 20
2.998600
  0
VERTEX
  8
0
  6
CONTINUOUS
 10
4.796880
 20
3.002560
  0
VERTEX
  8
0
  6
CONTINUOUS
 10
4.796880
 20
2.256760
  0
VERTEX
  8
0
  6
CONTINUOUS
 10
4.173400
 20
2.252800
  0
SEQEND
  8
0
  0
SOLID
  8
0
 62
    15
 10
5.417720
 20
2.267760
 11
5.418160
 21
3.013560
 12
5.417720
 22
1.518440
 13
5.418160
 23
2.264680
  0
POLYLINE
  8
0
  6
CONTINUOUS
 66
     1
 40
0.000000
 41
0.000000
  0
VERTEX
  8
0
  6
CONTINUOUS
 10
5.417720
 20
2.267760
  0
VERTEX
  8
0
  6
CONTINUOUS
 10
5.418160
 20
3.013560
  0
VERTEX
  8
0
  6
CONTINUOUS
 10
5.418160
 20
2.264680
  0
VERTEX
  8
0
  6
CONTINUOUS
 10
5.417720
 20
1.518440
  0
VERTEX
  8
0
  6
CONTINUOUS
 10
5.417720
 20
2.267760
  0
SEQEND
  8
0
  0
SOLID
  8
0
 62
    15
 10
4.796880
 20
2.256760
 11
4.796880
 21
3.002560
 12
5.419920
 22
2.268640
 13
5.419920
 23
3.014880
  0
POLYLINE
  8
0
  6
CONTINUOUS
 66
     1
 40
0.000000
 41
0.000000
  0
VERTEX
  8
0
  6
CONTINUOUS
 10
4.796880
 20
2.256760
  0
VERTEX
  8
0
  6
CONTINUOUS
 10
4.796880
 20
3.002560
  0
VERTEX
  8
0
  6
CONTINUOUS
 10
5.419920
 20
3.014880
  0
VERTEX
  8
0
  6
CONTINUOUS
 10
5.419920
 20
2.268640
  0
VERTEX
  8
0
  6
CONTINUOUS
 10
4.796880
 20
2.256760
  0
SEQEND
  8
0
  0
POLYLINE
  8
0
  6
CONTINUOUS
 66
     1
 40
0.000000
 41
0.000000
  0
VERTEX
  8
0
  6
CONTINUOUS
 10
5.417720
 20
2.267760
  0
VERTEX
  8
0
  6
CONTINUOUS
 10
5.417720
 20
1.518440
  0
VERTEX
  8
0
  6
CONTINUOUS
 10
2.915880
 20
1.518440
  0
VERTEX
  8
0
  6
CONTINUOUS
 10
2.915880
 20
2.267760
  0
VERTEX
  8
0
  6
CONTINUOUS
 10
2.915000
 20
2.269080
  0
VERTEX
  8
0
  6
CONTINUOUS
 10
3.544200
 20
2.257200
  0
VERTEX
  8
0
  6
CONTINUOUS
 10
4.173400
 20
2.252800
  0
VERTEX
  8
0
  6
CONTINUOUS
 10
4.796880
 20
2.256760
  0
VERTEX
  8
0
  6
CONTINUOUS
 10
5.419920
 20
2.268640
  0
VERTEX
  8
0
  6
CONTINUOUS
 10
5.417720
 20
2.267760
  0
SEQEND
  8
0
  0
TEXT
  8
0
 10
3.825360
 20
1.272040
 40
0.138085
  1
BA  1027
 41
1.000000
  7
SN0
 71
     0
 72
     5
 11
4.507443
 21
1.272040
  0
TEXT
  8
0
 10
3.763760
 20
1.080200
 40
0.138085
  1
48" Radius
 41
1.000000
  7
SN0
 71
     0
 72
     5
 11
4.568805
 21
1.080200
  0
TEXT
  8
0
 10
3.800720
 20
0.888800
 40
0.138085
  1
2-1/2" Arc
 41
1.000000
  7
SN0
 71
     0
 72
     5
 11
4.531400
 21
0.888800
  0
POLYLINE
  8
0
  6
CONTINUOUS
 66
     1
 40
0.014080
 41
0.014080
  0
VERTEX
  8
0
  6
CONTINUOUS
 10
5.382960
 20
4.294840
  0
VERTEX
  8
0
  6
CONTINUOUS
 10
5.071440
 20
4.287800
  0
VERTEX
  8
0
  6
CONTINUOUS
 10
4.759920
 20
4.282960
  0
VERTEX
  8
0
  6
CONTINUOUS
 10
4.448400
 20
4.279880
  0
VERTEX
  8
0
  6
CONTINUOUS
 10
4.136440
 20
4.279000
  0
VERTEX
  8
0
  6
CONTINUOUS
 10
3.821840
 20
4.279880
  0
VERTEX
  8
0
  6
CONTINUOUS
 10
3.507680
 20
4.282960
  0
VERTEX
  8
0
  6
CONTINUOUS
 10
3.193080
 20
4.288240
  0
VERTEX
  8
0
  6
CONTINUOUS
 10
2.878480
 20
4.295280
  0
VERTEX
  8
0
  6
CONTINUOUS
 10
2.878920
 20
4.293520
  0
VERTEX
  8
0
  6
CONTINUOUS
 10
2.878920
 20
3.544640
  0
VERTEX
  8
0
  6
CONTINUOUS
 10
5.381200
 20
3.544640
  0
VERTEX
  8
0
  6
CONTINUOUS
 10
5.381200
 20
4.293520
  0
VERTEX
  8
0
  6
CONTINUOUS
 10
5.382960
 20
4.294840
  0
SEQEND
  8
0
  0
TEXT
  8
0
 10
3.799400
 20
3.820960
 40
0.138085
  1
BA  1027
 41
1.000000
  7
SN0
 71
     0
 72
     5
 11
4.481483
 21
3.820960
  0
TEXT
  8
0
 10
3.689840
 20
3.629120
 40
0.138085
  1
3/4" x 2-1/2"
 41
1.000000
  7
SN0
 71
     0
 72
     5
 11
4.589484
 21
3.629120
  0
ENDSEC
  0
EOF
