  0
SECTION
  2
HEADER
  9
$ACADVER
  1
AC1006
  9
$EXTMIN
 10
1.474880
 20
4.187480
  9
$EXTMAX
 10
7.025040
 20
6.812080
  9
$LTSCALE
 40
0.044000
  9
$PDMODE
 70
    35
  9
$PDSIZE
 40
0.035200
  0
ENDSEC
  0
SECTION
  2
TABLES
  0
TABLE
  2
LTYPE
 70
     9
  0
LTYPE
  2
CONTINUOUS
 70
    64
  3
Solid line
 72
    65
 73
     0
 40
0.000000
  0
LTYPE
  2
DASHED
 70
    64
  3
__ __ __ __ __ __ __ __ __ __ __ __ __ __ __
 72
    65
 73
     2
 40
0.000330
 49
0.000220
 49
-0.000110
  0
LTYPE
  2
HIDDEN
 70
    64
  3
 _ _ _ _ _ _ _ _ _ _ _ _ _ _ _ _ _ _ _ _ _ _
 72
    65
 73
     2
 40
0.000165
 49
0.000110
 49
-0.000055
  0
LTYPE
  2
CENTER
 70
    64
  3
____ _ ____ _ ____ _ ____ _ ____ _ ____ _ ____
 72
    65
 73
     4
 40
0.000880
 49
0.000550
 49
-0.000110
 49
0.000110
 49
-0.000110
  0
LTYPE
  2
PHANTOM
 70
    64
  3
_____ _ _ _____ _ _ _____ _ _ _____ _ _ ____
 72
    65
 73
     6
 40
0.001100
 49
0.000550
 49
-0.000110
 49
0.000110
 49
-0.000110
 49
0.000110
 49
-0.000110
  0
LTYPE
  2
DOT
 70
    64
  3
...............................................
 72
    65
 73
     2
 40
0.000110
 49
0.000000
 49
-0.000110
  0
LTYPE
  2
DASHDOT
 70
    64
  3
__ . __ . __ . __ . __ . __ . __ . __ . __ . __
 72
    65
 73
     4
 40
0.000440
 49
0.000220
 49
-0.000110
 49
0.000000
 49
-0.000110
  0
LTYPE
  2
BORDER
 70
    64
  3
__ __ . __ __ . __ __ . __ __ . __ __ . __ __
 72
    65
 73
     6
 40
0.000770
 49
0.000220
 49
-0.000110
 49
0.000220
 49
-0.000110
 49
0.000000
 49
-0.000110
  0
LTYPE
  2
DIVIDE
 70
    64
  3
__ . . __ . . __ . . __ . . __ . . __ . . __
 72
    65
 73
     6
 40
0.000550
 49
0.000220
 49
-0.000110
 49
0.000000
 49
-0.000110
 49
0.000000
 49
-0.000110
  0
LTYPE
  2
DOTDOT
 70
    64
  3
 . .  . .  . .  . .  . .  . . 
 72
    65
 73
     5
 40
0.000242
 49
-0.000110
 49
0.000000
 49
-0.000110
 49
0.000000
 49
-0.000110
  0
ENDTAB
  0
TABLE
  2
STYLE
 70
     2
  0
STYLE
 70
     0
  2
SN0
 40
0.000000
 41
0.000440
 50
0.000000
 71
     0
 42
0.000000
  3
ROMAND
  0
STYLE
 70
    68
  2
SV0
 40
0.000000
 41
0.000440
 50
0.000000
 71
     0
 42
0.000000
  3
ROMAND
  0
ENDTAB
  0
TABLE
  2
LAYER
 70
     3
  0
LAYER
  2
FOREGROUND
 70
    64
 62
     7
  6
CONTINUOUS
  0
LAYER
  2
BACKGROUND
 70
    65
 62
    -7
  6
CONTINUOUS
  0
LAYER
  2
0
 70
    64
 62
     7
  6
CONTINUOUS
  0
ENDTAB
  0
ENDSEC
  0
SECTION
  2
ENTITIES
  0
POLYLINE
  8
FOREGROUND
  6
CONTINUOUS
 66
     1
 40
0.000000
 41
0.000000
  0
VERTEX
  8
FOREGROUND
  6
CONTINUOUS
 10
0.000000
 20
10.999560
  0
VERTEX
  8
FOREGROUND
  6
CONTINUOUS
 10
8.499920
 20
10.999560
  0
VERTEX
  8
FOREGROUND
  6
CONTINUOUS
 10
8.499920
 20
-0.000440
  0
VERTEX
  8
FOREGROUND
  6
CONTINUOUS
 10
0.000000
 20
-0.000440
  0
VERTEX
  8
FOREGROUND
  6
CONTINUOUS
 10
0.000000
 20
10.999560
  0
SEQEND
  8
0
  0
POLYLINE
  8
FOREGROUND
  6
CONTINUOUS
 66
     1
 40
0.000000
 41
0.000000
  0
VERTEX
  8
FOREGROUND
  6
CONTINUOUS
 10
0.000000
 20
10.999560
  0
VERTEX
  8
FOREGROUND
  6
CONTINUOUS
 10
8.499920
 20
10.999560
  0
VERTEX
  8
FOREGROUND
  6
CONTINUOUS
 10
8.499920
 20
-0.000440
  0
VERTEX
  8
FOREGROUND
  6
CONTINUOUS
 10
0.000000
 20
-0.000440
  0
VERTEX
  8
FOREGROUND
  6
CONTINUOUS
 10
0.000000
 20
10.999560
  0
SEQEND
  8
0
  0
SOLID
  8
0
 62
    15
 10
5.498680
 20
6.436760
 11
6.147680
 21
6.811200
 12
5.499560
 22
6.436760
 13
6.148120
 23
6.811640
  0
POLYLINE
  8
0
  6
CONTINUOUS
 66
     1
 40
0.000000
 41
0.000000
  0
VERTEX
  8
0
  6
CONTINUOUS
 10
5.498680
 20
6.436760
  0
VERTEX
  8
0
  6
CONTINUOUS
 10
6.147680
 20
6.811200
  0
VERTEX
  8
0
  6
CONTINUOUS
 10
6.148120
 20
6.811640
  0
VERTEX
  8
0
  6
CONTINUOUS
 10
5.499560
 20
6.436760
  0
VERTEX
  8
0
  6
CONTINUOUS
 10
5.498680
 20
6.436760
  0
SEQEND
  8
0
  0
SOLID
  8
0
 62
    15
 10
5.499560
 20
6.436760
 11
6.148120
 21
6.811640
 12
6.376040
 22
6.436760
 13
7.024600
 23
6.811640
  0
POLYLINE
  8
0
  6
CONTINUOUS
 66
     1
 40
0.000000
 41
0.000000
  0
VERTEX
  8
0
  6
CONTINUOUS
 10
5.499560
 20
6.436760
  0
VERTEX
  8
0
  6
CONTINUOUS
 10
6.148120
 20
6.811640
  0
VERTEX
  8
0
  6
CONTINUOUS
 10
7.024600
 20
6.811640
  0
VERTEX
  8
0
  6
CONTINUOUS
 10
6.376040
 20
6.436760
  0
VERTEX
  8
0
  6
CONTINUOUS
 10
5.499560
 20
6.436760
  0
SEQEND
  8
0
  0
SOLID
  8
0
 62
    15
 10
5.498240
 20
5.613520
 11
6.146800
 21
5.987960
 12
5.771480
 22
5.613520
 13
6.420040
 23
5.987960
  0
POLYLINE
  8
0
  6
CONTINUOUS
 66
     1
 40
0.000000
 41
0.000000
  0
VERTEX
  8
0
  6
CONTINUOUS
 10
5.498240
 20
5.613520
  0
VERTEX
  8
0
  6
CONTINUOUS
 10
6.146800
 20
5.987960
  0
VERTEX
  8
0
  6
CONTINUOUS
 10
6.420040
 20
5.987960
  0
VERTEX
  8
0
  6
CONTINUOUS
 10
5.771480
 20
5.613520
  0
VERTEX
  8
0
  6
CONTINUOUS
 10
5.498240
 20
5.613520
  0
SEQEND
  8
0
  0
SOLID
  8
0
 62
    15
 10
6.376040
 20
6.436760
 11
7.024600
 21
6.811640
 12
6.376040
 22
4.683800
 13
7.024600
 23
5.058240
  0
POLYLINE
  8
0
  6
CONTINUOUS
 66
     1
 40
0.000000
 41
0.000000
  0
VERTEX
  8
0
  6
CONTINUOUS
 10
6.376040
 20
6.436760
  0
VERTEX
  8
0
  6
CONTINUOUS
 10
7.024600
 20
6.811640
  0
VERTEX
  8
0
  6
CONTINUOUS
 10
7.024600
 20
5.058240
  0
VERTEX
  8
0
  6
CONTINUOUS
 10
6.376040
 20
4.683800
  0
VERTEX
  8
0
  6
CONTINUOUS
 10
6.376040
 20
6.436760
  0
SEQEND
  8
0
  0
POLYLINE
  8
0
  6
CONTINUOUS
 66
     1
 40
0.000000
 41
0.000000
  0
VERTEX
  8
0
  6
CONTINUOUS
 10
5.498240
 20
4.686000
  0
VERTEX
  8
0
  6
CONTINUOUS
 10
5.498240
 20
5.613520
  0
VERTEX
  8
0
  6
CONTINUOUS
 10
5.771480
 20
5.613520
  0
VERTEX
  8
0
  6
CONTINUOUS
 10
5.771480
 20
5.864760
  0
VERTEX
  8
0
  6
CONTINUOUS
 10
5.736720
 20
5.871800
  0
VERTEX
  8
0
  6
CONTINUOUS
 10
5.708560
 20
5.890720
  0
VERTEX
  8
0
  6
CONTINUOUS
 10
5.686560
 20
5.918440
  0
VERTEX
  8
0
  6
CONTINUOUS
 10
5.669840
 20
5.951880
  0
VERTEX
  8
0
  6
CONTINUOUS
 10
5.650040
 20
6.022280
  0
VERTEX
  8
0
  6
CONTINUOUS
 10
5.644760
 20
6.053080
  0
VERTEX
  8
0
  6
CONTINUOUS
 10
5.641680
 20
6.076840
  0
VERTEX
  8
0
  6
CONTINUOUS
 10
5.641240
 20
6.081680
  0
VERTEX
  8
0
  6
CONTINUOUS
 10
5.639480
 20
6.100600
  0
VERTEX
  8
0
  6
CONTINUOUS
 10
5.635960
 20
6.133160
  0
VERTEX
  8
0
  6
CONTINUOUS
 10
5.629360
 20
6.170120
  0
VERTEX
  8
0
  6
CONTINUOUS
 10
5.617920
 20
6.207960
  0
VERTEX
  8
0
  6
CONTINUOUS
 10
5.600760
 20
6.243600
  0
VERTEX
  8
0
  6
CONTINUOUS
 10
5.576120
 20
6.273520
  0
VERTEX
  8
0
  6
CONTINUOUS
 10
5.542680
 20
6.294200
  0
VERTEX
  8
0
  6
CONTINUOUS
 10
5.522440
 20
6.299920
  0
VERTEX
  8
0
  6
CONTINUOUS
 10
5.498680
 20
6.301680
  0
VERTEX
  8
0
  6
CONTINUOUS
 10
5.498680
 20
6.436760
  0
VERTEX
  8
0
  6
CONTINUOUS
 10
5.499560
 20
6.436760
  0
VERTEX
  8
0
  6
CONTINUOUS
 10
6.376040
 20
6.436760
  0
VERTEX
  8
0
  6
CONTINUOUS
 10
6.376040
 20
4.683800
  0
VERTEX
  8
0
  6
CONTINUOUS
 10
5.498240
 20
4.683800
  0
VERTEX
  8
0
  6
CONTINUOUS
 10
5.498240
 20
4.686000
  0
SEQEND
  8
0
  0
SOLID
  8
0
 62
    15
 10
4.737920
 20
6.129640
 11
5.378120
 21
6.498800
 12
4.741440
 22
6.097520
 13
5.382080
 23
6.466680
  0
POLYLINE
  8
0
  6
CONTINUOUS
 66
     1
 40
0.000000
 41
0.000000
  0
VERTEX
  8
0
  6
CONTINUOUS
 10
4.737920
 20
6.129640
  0
VERTEX
  8
0
  6
CONTINUOUS
 10
5.378120
 20
6.498800
  0
VERTEX
  8
0
  6
CONTINUOUS
 10
5.382080
 20
6.466680
  0
VERTEX
  8
0
  6
CONTINUOUS
 10
4.741440
 20
6.097520
  0
VERTEX
  8
0
  6
CONTINUOUS
 10
4.737920
 20
6.129640
  0
SEQEND
  8
0
  0
SOLID
  8
0
 62
    15
 10
4.240280
 20
6.290680
 11
4.880920
 21
6.659840
 12
4.260960
 22
6.296400
 13
4.901600
 23
6.665560
  0
POLYLINE
  8
0
  6
CONTINUOUS
 66
     1
 40
0.000000
 41
0.000000
  0
VERTEX
  8
0
  6
CONTINUOUS
 10
4.240280
 20
6.290680
  0
VERTEX
  8
0
  6
CONTINUOUS
 10
4.880920
 20
6.659840
  0
VERTEX
  8
0
  6
CONTINUOUS
 10
4.901600
 20
6.665560
  0
VERTEX
  8
0
  6
CONTINUOUS
 10
4.260960
 20
6.296400
  0
VERTEX
  8
0
  6
CONTINUOUS
 10
4.240280
 20
6.290680
  0
SEQEND
  8
0
  0
SOLID
  8
0
 62
    15
 10
4.260960
 20
6.296400
 11
4.901600
 21
6.665560
 12
4.284280
 22
6.298600
 13
4.924920
 23
6.667760
  0
POLYLINE
  8
0
  6
CONTINUOUS
 66
     1
 40
0.000000
 41
0.000000
  0
VERTEX
  8
0
  6
CONTINUOUS
 10
4.260960
 20
6.296400
  0
VERTEX
  8
0
  6
CONTINUOUS
 10
4.901600
 20
6.665560
  0
VERTEX
  8
0
  6
CONTINUOUS
 10
4.924920
 20
6.667760
  0
VERTEX
  8
0
  6
CONTINUOUS
 10
4.284280
 20
6.298600
  0
VERTEX
  8
0
  6
CONTINUOUS
 10
4.260960
 20
6.296400
  0
SEQEND
  8
0
  0
SOLID
  8
0
 62
    15
 10
4.600640
 20
6.433240
 11
5.241280
 21
6.802400
 12
4.600640
 22
6.298160
 13
5.241280
 23
6.667320
  0
POLYLINE
  8
0
  6
CONTINUOUS
 66
     1
 40
0.000000
 41
0.000000
  0
VERTEX
  8
0
  6
CONTINUOUS
 10
4.600640
 20
6.433240
  0
VERTEX
  8
0
  6
CONTINUOUS
 10
5.241280
 20
6.802400
  0
VERTEX
  8
0
  6
CONTINUOUS
 10
5.241280
 20
6.667320
  0
VERTEX
  8
0
  6
CONTINUOUS
 10
4.600640
 20
6.298160
  0
VERTEX
  8
0
  6
CONTINUOUS
 10
4.600640
 20
6.433240
  0
SEQEND
  8
0
  0
SOLID
  8
0
 62
    15
 10
4.284280
 20
6.433680
 11
4.924920
 21
6.802840
 12
4.601080
 22
6.433680
 13
5.241720
 23
6.802840
  0
POLYLINE
  8
0
  6
CONTINUOUS
 66
     1
 40
0.000000
 41
0.000000
  0
VERTEX
  8
0
  6
CONTINUOUS
 10
4.284280
 20
6.433680
  0
VERTEX
  8
0
  6
CONTINUOUS
 10
4.924920
 20
6.802840
  0
VERTEX
  8
0
  6
CONTINUOUS
 10
5.241720
 20
6.802840
  0
VERTEX
  8
0
  6
CONTINUOUS
 10
4.601080
 20
6.433680
  0
VERTEX
  8
0
  6
CONTINUOUS
 10
4.284280
 20
6.433680
  0
SEQEND
  8
0
  0
SOLID
  8
0
 62
    15
 10
4.600640
 20
6.298160
 11
5.241280
 21
6.667320
 12
4.623960
 22
6.296400
 13
5.264600
 23
6.665560
  0
POLYLINE
  8
0
  6
CONTINUOUS
 66
     1
 40
0.000000
 41
0.000000
  0
VERTEX
  8
0
  6
CONTINUOUS
 10
4.600640
 20
6.298160
  0
VERTEX
  8
0
  6
CONTINUOUS
 10
5.241280
 20
6.667320
  0
VERTEX
  8
0
  6
CONTINUOUS
 10
5.264600
 20
6.665560
  0
VERTEX
  8
0
  6
CONTINUOUS
 10
4.623960
 20
6.296400
  0
VERTEX
  8
0
  6
CONTINUOUS
 10
4.600640
 20
6.298160
  0
SEQEND
  8
0
  0
SOLID
  8
0
 62
    15
 10
4.623960
 20
6.296400
 11
5.264600
 21
6.665560
 12
4.644640
 22
6.290680
 13
5.285280
 23
6.659840
  0
POLYLINE
  8
0
  6
CONTINUOUS
 66
     1
 40
0.000000
 41
0.000000
  0
VERTEX
  8
0
  6
CONTINUOUS
 10
4.623960
 20
6.296400
  0
VERTEX
  8
0
  6
CONTINUOUS
 10
5.264600
 20
6.665560
  0
VERTEX
  8
0
  6
CONTINUOUS
 10
5.285280
 20
6.659840
  0
VERTEX
  8
0
  6
CONTINUOUS
 10
4.644640
 20
6.290680
  0
VERTEX
  8
0
  6
CONTINUOUS
 10
4.623960
 20
6.296400
  0
SEQEND
  8
0
  0
SOLID
  8
0
 62
    15
 10
4.644640
 20
6.290680
 11
5.285280
 21
6.659840
 12
4.678080
 22
6.270440
 13
5.318720
 23
6.639600
  0
POLYLINE
  8
0
  6
CONTINUOUS
 66
     1
 40
0.000000
 41
0.000000
  0
VERTEX
  8
0
  6
CONTINUOUS
 10
4.644640
 20
6.290680
  0
VERTEX
  8
0
  6
CONTINUOUS
 10
5.285280
 20
6.659840
  0
VERTEX
  8
0
  6
CONTINUOUS
 10
5.318720
 20
6.639600
  0
VERTEX
  8
0
  6
CONTINUOUS
 10
4.678080
 20
6.270440
  0
VERTEX
  8
0
  6
CONTINUOUS
 10
4.644640
 20
6.290680
  0
SEQEND
  8
0
  0
SOLID
  8
0
 62
    15
 10
4.678080
 20
6.270440
 11
5.318720
 21
6.639600
 12
4.702720
 22
6.240520
 13
5.343360
 23
6.609680
  0
POLYLINE
  8
0
  6
CONTINUOUS
 66
     1
 40
0.000000
 41
0.000000
  0
VERTEX
  8
0
  6
CONTINUOUS
 10
4.678080
 20
6.270440
  0
VERTEX
  8
0
  6
CONTINUOUS
 10
5.318720
 20
6.639600
  0
VERTEX
  8
0
  6
CONTINUOUS
 10
5.343360
 20
6.609680
  0
VERTEX
  8
0
  6
CONTINUOUS
 10
4.702720
 20
6.240520
  0
VERTEX
  8
0
  6
CONTINUOUS
 10
4.678080
 20
6.270440
  0
SEQEND
  8
0
  0
SOLID
  8
0
 62
    15
 10
4.702720
 20
6.240520
 11
5.343360
 21
6.609680
 12
4.719880
 22
6.204880
 13
5.360520
 23
6.573600
  0
POLYLINE
  8
0
  6
CONTINUOUS
 66
     1
 40
0.000000
 41
0.000000
  0
VERTEX
  8
0
  6
CONTINUOUS
 10
4.702720
 20
6.240520
  0
VERTEX
  8
0
  6
CONTINUOUS
 10
5.343360
 20
6.609680
  0
VERTEX
  8
0
  6
CONTINUOUS
 10
5.360520
 20
6.573600
  0
VERTEX
  8
0
  6
CONTINUOUS
 10
4.719880
 20
6.204880
  0
VERTEX
  8
0
  6
CONTINUOUS
 10
4.702720
 20
6.240520
  0
SEQEND
  8
0
  0
SOLID
  8
0
 62
    15
 10
4.719880
 20
6.204880
 11
5.360520
 21
6.573600
 12
4.730880
 22
6.166600
 13
5.371520
 23
6.535760
  0
POLYLINE
  8
0
  6
CONTINUOUS
 66
     1
 40
0.000000
 41
0.000000
  0
VERTEX
  8
0
  6
CONTINUOUS
 10
4.719880
 20
6.204880
  0
VERTEX
  8
0
  6
CONTINUOUS
 10
5.360520
 20
6.573600
  0
VERTEX
  8
0
  6
CONTINUOUS
 10
5.371520
 20
6.535760
  0
VERTEX
  8
0
  6
CONTINUOUS
 10
4.730880
 20
6.166600
  0
VERTEX
  8
0
  6
CONTINUOUS
 10
4.719880
 20
6.204880
  0
SEQEND
  8
0
  0
SOLID
  8
0
 62
    15
 10
4.730880
 20
6.166600
 11
5.371520
 21
6.535760
 12
4.737920
 22
6.129640
 13
5.378120
 23
6.498800
  0
POLYLINE
  8
0
  6
CONTINUOUS
 66
     1
 40
0.000000
 41
0.000000
  0
VERTEX
  8
0
  6
CONTINUOUS
 10
4.730880
 20
6.166600
  0
VERTEX
  8
0
  6
CONTINUOUS
 10
5.371520
 20
6.535760
  0
VERTEX
  8
0
  6
CONTINUOUS
 10
5.378120
 20
6.498800
  0
VERTEX
  8
0
  6
CONTINUOUS
 10
4.737920
 20
6.129640
  0
VERTEX
  8
0
  6
CONTINUOUS
 10
4.730880
 20
6.166600
  0
SEQEND
  8
0
  0
SOLID
  8
0
 62
    15
 10
4.011920
 20
5.861680
 11
4.652120
 21
6.230840
 12
4.046680
 22
5.868720
 13
4.687320
 23
6.237880
  0
POLYLINE
  8
0
  6
CONTINUOUS
 66
     1
 40
0.000000
 41
0.000000
  0
VERTEX
  8
0
  6
CONTINUOUS
 10
4.011920
 20
5.861680
  0
VERTEX
  8
0
  6
CONTINUOUS
 10
4.652120
 20
6.230840
  0
VERTEX
  8
0
  6
CONTINUOUS
 10
4.687320
 20
6.237880
  0
VERTEX
  8
0
  6
CONTINUOUS
 10
4.046680
 20
5.868720
  0
VERTEX
  8
0
  6
CONTINUOUS
 10
4.011920
 20
5.861680
  0
SEQEND
  8
0
  0
SOLID
  8
0
 62
    15
 10
4.741440
 20
6.097520
 11
5.382080
 21
6.466680
 12
4.743640
 22
6.073320
 13
5.384280
 23
6.442480
  0
POLYLINE
  8
0
  6
CONTINUOUS
 66
     1
 40
0.000000
 41
0.000000
  0
VERTEX
  8
0
  6
CONTINUOUS
 10
4.741440
 20
6.097520
  0
VERTEX
  8
0
  6
CONTINUOUS
 10
5.382080
 20
6.466680
  0
VERTEX
  8
0
  6
CONTINUOUS
 10
5.384280
 20
6.442480
  0
VERTEX
  8
0
  6
CONTINUOUS
 10
4.743640
 20
6.073320
  0
VERTEX
  8
0
  6
CONTINUOUS
 10
4.741440
 20
6.097520
  0
SEQEND
  8
0
  0
SOLID
  8
0
 62
    15
 10
4.743640
 20
6.073320
 11
5.384280
 21
6.442480
 12
4.746720
 22
6.049560
 13
5.386920
 23
6.418720
  0
POLYLINE
  8
0
  6
CONTINUOUS
 66
     1
 40
0.000000
 41
0.000000
  0
VERTEX
  8
0
  6
CONTINUOUS
 10
4.743640
 20
6.073320
  0
VERTEX
  8
0
  6
CONTINUOUS
 10
5.384280
 20
6.442480
  0
VERTEX
  8
0
  6
CONTINUOUS
 10
5.386920
 20
6.418720
  0
VERTEX
  8
0
  6
CONTINUOUS
 10
4.746720
 20
6.049560
  0
VERTEX
  8
0
  6
CONTINUOUS
 10
4.743640
 20
6.073320
  0
SEQEND
  8
0
  0
SOLID
  8
0
 62
    15
 10
4.746720
 20
6.049560
 11
5.386920
 21
6.418720
 12
4.751560
 22
6.018760
 13
5.392200
 23
6.387920
  0
POLYLINE
  8
0
  6
CONTINUOUS
 66
     1
 40
0.000000
 41
0.000000
  0
VERTEX
  8
0
  6
CONTINUOUS
 10
4.746720
 20
6.049560
  0
VERTEX
  8
0
  6
CONTINUOUS
 10
5.386920
 20
6.418720
  0
VERTEX
  8
0
  6
CONTINUOUS
 10
5.392200
 20
6.387920
  0
VERTEX
  8
0
  6
CONTINUOUS
 10
4.751560
 20
6.018760
  0
VERTEX
  8
0
  6
CONTINUOUS
 10
4.746720
 20
6.049560
  0
SEQEND
  8
0
  0
SOLID
  8
0
 62
    15
 10
4.751560
 20
6.018760
 11
5.392200
 21
6.387920
 12
4.771800
 22
5.948360
 13
5.412440
 23
6.317520
  0
POLYLINE
  8
0
  6
CONTINUOUS
 66
     1
 40
0.000000
 41
0.000000
  0
VERTEX
  8
0
  6
CONTINUOUS
 10
4.751560
 20
6.018760
  0
VERTEX
  8
0
  6
CONTINUOUS
 10
5.392200
 20
6.387920
  0
VERTEX
  8
0
  6
CONTINUOUS
 10
5.412440
 20
6.317520
  0
VERTEX
  8
0
  6
CONTINUOUS
 10
4.771800
 20
5.948360
  0
VERTEX
  8
0
  6
CONTINUOUS
 10
4.751560
 20
6.018760
  0
SEQEND
  8
0
  0
SOLID
  8
0
 62
    15
 10
4.771800
 20
5.948360
 11
5.412440
 21
6.317520
 12
4.788520
 22
5.915360
 13
5.428720
 23
6.284520
  0
POLYLINE
  8
0
  6
CONTINUOUS
 66
     1
 40
0.000000
 41
0.000000
  0
VERTEX
  8
0
  6
CONTINUOUS
 10
4.771800
 20
5.948360
  0
VERTEX
  8
0
  6
CONTINUOUS
 10
5.412440
 20
6.317520
  0
VERTEX
  8
0
  6
CONTINUOUS
 10
5.428720
 20
6.284520
  0
VERTEX
  8
0
  6
CONTINUOUS
 10
4.788520
 20
5.915360
  0
VERTEX
  8
0
  6
CONTINUOUS
 10
4.771800
 20
5.948360
  0
SEQEND
  8
0
  0
SOLID
  8
0
 62
    15
 10
4.285160
 20
5.610880
 11
4.925800
 21
5.979600
 12
4.284280
 22
5.610440
 13
4.924920
 23
5.979160
  0
POLYLINE
  8
0
  6
CONTINUOUS
 66
     1
 40
0.000000
 41
0.000000
  0
VERTEX
  8
0
  6
CONTINUOUS
 10
4.285160
 20
5.610880
  0
VERTEX
  8
0
  6
CONTINUOUS
 10
4.925800
 20
5.979600
  0
VERTEX
  8
0
  6
CONTINUOUS
 10
4.924920
 20
5.979160
  0
VERTEX
  8
0
  6
CONTINUOUS
 10
4.284280
 20
5.610440
  0
VERTEX
  8
0
  6
CONTINUOUS
 10
4.285160
 20
5.610880
  0
SEQEND
  8
0
  0
SOLID
  8
0
 62
    15
 10
4.810520
 20
5.887640
 11
5.450720
 21
6.256800
 12
4.838240
 22
5.868720
 13
5.478880
 23
6.237880
  0
POLYLINE
  8
0
  6
CONTINUOUS
 66
     1
 40
0.000000
 41
0.000000
  0
VERTEX
  8
0
  6
CONTINUOUS
 10
4.810520
 20
5.887640
  0
VERTEX
  8
0
  6
CONTINUOUS
 10
5.450720
 20
6.256800
  0
VERTEX
  8
0
  6
CONTINUOUS
 10
5.478880
 20
6.237880
  0
VERTEX
  8
0
  6
CONTINUOUS
 10
4.838240
 20
5.868720
  0
VERTEX
  8
0
  6
CONTINUOUS
 10
4.810520
 20
5.887640
  0
SEQEND
  8
0
  0
SOLID
  8
0
 62
    15
 10
4.838240
 20
5.868720
 11
5.478880
 21
6.237880
 12
4.873440
 22
5.861680
 13
5.514080
 23
6.230840
  0
POLYLINE
  8
0
  6
CONTINUOUS
 66
     1
 40
0.000000
 41
0.000000
  0
VERTEX
  8
0
  6
CONTINUOUS
 10
4.838240
 20
5.868720
  0
VERTEX
  8
0
  6
CONTINUOUS
 10
5.478880
 20
6.237880
  0
VERTEX
  8
0
  6
CONTINUOUS
 10
5.514080
 20
6.230840
  0
VERTEX
  8
0
  6
CONTINUOUS
 10
4.873440
 20
5.861680
  0
VERTEX
  8
0
  6
CONTINUOUS
 10
4.838240
 20
5.868720
  0
SEQEND
  8
0
  0
SOLID
  8
0
 62
    15
 10
4.600200
 20
5.610000
 11
5.240840
 21
5.979160
 12
4.600200
 22
4.682480
 13
5.240840
 23
5.051640
  0
POLYLINE
  8
0
  6
CONTINUOUS
 66
     1
 40
0.000000
 41
0.000000
  0
VERTEX
  8
0
  6
CONTINUOUS
 10
4.600200
 20
5.610000
  0
VERTEX
  8
0
  6
CONTINUOUS
 10
5.240840
 20
5.979160
  0
VERTEX
  8
0
  6
CONTINUOUS
 10
5.240840
 20
5.051640
  0
VERTEX
  8
0
  6
CONTINUOUS
 10
4.600200
 20
4.682480
  0
VERTEX
  8
0
  6
CONTINUOUS
 10
4.600200
 20
5.610000
  0
SEQEND
  8
0
  0
SOLID
  8
0
 62
    15
 10
4.873440
 20
5.861680
 11
5.514080
 21
6.230840
 12
4.873440
 22
5.610000
 13
5.514080
 23
5.979160
  0
POLYLINE
  8
0
  6
CONTINUOUS
 66
     1
 40
0.000000
 41
0.000000
  0
VERTEX
  8
0
  6
CONTINUOUS
 10
4.873440
 20
5.861680
  0
VERTEX
  8
0
  6
CONTINUOUS
 10
5.514080
 20
6.230840
  0
VERTEX
  8
0
  6
CONTINUOUS
 10
5.514080
 20
5.979160
  0
VERTEX
  8
0
  6
CONTINUOUS
 10
4.873440
 20
5.610000
  0
VERTEX
  8
0
  6
CONTINUOUS
 10
4.873440
 20
5.861680
  0
SEQEND
  8
0
  0
SOLID
  8
0
 62
    15
 10
4.788520
 20
5.915360
 11
5.428720
 21
6.284520
 12
4.810520
 22
5.887640
 13
5.450720
 23
6.256800
  0
POLYLINE
  8
0
  6
CONTINUOUS
 66
     1
 40
0.000000
 41
0.000000
  0
VERTEX
  8
0
  6
CONTINUOUS
 10
4.788520
 20
5.915360
  0
VERTEX
  8
0
  6
CONTINUOUS
 10
5.428720
 20
6.284520
  0
VERTEX
  8
0
  6
CONTINUOUS
 10
5.450720
 20
6.256800
  0
VERTEX
  8
0
  6
CONTINUOUS
 10
4.810520
 20
5.887640
  0
VERTEX
  8
0
  6
CONTINUOUS
 10
4.788520
 20
5.915360
  0
SEQEND
  8
0
  0
POLYLINE
  8
0
  6
CONTINUOUS
 66
     1
 40
0.000000
 41
0.000000
  0
VERTEX
  8
0
  6
CONTINUOUS
 10
4.284280
 20
5.610440
  0
VERTEX
  8
0
  6
CONTINUOUS
 10
4.011920
 20
5.610440
  0
VERTEX
  8
0
  6
CONTINUOUS
 10
4.011920
 20
5.861680
  0
VERTEX
  8
0
  6
CONTINUOUS
 10
4.046680
 20
5.868720
  0
VERTEX
  8
0
  6
CONTINUOUS
 10
4.074840
 20
5.887640
  0
VERTEX
  8
0
  6
CONTINUOUS
 10
4.096840
 20
5.915360
  0
VERTEX
  8
0
  6
CONTINUOUS
 10
4.113120
 20
5.948800
  0
VERTEX
  8
0
  6
CONTINUOUS
 10
4.133360
 20
6.019200
  0
VERTEX
  8
0
  6
CONTINUOUS
 10
4.138640
 20
6.050000
  0
VERTEX
  8
0
  6
CONTINUOUS
 10
4.141280
 20
6.073320
  0
VERTEX
  8
0
  6
CONTINUOUS
 10
4.141720
 20
6.078600
  0
VERTEX
  8
0
  6
CONTINUOUS
 10
4.143480
 20
6.097520
  0
VERTEX
  8
0
  6
CONTINUOUS
 10
4.147440
 20
6.129640
  0
VERTEX
  8
0
  6
CONTINUOUS
 10
4.154040
 20
6.166600
  0
VERTEX
  8
0
  6
CONTINUOUS
 10
4.165040
 20
6.204880
  0
VERTEX
  8
0
  6
CONTINUOUS
 10
4.182200
 20
6.240520
  0
VERTEX
  8
0
  6
CONTINUOUS
 10
4.206840
 20
6.270440
  0
VERTEX
  8
0
  6
CONTINUOUS
 10
4.240280
 20
6.290680
  0
VERTEX
  8
0
  6
CONTINUOUS
 10
4.260960
 20
6.296400
  0
VERTEX
  8
0
  6
CONTINUOUS
 10
4.284280
 20
6.298600
  0
VERTEX
  8
0
  6
CONTINUOUS
 10
4.284280
 20
6.433680
  0
VERTEX
  8
0
  6
CONTINUOUS
 10
4.601080
 20
6.433680
  0
VERTEX
  8
0
  6
CONTINUOUS
 10
4.600640
 20
6.433240
  0
VERTEX
  8
0
  6
CONTINUOUS
 10
4.600640
 20
6.298160
  0
VERTEX
  8
0
  6
CONTINUOUS
 10
4.623960
 20
6.296400
  0
VERTEX
  8
0
  6
CONTINUOUS
 10
4.644640
 20
6.290680
  0
VERTEX
  8
0
  6
CONTINUOUS
 10
4.678080
 20
6.270440
  0
VERTEX
  8
0
  6
CONTINUOUS
 10
4.702720
 20
6.240520
  0
VERTEX
  8
0
  6
CONTINUOUS
 10
4.719880
 20
6.204880
  0
VERTEX
  8
0
  6
CONTINUOUS
 10
4.730880
 20
6.166600
  0
VERTEX
  8
0
  6
CONTINUOUS
 10
4.737920
 20
6.129640
  0
VERTEX
  8
0
  6
CONTINUOUS
 10
4.741440
 20
6.097520
  0
VERTEX
  8
0
  6
CONTINUOUS
 10
4.743640
 20
6.073320
  0
VERTEX
  8
0
  6
CONTINUOUS
 10
4.746720
 20
6.049560
  0
VERTEX
  8
0
  6
CONTINUOUS
 10
4.751560
 20
6.018760
  0
VERTEX
  8
0
  6
CONTINUOUS
 10
4.771800
 20
5.948360
  0
VERTEX
  8
0
  6
CONTINUOUS
 10
4.788520
 20
5.915360
  0
VERTEX
  8
0
  6
CONTINUOUS
 10
4.810520
 20
5.887640
  0
VERTEX
  8
0
  6
CONTINUOUS
 10
4.838240
 20
5.868720
  0
VERTEX
  8
0
  6
CONTINUOUS
 10
4.873440
 20
5.861680
  0
VERTEX
  8
0
  6
CONTINUOUS
 10
4.873440
 20
5.610000
  0
VERTEX
  8
0
  6
CONTINUOUS
 10
4.600200
 20
5.610000
  0
VERTEX
  8
0
  6
CONTINUOUS
 10
4.600200
 20
4.682480
  0
VERTEX
  8
0
  6
CONTINUOUS
 10
4.285160
 20
4.682480
  0
VERTEX
  8
0
  6
CONTINUOUS
 10
4.285160
 20
5.610880
  0
VERTEX
  8
0
  6
CONTINUOUS
 10
4.284280
 20
5.610440
  0
SEQEND
  8
0
  0
TEXT
  8
0
 10
4.964960
 20
4.423320
 40
0.138135
  1
BA  1026A & B
 41
1.000000
  7
SN0
 71
     0
 72
     5
 11
6.072772
 21
4.423320
  0
TEXT
  8
0
 10
5.277360
 20
4.231920
 40
0.138135
  1
 1-3/4"
 41
1.000000
  7
SN0
 71
     0
 72
     5
 11
5.762721
 21
4.231920
  0
POLYLINE
  8
0
  6
CONTINUOUS
 66
     1
 40
0.014080
 41
0.014080
  0
VERTEX
  8
0
  6
CONTINUOUS
 10
1.756040
 20
5.921960
  0
VERTEX
  8
0
  6
CONTINUOUS
 10
1.756040
 20
4.993560
  0
VERTEX
  8
0
  6
CONTINUOUS
 10
2.070640
 20
4.993560
  0
VERTEX
  8
0
  6
CONTINUOUS
 10
2.070640
 20
5.921080
  0
VERTEX
  8
0
  6
CONTINUOUS
 10
2.343880
 20
5.921080
  0
VERTEX
  8
0
  6
CONTINUOUS
 10
2.343880
 20
6.172760
  0
VERTEX
  8
0
  6
CONTINUOUS
 10
2.325400
 20
6.174520
  0
VERTEX
  8
0
  6
CONTINUOUS
 10
2.309120
 20
6.179800
  0
VERTEX
  8
0
  6
CONTINUOUS
 10
2.287560
 20
6.193000
  0
VERTEX
  8
0
  6
CONTINUOUS
 10
2.269520
 20
6.211920
  0
VERTEX
  8
0
  6
CONTINUOUS
 10
2.258960
 20
6.226440
  0
VERTEX
  8
0
  6
CONTINUOUS
 10
2.242680
 20
6.259880
  0
VERTEX
  8
0
  6
CONTINUOUS
 10
2.230800
 20
6.295520
  0
VERTEX
  8
0
  6
CONTINUOUS
 10
2.222440
 20
6.330280
  0
VERTEX
  8
0
  6
CONTINUOUS
 10
2.215840
 20
6.373840
  0
VERTEX
  8
0
  6
CONTINUOUS
 10
2.205720
 20
6.459200
  0
VERTEX
  8
0
  6
CONTINUOUS
 10
2.196920
 20
6.497040
  0
VERTEX
  8
0
  6
CONTINUOUS
 10
2.190760
 20
6.515960
  0
VERTEX
  8
0
  6
CONTINUOUS
 10
2.173600
 20
6.551600
  0
VERTEX
  8
0
  6
CONTINUOUS
 10
2.156000
 20
6.574920
  0
VERTEX
  8
0
  6
CONTINUOUS
 10
2.133560
 20
6.593400
  0
VERTEX
  8
0
  6
CONTINUOUS
 10
2.115520
 20
6.602200
  0
VERTEX
  8
0
  6
CONTINUOUS
 10
2.094840
 20
6.607920
  0
VERTEX
  8
0
  6
CONTINUOUS
 10
2.071520
 20
6.609680
  0
VERTEX
  8
0
  6
CONTINUOUS
 10
2.071960
 20
6.744760
  0
VERTEX
  8
0
  6
CONTINUOUS
 10
1.755160
 20
6.744760
  0
VERTEX
  8
0
  6
CONTINUOUS
 10
1.755160
 20
6.609680
  0
VERTEX
  8
0
  6
CONTINUOUS
 10
1.731840
 20
6.607920
  0
VERTEX
  8
0
  6
CONTINUOUS
 10
1.711160
 20
6.602200
  0
VERTEX
  8
0
  6
CONTINUOUS
 10
1.693120
 20
6.593400
  0
VERTEX
  8
0
  6
CONTINUOUS
 10
1.670680
 20
6.574920
  0
VERTEX
  8
0
  6
CONTINUOUS
 10
1.653080
 20
6.551600
  0
VERTEX
  8
0
  6
CONTINUOUS
 10
1.635920
 20
6.515960
  0
VERTEX
  8
0
  6
CONTINUOUS
 10
1.624920
 20
6.478120
  0
VERTEX
  8
0
  6
CONTINUOUS
 10
1.618320
 20
6.441160
  0
VERTEX
  8
0
  6
CONTINUOUS
 10
1.609520
 20
6.361080
  0
VERTEX
  8
0
  6
CONTINUOUS
 10
1.600720
 20
6.313120
  0
VERTEX
  8
0
  6
CONTINUOUS
 10
1.590600
 20
6.277480
  0
VERTEX
  8
0
  6
CONTINUOUS
 10
1.576520
 20
6.242720
  0
VERTEX
  8
0
  6
CONTINUOUS
 10
1.557160
 20
6.211920
  0
VERTEX
  8
0
  6
CONTINUOUS
 10
1.539120
 20
6.193000
  0
VERTEX
  8
0
  6
CONTINUOUS
 10
1.517560
 20
6.179800
  0
VERTEX
  8
0
  6
CONTINUOUS
 10
1.500840
 20
6.174520
  0
VERTEX
  8
0
  6
CONTINUOUS
 10
1.482360
 20
6.172760
  0
VERTEX
  8
0
  6
CONTINUOUS
 10
1.482360
 20
5.921520
  0
VERTEX
  8
0
  6
CONTINUOUS
 10
1.756040
 20
5.921960
  0
SEQEND
  8
0
  0
POLYLINE
  8
0
  6
CONTINUOUS
 66
     1
 40
0.000000
 41
0.000000
  0
VERTEX
  8
0
  6
CONTINUOUS
 10
2.427920
 20
4.998840
  0
VERTEX
  8
0
  6
CONTINUOUS
 10
3.305720
 20
4.998840
  0
VERTEX
  8
0
  6
CONTINUOUS
 10
3.305720
 20
6.752240
  0
VERTEX
  8
0
  6
CONTINUOUS
 10
2.428800
 20
6.751800
  0
VERTEX
  8
0
  6
CONTINUOUS
 10
2.428800
 20
6.617160
  0
VERTEX
  8
0
  6
CONTINUOUS
 10
2.452120
 20
6.615400
  0
VERTEX
  8
0
  6
CONTINUOUS
 10
2.472800
 20
6.609680
  0
VERTEX
  8
0
  6
CONTINUOUS
 10
2.490840
 20
6.600880
  0
VERTEX
  8
0
  6
CONTINUOUS
 10
2.513280
 20
6.582400
  0
VERTEX
  8
0
  6
CONTINUOUS
 10
2.530880
 20
6.559080
  0
VERTEX
  8
0
  6
CONTINUOUS
 10
2.540120
 20
6.541920
  0
VERTEX
  8
0
  6
CONTINUOUS
 10
2.548040
 20
6.523440
  0
VERTEX
  8
0
  6
CONTINUOUS
 10
2.559040
 20
6.485160
  0
VERTEX
  8
0
  6
CONTINUOUS
 10
2.565640
 20
6.448200
  0
VERTEX
  8
0
  6
CONTINUOUS
 10
2.574440
 20
6.368560
  0
VERTEX
  8
0
  6
CONTINUOUS
 10
2.583240
 20
6.320600
  0
VERTEX
  8
0
  6
CONTINUOUS
 10
2.593360
 20
6.284960
  0
VERTEX
  8
0
  6
CONTINUOUS
 10
2.607440
 20
6.250200
  0
VERTEX
  8
0
  6
CONTINUOUS
 10
2.616240
 20
6.233920
  0
VERTEX
  8
0
  6
CONTINUOUS
 10
2.638240
 20
6.206200
  0
VERTEX
  8
0
  6
CONTINUOUS
 10
2.658480
 20
6.191240
  0
VERTEX
  8
0
  6
CONTINUOUS
 10
2.674320
 20
6.184200
  0
VERTEX
  8
0
  6
CONTINUOUS
 10
2.691920
 20
6.180680
  0
VERTEX
  8
0
  6
CONTINUOUS
 10
2.701160
 20
6.180240
  0
VERTEX
  8
0
  6
CONTINUOUS
 10
2.701160
 20
5.928560
  0
VERTEX
  8
0
  6
CONTINUOUS
 10
2.427920
 20
5.928560
  0
VERTEX
  8
0
  6
CONTINUOUS
 10
2.427920
 20
4.998840
  0
SEQEND
  8
0
  0
TEXT
  8
0
 10
1.927640
 20
4.699640
 40
0.138135
  1
BA  1026A & B
 41
1.000000
  7
SN0
 71
     0
 72
     5
 11
3.035452
 21
4.699640
  0
TEXT
  8
0
 10
2.240040
 20
4.507800
 40
0.138135
  1
 1-3/4"
 41
1.000000
  7
SN0
 71
     0
 72
     5
 11
2.725401
 21
4.507800
  0
ENDSEC
  0
EOF
