  0
SECTION
  2
HEADER
  9
$ACADVER
  1
AC1006
  9
$EXTMIN
 10
2.416040
 20
0.593560
  9
$EXTMAX
 10
6.518600
 20
4.599760
  9
$LTSCALE
 40
0.044000
  9
$PDMODE
 70
    35
  9
$PDSIZE
 40
0.035200
  0
ENDSEC
  0
SECTION
  2
TABLES
  0
TABLE
  2
LTYPE
 70
     9
  0
LTYPE
  2
CONTINUOUS
 70
    64
  3
Solid line
 72
    65
 73
     0
 40
0.000000
  0
LTYPE
  2
DASHED
 70
    64
  3
__ __ __ __ __ __ __ __ __ __ __ __ __ __ __
 72
    65
 73
     2
 40
0.000330
 49
0.000220
 49
-0.000110
  0
LTYPE
  2
HIDDEN
 70
    64
  3
 _ _ _ _ _ _ _ _ _ _ _ _ _ _ _ _ _ _ _ _ _ _
 72
    65
 73
     2
 40
0.000165
 49
0.000110
 49
-0.000055
  0
LTYPE
  2
CENTER
 70
    64
  3
____ _ ____ _ ____ _ ____ _ ____ _ ____ _ ____
 72
    65
 73
     4
 40
0.000880
 49
0.000550
 49
-0.000110
 49
0.000110
 49
-0.000110
  0
LTYPE
  2
PHANTOM
 70
    64
  3
_____ _ _ _____ _ _ _____ _ _ _____ _ _ ____
 72
    65
 73
     6
 40
0.001100
 49
0.000550
 49
-0.000110
 49
0.000110
 49
-0.000110
 49
0.000110
 49
-0.000110
  0
LTYPE
  2
DOT
 70
    64
  3
...............................................
 72
    65
 73
     2
 40
0.000110
 49
0.000000
 49
-0.000110
  0
LTYPE
  2
DASHDOT
 70
    64
  3
__ . __ . __ . __ . __ . __ . __ . __ . __ . __
 72
    65
 73
     4
 40
0.000440
 49
0.000220
 49
-0.000110
 49
0.000000
 49
-0.000110
  0
LTYPE
  2
BORDER
 70
    64
  3
__ __ . __ __ . __ __ . __ __ . __ __ . __ __
 72
    65
 73
     6
 40
0.000770
 49
0.000220
 49
-0.000110
 49
0.000220
 49
-0.000110
 49
0.000000
 49
-0.000110
  0
LTYPE
  2
DIVIDE
 70
    64
  3
__ . . __ . . __ . . __ . . __ . . __ . . __
 72
    65
 73
     6
 40
0.000550
 49
0.000220
 49
-0.000110
 49
0.000000
 49
-0.000110
 49
0.000000
 49
-0.000110
  0
LTYPE
  2
DOTDOT
 70
    64
  3
 . .  . .  . .  . .  . .  . . 
 72
    65
 73
     5
 40
0.000242
 49
-0.000110
 49
0.000000
 49
-0.000110
 49
0.000000
 49
-0.000110
  0
ENDTAB
  0
TABLE
  2
STYLE
 70
     2
  0
STYLE
 70
     0
  2
SN0
 40
0.000000
 41
0.000440
 50
0.000000
 71
     0
 42
0.000000
  3
ROMAND
  0
STYLE
 70
    68
  2
SV0
 40
0.000000
 41
0.000440
 50
0.000000
 71
     0
 42
0.000000
  3
ROMAND
  0
ENDTAB
  0
TABLE
  2
LAYER
 70
     3
  0
LAYER
  2
FOREGROUND
 70
    64
 62
     7
  6
CONTINUOUS
  0
LAYER
  2
BACKGROUND
 70
    65
 62
    -7
  6
CONTINUOUS
  0
LAYER
  2
0
 70
    64
 62
     7
  6
CONTINUOUS
  0
ENDTAB
  0
ENDSEC
  0
SECTION
  2
ENTITIES
  0
POLYLINE
  8
FOREGROUND
  6
CONTINUOUS
 66
     1
 40
0.000000
 41
0.000000
  0
VERTEX
  8
FOREGROUND
  6
CONTINUOUS
 10
0.000000
 20
5.193320
  0
VERTEX
  8
FOREGROUND
  6
CONTINUOUS
 10
8.499920
 20
5.193320
  0
VERTEX
  8
FOREGROUND
  6
CONTINUOUS
 10
8.499920
 20
-5.806680
  0
VERTEX
  8
FOREGROUND
  6
CONTINUOUS
 10
0.000000
 20
-5.806680
  0
VERTEX
  8
FOREGROUND
  6
CONTINUOUS
 10
0.000000
 20
5.193320
  0
SEQEND
  8
0
  0
POLYLINE
  8
FOREGROUND
  6
CONTINUOUS
 66
     1
 40
0.000000
 41
0.000000
  0
VERTEX
  8
FOREGROUND
  6
CONTINUOUS
 10
0.000000
 20
5.193320
  0
VERTEX
  8
FOREGROUND
  6
CONTINUOUS
 10
8.499920
 20
5.193320
  0
VERTEX
  8
FOREGROUND
  6
CONTINUOUS
 10
8.499920
 20
-5.806680
  0
VERTEX
  8
FOREGROUND
  6
CONTINUOUS
 10
0.000000
 20
-5.806680
  0
VERTEX
  8
FOREGROUND
  6
CONTINUOUS
 10
0.000000
 20
5.193320
  0
SEQEND
  8
0
  0
SOLID
  8
0
 62
    15
 10
6.395840
 20
1.605120
 11
6.392760
 21
2.336840
 12
6.428840
 22
1.586640
 13
6.425760
 23
2.318360
  0
POLYLINE
  8
0
  6
CONTINUOUS
 66
     1
 40
0.000000
 41
0.000000
  0
VERTEX
  8
0
  6
CONTINUOUS
 10
6.395840
 20
1.605120
  0
VERTEX
  8
0
  6
CONTINUOUS
 10
6.392760
 20
2.336840
  0
VERTEX
  8
0
  6
CONTINUOUS
 10
6.425760
 20
2.318360
  0
VERTEX
  8
0
  6
CONTINUOUS
 10
6.428840
 20
1.586640
  0
VERTEX
  8
0
  6
CONTINUOUS
 10
6.395840
 20
1.605120
  0
SEQEND
  8
0
  0
SOLID
  8
0
 62
    15
 10
4.105640
 20
1.933360
 11
4.102560
 21
2.665080
 12
4.195840
 22
1.843160
 13
4.192760
 23
2.574880
  0
POLYLINE
  8
0
  6
CONTINUOUS
 66
     1
 40
0.000000
 41
0.000000
  0
VERTEX
  8
0
  6
CONTINUOUS
 10
4.105640
 20
1.933360
  0
VERTEX
  8
0
  6
CONTINUOUS
 10
4.102560
 20
2.665080
  0
VERTEX
  8
0
  6
CONTINUOUS
 10
4.192760
 20
2.574880
  0
VERTEX
  8
0
  6
CONTINUOUS
 10
4.195840
 20
1.843160
  0
VERTEX
  8
0
  6
CONTINUOUS
 10
4.105640
 20
1.933360
  0
SEQEND
  8
0
  0
SOLID
  8
0
 62
    15
 10
4.195840
 20
1.843160
 11
4.192760
 21
2.574880
 12
4.291760
 22
1.761320
 13
4.288680
 23
2.493040
  0
POLYLINE
  8
0
  6
CONTINUOUS
 66
     1
 40
0.000000
 41
0.000000
  0
VERTEX
  8
0
  6
CONTINUOUS
 10
4.195840
 20
1.843160
  0
VERTEX
  8
0
  6
CONTINUOUS
 10
4.192760
 20
2.574880
  0
VERTEX
  8
0
  6
CONTINUOUS
 10
4.288680
 20
2.493040
  0
VERTEX
  8
0
  6
CONTINUOUS
 10
4.291760
 20
1.761320
  0
VERTEX
  8
0
  6
CONTINUOUS
 10
4.195840
 20
1.843160
  0
SEQEND
  8
0
  0
SOLID
  8
0
 62
    15
 10
4.291760
 20
1.761320
 11
4.288680
 21
2.493040
 12
4.392520
 22
1.687840
 13
4.389440
 23
2.419560
  0
POLYLINE
  8
0
  6
CONTINUOUS
 66
     1
 40
0.000000
 41
0.000000
  0
VERTEX
  8
0
  6
CONTINUOUS
 10
4.291760
 20
1.761320
  0
VERTEX
  8
0
  6
CONTINUOUS
 10
4.288680
 20
2.493040
  0
VERTEX
  8
0
  6
CONTINUOUS
 10
4.389440
 20
2.419560
  0
VERTEX
  8
0
  6
CONTINUOUS
 10
4.392520
 20
1.687840
  0
VERTEX
  8
0
  6
CONTINUOUS
 10
4.291760
 20
1.761320
  0
SEQEND
  8
0
  0
SOLID
  8
0
 62
    15
 10
4.392520
 20
1.687840
 11
4.389440
 21
2.419560
 12
4.498120
 22
1.623160
 13
4.495040
 23
2.354880
  0
POLYLINE
  8
0
  6
CONTINUOUS
 66
     1
 40
0.000000
 41
0.000000
  0
VERTEX
  8
0
  6
CONTINUOUS
 10
4.392520
 20
1.687840
  0
VERTEX
  8
0
  6
CONTINUOUS
 10
4.389440
 20
2.419560
  0
VERTEX
  8
0
  6
CONTINUOUS
 10
4.495040
 20
2.354880
  0
VERTEX
  8
0
  6
CONTINUOUS
 10
4.498120
 20
1.623160
  0
VERTEX
  8
0
  6
CONTINUOUS
 10
4.392520
 20
1.687840
  0
SEQEND
  8
0
  0
SOLID
  8
0
 62
    15
 10
4.498120
 20
1.623160
 11
4.495040
 21
2.354880
 12
4.607680
 22
1.567720
 13
4.604600
 23
2.299000
  0
POLYLINE
  8
0
  6
CONTINUOUS
 66
     1
 40
0.000000
 41
0.000000
  0
VERTEX
  8
0
  6
CONTINUOUS
 10
4.498120
 20
1.623160
  0
VERTEX
  8
0
  6
CONTINUOUS
 10
4.495040
 20
2.354880
  0
VERTEX
  8
0
  6
CONTINUOUS
 10
4.604600
 20
2.299000
  0
VERTEX
  8
0
  6
CONTINUOUS
 10
4.607680
 20
1.567720
  0
VERTEX
  8
0
  6
CONTINUOUS
 10
4.498120
 20
1.623160
  0
SEQEND
  8
0
  0
SOLID
  8
0
 62
    15
 10
4.607680
 20
1.567720
 11
4.604600
 21
2.299000
 12
4.720760
 22
1.520640
 13
4.718120
 23
2.252360
  0
POLYLINE
  8
0
  6
CONTINUOUS
 66
     1
 40
0.000000
 41
0.000000
  0
VERTEX
  8
0
  6
CONTINUOUS
 10
4.607680
 20
1.567720
  0
VERTEX
  8
0
  6
CONTINUOUS
 10
4.604600
 20
2.299000
  0
VERTEX
  8
0
  6
CONTINUOUS
 10
4.718120
 20
2.252360
  0
VERTEX
  8
0
  6
CONTINUOUS
 10
4.720760
 20
1.520640
  0
VERTEX
  8
0
  6
CONTINUOUS
 10
4.607680
 20
1.567720
  0
SEQEND
  8
0
  0
SOLID
  8
0
 62
    15
 10
4.720760
 20
1.520640
 11
4.718120
 21
2.252360
 12
4.837360
 22
1.482800
 13
4.834280
 23
2.214520
  0
POLYLINE
  8
0
  6
CONTINUOUS
 66
     1
 40
0.000000
 41
0.000000
  0
VERTEX
  8
0
  6
CONTINUOUS
 10
4.720760
 20
1.520640
  0
VERTEX
  8
0
  6
CONTINUOUS
 10
4.718120
 20
2.252360
  0
VERTEX
  8
0
  6
CONTINUOUS
 10
4.834280
 20
2.214520
  0
VERTEX
  8
0
  6
CONTINUOUS
 10
4.837360
 20
1.482800
  0
VERTEX
  8
0
  6
CONTINUOUS
 10
4.720760
 20
1.520640
  0
SEQEND
  8
0
  0
SOLID
  8
0
 62
    15
 10
4.837360
 20
1.482800
 11
4.834280
 21
2.214520
 12
4.956600
 22
1.454200
 13
4.953520
 23
2.185480
  0
POLYLINE
  8
0
  6
CONTINUOUS
 66
     1
 40
0.000000
 41
0.000000
  0
VERTEX
  8
0
  6
CONTINUOUS
 10
4.837360
 20
1.482800
  0
VERTEX
  8
0
  6
CONTINUOUS
 10
4.834280
 20
2.214520
  0
VERTEX
  8
0
  6
CONTINUOUS
 10
4.953520
 20
2.185480
  0
VERTEX
  8
0
  6
CONTINUOUS
 10
4.956600
 20
1.454200
  0
VERTEX
  8
0
  6
CONTINUOUS
 10
4.837360
 20
1.482800
  0
SEQEND
  8
0
  0
SOLID
  8
0
 62
    15
 10
4.956600
 20
1.454200
 11
4.953520
 21
2.185480
 12
5.077600
 22
1.434840
 13
5.074960
 23
2.166560
  0
POLYLINE
  8
0
  6
CONTINUOUS
 66
     1
 40
0.000000
 41
0.000000
  0
VERTEX
  8
0
  6
CONTINUOUS
 10
4.956600
 20
1.454200
  0
VERTEX
  8
0
  6
CONTINUOUS
 10
4.953520
 20
2.185480
  0
VERTEX
  8
0
  6
CONTINUOUS
 10
5.074960
 20
2.166560
  0
VERTEX
  8
0
  6
CONTINUOUS
 10
5.077600
 20
1.434840
  0
VERTEX
  8
0
  6
CONTINUOUS
 10
4.956600
 20
1.454200
  0
SEQEND
  8
0
  0
SOLID
  8
0
 62
    15
 10
5.077600
 20
1.434840
 11
5.074960
 21
2.166560
 12
5.200800
 22
1.424720
 13
5.197720
 23
2.156440
  0
POLYLINE
  8
0
  6
CONTINUOUS
 66
     1
 40
0.000000
 41
0.000000
  0
VERTEX
  8
0
  6
CONTINUOUS
 10
5.077600
 20
1.434840
  0
VERTEX
  8
0
  6
CONTINUOUS
 10
5.074960
 20
2.166560
  0
VERTEX
  8
0
  6
CONTINUOUS
 10
5.197720
 20
2.156440
  0
VERTEX
  8
0
  6
CONTINUOUS
 10
5.200800
 20
1.424720
  0
VERTEX
  8
0
  6
CONTINUOUS
 10
5.077600
 20
1.434840
  0
SEQEND
  8
0
  0
SOLID
  8
0
 62
    15
 10
5.200800
 20
1.424720
 11
5.197720
 21
2.156440
 12
5.324880
 22
1.424720
 13
5.322240
 23
2.156440
  0
POLYLINE
  8
0
  6
CONTINUOUS
 66
     1
 40
0.000000
 41
0.000000
  0
VERTEX
  8
0
  6
CONTINUOUS
 10
5.200800
 20
1.424720
  0
VERTEX
  8
0
  6
CONTINUOUS
 10
5.197720
 20
2.156440
  0
VERTEX
  8
0
  6
CONTINUOUS
 10
5.322240
 20
2.156440
  0
VERTEX
  8
0
  6
CONTINUOUS
 10
5.324880
 20
1.424720
  0
VERTEX
  8
0
  6
CONTINUOUS
 10
5.200800
 20
1.424720
  0
SEQEND
  8
0
  0
SOLID
  8
0
 62
    15
 10
5.324880
 20
1.424720
 11
5.322240
 21
2.156440
 12
5.450280
 22
1.433960
 13
5.447200
 23
2.165680
  0
POLYLINE
  8
0
  6
CONTINUOUS
 66
     1
 40
0.000000
 41
0.000000
  0
VERTEX
  8
0
  6
CONTINUOUS
 10
5.324880
 20
1.424720
  0
VERTEX
  8
0
  6
CONTINUOUS
 10
5.322240
 20
2.156440
  0
VERTEX
  8
0
  6
CONTINUOUS
 10
5.447200
 20
2.165680
  0
VERTEX
  8
0
  6
CONTINUOUS
 10
5.450280
 20
1.433960
  0
VERTEX
  8
0
  6
CONTINUOUS
 10
5.324880
 20
1.424720
  0
SEQEND
  8
0
  0
SOLID
  8
0
 62
    15
 10
5.450280
 20
1.433960
 11
5.447200
 21
2.165680
 12
5.575240
 22
1.453320
 13
5.572600
 23
2.185040
  0
POLYLINE
  8
0
  6
CONTINUOUS
 66
     1
 40
0.000000
 41
0.000000
  0
VERTEX
  8
0
  6
CONTINUOUS
 10
5.450280
 20
1.433960
  0
VERTEX
  8
0
  6
CONTINUOUS
 10
5.447200
 20
2.165680
  0
VERTEX
  8
0
  6
CONTINUOUS
 10
5.572600
 20
2.185040
  0
VERTEX
  8
0
  6
CONTINUOUS
 10
5.575240
 20
1.453320
  0
VERTEX
  8
0
  6
CONTINUOUS
 10
5.450280
 20
1.433960
  0
SEQEND
  8
0
  0
SOLID
  8
0
 62
    15
 10
5.575240
 20
1.453320
 11
5.572600
 21
2.185040
 12
5.700640
 22
1.482800
 13
5.697560
 23
2.214520
  0
POLYLINE
  8
0
  6
CONTINUOUS
 66
     1
 40
0.000000
 41
0.000000
  0
VERTEX
  8
0
  6
CONTINUOUS
 10
5.575240
 20
1.453320
  0
VERTEX
  8
0
  6
CONTINUOUS
 10
5.572600
 20
2.185040
  0
VERTEX
  8
0
  6
CONTINUOUS
 10
5.697560
 20
2.214520
  0
VERTEX
  8
0
  6
CONTINUOUS
 10
5.700640
 20
1.482800
  0
VERTEX
  8
0
  6
CONTINUOUS
 10
5.575240
 20
1.453320
  0
SEQEND
  8
0
  0
SOLID
  8
0
 62
    15
 10
5.700640
 20
1.482800
 11
5.697560
 21
2.214520
 12
5.825160
 22
1.522400
 13
5.822080
 23
2.253680
  0
POLYLINE
  8
0
  6
CONTINUOUS
 66
     1
 40
0.000000
 41
0.000000
  0
VERTEX
  8
0
  6
CONTINUOUS
 10
5.700640
 20
1.482800
  0
VERTEX
  8
0
  6
CONTINUOUS
 10
5.697560
 20
2.214520
  0
VERTEX
  8
0
  6
CONTINUOUS
 10
5.822080
 20
2.253680
  0
VERTEX
  8
0
  6
CONTINUOUS
 10
5.825160
 20
1.522400
  0
VERTEX
  8
0
  6
CONTINUOUS
 10
5.700640
 20
1.482800
  0
SEQEND
  8
0
  0
SOLID
  8
0
 62
    15
 10
5.825160
 20
1.522400
 11
5.822080
 21
2.253680
 12
5.948360
 22
1.571680
 13
5.945720
 23
2.303400
  0
POLYLINE
  8
0
  6
CONTINUOUS
 66
     1
 40
0.000000
 41
0.000000
  0
VERTEX
  8
0
  6
CONTINUOUS
 10
5.825160
 20
1.522400
  0
VERTEX
  8
0
  6
CONTINUOUS
 10
5.822080
 20
2.253680
  0
VERTEX
  8
0
  6
CONTINUOUS
 10
5.945720
 20
2.303400
  0
VERTEX
  8
0
  6
CONTINUOUS
 10
5.948360
 20
1.571680
  0
VERTEX
  8
0
  6
CONTINUOUS
 10
5.825160
 20
1.522400
  0
SEQEND
  8
0
  0
SOLID
  8
0
 62
    15
 10
5.948360
 20
1.571680
 11
5.945720
 21
2.303400
 12
6.073320
 22
1.485880
 13
6.070680
 23
2.217160
  0
POLYLINE
  8
0
  6
CONTINUOUS
 66
     1
 40
0.000000
 41
0.000000
  0
VERTEX
  8
0
  6
CONTINUOUS
 10
5.948360
 20
1.571680
  0
VERTEX
  8
0
  6
CONTINUOUS
 10
5.945720
 20
2.303400
  0
VERTEX
  8
0
  6
CONTINUOUS
 10
6.070680
 20
2.217160
  0
VERTEX
  8
0
  6
CONTINUOUS
 10
6.073320
 20
1.485880
  0
VERTEX
  8
0
  6
CONTINUOUS
 10
5.948360
 20
1.571680
  0
SEQEND
  8
0
  0
SOLID
  8
0
 62
    15
 10
6.073320
 20
1.485880
 11
6.070680
 21
2.217160
 12
6.090040
 22
1.522400
 13
6.087400
 23
2.253680
  0
POLYLINE
  8
0
  6
CONTINUOUS
 66
     1
 40
0.000000
 41
0.000000
  0
VERTEX
  8
0
  6
CONTINUOUS
 10
6.073320
 20
1.485880
  0
VERTEX
  8
0
  6
CONTINUOUS
 10
6.070680
 20
2.217160
  0
VERTEX
  8
0
  6
CONTINUOUS
 10
6.087400
 20
2.253680
  0
VERTEX
  8
0
  6
CONTINUOUS
 10
6.090040
 20
1.522400
  0
VERTEX
  8
0
  6
CONTINUOUS
 10
6.073320
 20
1.485880
  0
SEQEND
  8
0
  0
SOLID
  8
0
 62
    15
 10
6.090040
 20
1.522400
 11
6.087400
 21
2.253680
 12
6.112920
 22
1.553200
 13
6.110280
 23
2.284920
  0
POLYLINE
  8
0
  6
CONTINUOUS
 66
     1
 40
0.000000
 41
0.000000
  0
VERTEX
  8
0
  6
CONTINUOUS
 10
6.090040
 20
1.522400
  0
VERTEX
  8
0
  6
CONTINUOUS
 10
6.087400
 20
2.253680
  0
VERTEX
  8
0
  6
CONTINUOUS
 10
6.110280
 20
2.284920
  0
VERTEX
  8
0
  6
CONTINUOUS
 10
6.112920
 20
1.553200
  0
VERTEX
  8
0
  6
CONTINUOUS
 10
6.090040
 20
1.522400
  0
SEQEND
  8
0
  0
SOLID
  8
0
 62
    15
 10
6.112920
 20
1.553200
 11
6.110280
 21
2.284920
 12
6.141080
 22
1.579160
 13
6.138000
 23
2.310440
  0
POLYLINE
  8
0
  6
CONTINUOUS
 66
     1
 40
0.000000
 41
0.000000
  0
VERTEX
  8
0
  6
CONTINUOUS
 10
6.112920
 20
1.553200
  0
VERTEX
  8
0
  6
CONTINUOUS
 10
6.110280
 20
2.284920
  0
VERTEX
  8
0
  6
CONTINUOUS
 10
6.138000
 20
2.310440
  0
VERTEX
  8
0
  6
CONTINUOUS
 10
6.141080
 20
1.579160
  0
VERTEX
  8
0
  6
CONTINUOUS
 10
6.112920
 20
1.553200
  0
SEQEND
  8
0
  0
SOLID
  8
0
 62
    15
 10
6.141080
 20
1.579160
 11
6.138000
 21
2.310440
 12
6.172760
 22
1.598960
 13
6.170120
 23
2.330680
  0
POLYLINE
  8
0
  6
CONTINUOUS
 66
     1
 40
0.000000
 41
0.000000
  0
VERTEX
  8
0
  6
CONTINUOUS
 10
6.141080
 20
1.579160
  0
VERTEX
  8
0
  6
CONTINUOUS
 10
6.138000
 20
2.310440
  0
VERTEX
  8
0
  6
CONTINUOUS
 10
6.170120
 20
2.330680
  0
VERTEX
  8
0
  6
CONTINUOUS
 10
6.172760
 20
1.598960
  0
VERTEX
  8
0
  6
CONTINUOUS
 10
6.141080
 20
1.579160
  0
SEQEND
  8
0
  0
SOLID
  8
0
 62
    15
 10
6.172760
 20
1.598960
 11
6.170120
 21
2.330680
 12
6.207960
 22
1.613920
 13
6.205320
 23
2.345640
  0
POLYLINE
  8
0
  6
CONTINUOUS
 66
     1
 40
0.000000
 41
0.000000
  0
VERTEX
  8
0
  6
CONTINUOUS
 10
6.172760
 20
1.598960
  0
VERTEX
  8
0
  6
CONTINUOUS
 10
6.170120
 20
2.330680
  0
VERTEX
  8
0
  6
CONTINUOUS
 10
6.205320
 20
2.345640
  0
VERTEX
  8
0
  6
CONTINUOUS
 10
6.207960
 20
1.613920
  0
VERTEX
  8
0
  6
CONTINUOUS
 10
6.172760
 20
1.598960
  0
SEQEND
  8
0
  0
SOLID
  8
0
 62
    15
 10
6.207960
 20
1.613920
 11
6.205320
 21
2.345640
 12
6.245360
 22
1.623160
 13
6.242280
 23
2.354880
  0
POLYLINE
  8
0
  6
CONTINUOUS
 66
     1
 40
0.000000
 41
0.000000
  0
VERTEX
  8
0
  6
CONTINUOUS
 10
6.207960
 20
1.613920
  0
VERTEX
  8
0
  6
CONTINUOUS
 10
6.205320
 20
2.345640
  0
VERTEX
  8
0
  6
CONTINUOUS
 10
6.242280
 20
2.354880
  0
VERTEX
  8
0
  6
CONTINUOUS
 10
6.245360
 20
1.623160
  0
VERTEX
  8
0
  6
CONTINUOUS
 10
6.207960
 20
1.613920
  0
SEQEND
  8
0
  0
SOLID
  8
0
 62
    15
 10
6.245360
 20
1.623160
 11
6.242280
 21
2.354880
 12
6.322360
 22
1.625360
 13
6.319280
 23
2.356640
  0
POLYLINE
  8
0
  6
CONTINUOUS
 66
     1
 40
0.000000
 41
0.000000
  0
VERTEX
  8
0
  6
CONTINUOUS
 10
6.245360
 20
1.623160
  0
VERTEX
  8
0
  6
CONTINUOUS
 10
6.242280
 20
2.354880
  0
VERTEX
  8
0
  6
CONTINUOUS
 10
6.319280
 20
2.356640
  0
VERTEX
  8
0
  6
CONTINUOUS
 10
6.322360
 20
1.625360
  0
VERTEX
  8
0
  6
CONTINUOUS
 10
6.245360
 20
1.623160
  0
SEQEND
  8
0
  0
SOLID
  8
0
 62
    15
 10
6.322360
 20
1.625360
 11
6.319280
 21
2.356640
 12
6.359760
 22
1.617880
 13
6.357120
 23
2.349600
  0
POLYLINE
  8
0
  6
CONTINUOUS
 66
     1
 40
0.000000
 41
0.000000
  0
VERTEX
  8
0
  6
CONTINUOUS
 10
6.322360
 20
1.625360
  0
VERTEX
  8
0
  6
CONTINUOUS
 10
6.319280
 20
2.356640
  0
VERTEX
  8
0
  6
CONTINUOUS
 10
6.357120
 20
2.349600
  0
VERTEX
  8
0
  6
CONTINUOUS
 10
6.359760
 20
1.617880
  0
VERTEX
  8
0
  6
CONTINUOUS
 10
6.322360
 20
1.625360
  0
SEQEND
  8
0
  0
SOLID
  8
0
 62
    15
 10
6.359760
 20
1.617880
 11
6.357120
 21
2.349600
 12
6.395840
 22
1.605120
 13
6.392760
 23
2.336840
  0
POLYLINE
  8
0
  6
CONTINUOUS
 66
     1
 40
0.000000
 41
0.000000
  0
VERTEX
  8
0
  6
CONTINUOUS
 10
6.359760
 20
1.617880
  0
VERTEX
  8
0
  6
CONTINUOUS
 10
6.357120
 20
2.349600
  0
VERTEX
  8
0
  6
CONTINUOUS
 10
6.392760
 20
2.336840
  0
VERTEX
  8
0
  6
CONTINUOUS
 10
6.395840
 20
1.605120
  0
VERTEX
  8
0
  6
CONTINUOUS
 10
6.359760
 20
1.617880
  0
SEQEND
  8
0
  0
SOLID
  8
0
 62
    15
 10
3.959120
 20
1.860320
 11
3.956480
 21
2.591600
 12
4.105640
 22
1.933360
 13
4.102560
 23
2.665080
  0
POLYLINE
  8
0
  6
CONTINUOUS
 66
     1
 40
0.000000
 41
0.000000
  0
VERTEX
  8
0
  6
CONTINUOUS
 10
3.959120
 20
1.860320
  0
VERTEX
  8
0
  6
CONTINUOUS
 10
3.956480
 20
2.591600
  0
VERTEX
  8
0
  6
CONTINUOUS
 10
4.102560
 20
2.665080
  0
VERTEX
  8
0
  6
CONTINUOUS
 10
4.105640
 20
1.933360
  0
VERTEX
  8
0
  6
CONTINUOUS
 10
3.959120
 20
1.860320
  0
SEQEND
  8
0
  0
SOLID
  8
0
 62
    15
 10
6.428840
 20
1.586640
 11
6.425760
 21
2.318360
 12
6.457880
 22
1.562880
 13
6.455240
 23
2.294160
  0
POLYLINE
  8
0
  6
CONTINUOUS
 66
     1
 40
0.000000
 41
0.000000
  0
VERTEX
  8
0
  6
CONTINUOUS
 10
6.428840
 20
1.586640
  0
VERTEX
  8
0
  6
CONTINUOUS
 10
6.425760
 20
2.318360
  0
VERTEX
  8
0
  6
CONTINUOUS
 10
6.455240
 20
2.294160
  0
VERTEX
  8
0
  6
CONTINUOUS
 10
6.457880
 20
1.562880
  0
VERTEX
  8
0
  6
CONTINUOUS
 10
6.428840
 20
1.586640
  0
SEQEND
  8
0
  0
SOLID
  8
0
 62
    15
 10
6.457880
 20
1.562880
 11
6.455240
 21
2.294160
 12
6.482520
 22
1.532960
 13
6.479440
 23
2.264680
  0
POLYLINE
  8
0
  6
CONTINUOUS
 66
     1
 40
0.000000
 41
0.000000
  0
VERTEX
  8
0
  6
CONTINUOUS
 10
6.457880
 20
1.562880
  0
VERTEX
  8
0
  6
CONTINUOUS
 10
6.455240
 20
2.294160
  0
VERTEX
  8
0
  6
CONTINUOUS
 10
6.479440
 20
2.264680
  0
VERTEX
  8
0
  6
CONTINUOUS
 10
6.482520
 20
1.532960
  0
VERTEX
  8
0
  6
CONTINUOUS
 10
6.457880
 20
1.562880
  0
SEQEND
  8
0
  0
SOLID
  8
0
 62
    15
 10
6.501000
 20
1.497760
 11
6.498360
 21
2.229480
 12
6.513320
 22
1.456840
 13
6.510240
 23
2.188560
  0
POLYLINE
  8
0
  6
CONTINUOUS
 66
     1
 40
0.000000
 41
0.000000
  0
VERTEX
  8
0
  6
CONTINUOUS
 10
6.501000
 20
1.497760
  0
VERTEX
  8
0
  6
CONTINUOUS
 10
6.498360
 20
2.229480
  0
VERTEX
  8
0
  6
CONTINUOUS
 10
6.510240
 20
2.188560
  0
VERTEX
  8
0
  6
CONTINUOUS
 10
6.513320
 20
1.456840
  0
VERTEX
  8
0
  6
CONTINUOUS
 10
6.501000
 20
1.497760
  0
SEQEND
  8
0
  0
SOLID
  8
0
 62
    15
 10
6.482520
 20
1.532960
 11
6.479440
 21
2.264680
 12
6.501000
 22
1.497760
 13
6.498360
 23
2.229480
  0
POLYLINE
  8
0
  6
CONTINUOUS
 66
     1
 40
0.000000
 41
0.000000
  0
VERTEX
  8
0
  6
CONTINUOUS
 10
6.482520
 20
1.532960
  0
VERTEX
  8
0
  6
CONTINUOUS
 10
6.479440
 20
2.264680
  0
VERTEX
  8
0
  6
CONTINUOUS
 10
6.498360
 20
2.229480
  0
VERTEX
  8
0
  6
CONTINUOUS
 10
6.501000
 20
1.497760
  0
VERTEX
  8
0
  6
CONTINUOUS
 10
6.482520
 20
1.532960
  0
SEQEND
  8
0
  0
SOLID
  8
0
 62
    15
 10
6.513320
 20
1.456840
 11
6.510240
 21
2.188560
 12
6.517280
 22
1.410200
 13
6.514640
 23
2.141920
  0
POLYLINE
  8
0
  6
CONTINUOUS
 66
     1
 40
0.000000
 41
0.000000
  0
VERTEX
  8
0
  6
CONTINUOUS
 10
6.513320
 20
1.456840
  0
VERTEX
  8
0
  6
CONTINUOUS
 10
6.510240
 20
2.188560
  0
VERTEX
  8
0
  6
CONTINUOUS
 10
6.514640
 20
2.141920
  0
VERTEX
  8
0
  6
CONTINUOUS
 10
6.517280
 20
1.410200
  0
VERTEX
  8
0
  6
CONTINUOUS
 10
6.513320
 20
1.456840
  0
SEQEND
  8
0
  0
SOLID
  8
0
 62
    15
 10
6.517280
 20
1.060840
 11
6.514640
 21
1.792120
 12
6.518160
 22
1.061280
 13
6.515520
 23
1.792560
  0
POLYLINE
  8
0
  6
CONTINUOUS
 66
     1
 40
0.000000
 41
0.000000
  0
VERTEX
  8
0
  6
CONTINUOUS
 10
6.517280
 20
1.060840
  0
VERTEX
  8
0
  6
CONTINUOUS
 10
6.514640
 20
1.792120
  0
VERTEX
  8
0
  6
CONTINUOUS
 10
6.515520
 20
1.792560
  0
VERTEX
  8
0
  6
CONTINUOUS
 10
6.518160
 20
1.061280
  0
VERTEX
  8
0
  6
CONTINUOUS
 10
6.517280
 20
1.060840
  0
SEQEND
  8
0
  0
SOLID
  8
0
 62
    15
 10
2.464000
 20
1.061280
 11
2.461360
 21
1.792560
 12
2.464000
 22
2.315280
 13
2.461360
 23
3.047000
  0
POLYLINE
  8
0
  6
CONTINUOUS
 66
     1
 40
0.000000
 41
0.000000
  0
VERTEX
  8
0
  6
CONTINUOUS
 10
2.464000
 20
1.061280
  0
VERTEX
  8
0
  6
CONTINUOUS
 10
2.461360
 20
1.792560
  0
VERTEX
  8
0
  6
CONTINUOUS
 10
2.461360
 20
3.047000
  0
VERTEX
  8
0
  6
CONTINUOUS
 10
2.464000
 20
2.315280
  0
VERTEX
  8
0
  6
CONTINUOUS
 10
2.464000
 20
1.061280
  0
SEQEND
  8
0
  0
SOLID
  8
0
 62
    15
 10
3.019280
 20
2.157760
 11
3.016200
 21
2.889480
 12
3.144240
 22
2.157760
 13
3.141160
 23
2.889480
  0
POLYLINE
  8
0
  6
CONTINUOUS
 66
     1
 40
0.000000
 41
0.000000
  0
VERTEX
  8
0
  6
CONTINUOUS
 10
3.019280
 20
2.157760
  0
VERTEX
  8
0
  6
CONTINUOUS
 10
3.016200
 20
2.889480
  0
VERTEX
  8
0
  6
CONTINUOUS
 10
3.141160
 20
2.889480
  0
VERTEX
  8
0
  6
CONTINUOUS
 10
3.144240
 20
2.157760
  0
VERTEX
  8
0
  6
CONTINUOUS
 10
3.019280
 20
2.157760
  0
SEQEND
  8
0
  0
SOLID
  8
0
 62
    15
 10
2.464000
 20
2.315280
 11
2.461360
 21
3.047000
 12
3.019280
 22
2.315280
 13
3.016200
 23
3.047000
  0
POLYLINE
  8
0
  6
CONTINUOUS
 66
     1
 40
0.000000
 41
0.000000
  0
VERTEX
  8
0
  6
CONTINUOUS
 10
2.464000
 20
2.315280
  0
VERTEX
  8
0
  6
CONTINUOUS
 10
2.461360
 20
3.047000
  0
VERTEX
  8
0
  6
CONTINUOUS
 10
3.016200
 20
3.047000
  0
VERTEX
  8
0
  6
CONTINUOUS
 10
3.019280
 20
2.315280
  0
VERTEX
  8
0
  6
CONTINUOUS
 10
2.464000
 20
2.315280
  0
SEQEND
  8
0
  0
SOLID
  8
0
 62
    15
 10
3.144240
 20
2.157760
 11
3.141160
 21
2.889480
 12
3.144240
 22
2.158640
 13
3.141160
 23
2.890360
  0
POLYLINE
  8
0
  6
CONTINUOUS
 66
     1
 40
0.000000
 41
0.000000
  0
VERTEX
  8
0
  6
CONTINUOUS
 10
3.144240
 20
2.157760
  0
VERTEX
  8
0
  6
CONTINUOUS
 10
3.141160
 20
2.889480
  0
VERTEX
  8
0
  6
CONTINUOUS
 10
3.141160
 20
2.890360
  0
VERTEX
  8
0
  6
CONTINUOUS
 10
3.144240
 20
2.158640
  0
VERTEX
  8
0
  6
CONTINUOUS
 10
3.144240
 20
2.157760
  0
SEQEND
  8
0
  0
SOLID
  8
0
 62
    15
 10
3.144240
 20
2.158640
 11
3.141160
 21
2.890360
 12
3.175920
 22
2.199560
 13
3.172840
 23
2.930840
  0
POLYLINE
  8
0
  6
CONTINUOUS
 66
     1
 40
0.000000
 41
0.000000
  0
VERTEX
  8
0
  6
CONTINUOUS
 10
3.144240
 20
2.158640
  0
VERTEX
  8
0
  6
CONTINUOUS
 10
3.141160
 20
2.890360
  0
VERTEX
  8
0
  6
CONTINUOUS
 10
3.172840
 20
2.930840
  0
VERTEX
  8
0
  6
CONTINUOUS
 10
3.175920
 20
2.199560
  0
VERTEX
  8
0
  6
CONTINUOUS
 10
3.144240
 20
2.158640
  0
SEQEND
  8
0
  0
SOLID
  8
0
 62
    15
 10
3.175920
 20
2.199560
 11
3.172840
 21
2.930840
 12
3.216840
 22
2.234760
 13
3.213760
 23
2.966040
  0
POLYLINE
  8
0
  6
CONTINUOUS
 66
     1
 40
0.000000
 41
0.000000
  0
VERTEX
  8
0
  6
CONTINUOUS
 10
3.175920
 20
2.199560
  0
VERTEX
  8
0
  6
CONTINUOUS
 10
3.172840
 20
2.930840
  0
VERTEX
  8
0
  6
CONTINUOUS
 10
3.213760
 20
2.966040
  0
VERTEX
  8
0
  6
CONTINUOUS
 10
3.216840
 20
2.234760
  0
VERTEX
  8
0
  6
CONTINUOUS
 10
3.175920
 20
2.199560
  0
SEQEND
  8
0
  0
SOLID
  8
0
 62
    15
 10
3.216840
 20
2.234760
 11
3.213760
 21
2.966040
 12
3.265680
 22
2.263800
 13
3.263040
 23
2.995520
  0
POLYLINE
  8
0
  6
CONTINUOUS
 66
     1
 40
0.000000
 41
0.000000
  0
VERTEX
  8
0
  6
CONTINUOUS
 10
3.216840
 20
2.234760
  0
VERTEX
  8
0
  6
CONTINUOUS
 10
3.213760
 20
2.966040
  0
VERTEX
  8
0
  6
CONTINUOUS
 10
3.263040
 20
2.995520
  0
VERTEX
  8
0
  6
CONTINUOUS
 10
3.265680
 20
2.263800
  0
VERTEX
  8
0
  6
CONTINUOUS
 10
3.216840
 20
2.234760
  0
SEQEND
  8
0
  0
SOLID
  8
0
 62
    15
 10
3.265680
 20
2.263800
 11
3.263040
 21
2.995520
 12
3.321120
 22
2.286240
 13
3.318480
 23
3.017960
  0
POLYLINE
  8
0
  6
CONTINUOUS
 66
     1
 40
0.000000
 41
0.000000
  0
VERTEX
  8
0
  6
CONTINUOUS
 10
3.265680
 20
2.263800
  0
VERTEX
  8
0
  6
CONTINUOUS
 10
3.263040
 20
2.995520
  0
VERTEX
  8
0
  6
CONTINUOUS
 10
3.318480
 20
3.017960
  0
VERTEX
  8
0
  6
CONTINUOUS
 10
3.321120
 20
2.286240
  0
VERTEX
  8
0
  6
CONTINUOUS
 10
3.265680
 20
2.263800
  0
SEQEND
  8
0
  0
SOLID
  8
0
 62
    15
 10
3.321120
 20
2.286240
 11
3.318480
 21
3.017960
 12
3.381400
 22
2.301640
 13
3.378320
 23
3.033360
  0
POLYLINE
  8
0
  6
CONTINUOUS
 66
     1
 40
0.000000
 41
0.000000
  0
VERTEX
  8
0
  6
CONTINUOUS
 10
3.321120
 20
2.286240
  0
VERTEX
  8
0
  6
CONTINUOUS
 10
3.318480
 20
3.017960
  0
VERTEX
  8
0
  6
CONTINUOUS
 10
3.378320
 20
3.033360
  0
VERTEX
  8
0
  6
CONTINUOUS
 10
3.381400
 20
2.301640
  0
VERTEX
  8
0
  6
CONTINUOUS
 10
3.321120
 20
2.286240
  0
SEQEND
  8
0
  0
SOLID
  8
0
 62
    15
 10
3.381400
 20
2.301640
 11
3.378320
 21
3.033360
 12
3.444320
 22
2.309560
 13
3.441680
 23
3.041280
  0
POLYLINE
  8
0
  6
CONTINUOUS
 66
     1
 40
0.000000
 41
0.000000
  0
VERTEX
  8
0
  6
CONTINUOUS
 10
3.381400
 20
2.301640
  0
VERTEX
  8
0
  6
CONTINUOUS
 10
3.378320
 20
3.033360
  0
VERTEX
  8
0
  6
CONTINUOUS
 10
3.441680
 20
3.041280
  0
VERTEX
  8
0
  6
CONTINUOUS
 10
3.444320
 20
2.309560
  0
VERTEX
  8
0
  6
CONTINUOUS
 10
3.381400
 20
2.301640
  0
SEQEND
  8
0
  0
SOLID
  8
0
 62
    15
 10
3.444320
 20
2.309560
 11
3.441680
 21
3.041280
 12
3.509440
 22
2.309560
 13
3.506360
 23
3.041280
  0
POLYLINE
  8
0
  6
CONTINUOUS
 66
     1
 40
0.000000
 41
0.000000
  0
VERTEX
  8
0
  6
CONTINUOUS
 10
3.444320
 20
2.309560
  0
VERTEX
  8
0
  6
CONTINUOUS
 10
3.441680
 20
3.041280
  0
VERTEX
  8
0
  6
CONTINUOUS
 10
3.506360
 20
3.041280
  0
VERTEX
  8
0
  6
CONTINUOUS
 10
3.509440
 20
2.309560
  0
VERTEX
  8
0
  6
CONTINUOUS
 10
3.444320
 20
2.309560
  0
SEQEND
  8
0
  0
SOLID
  8
0
 62
    15
 10
3.509440
 20
2.309560
 11
3.506360
 21
3.041280
 12
3.574560
 22
2.300760
 13
3.571920
 23
3.032480
  0
POLYLINE
  8
0
  6
CONTINUOUS
 66
     1
 40
0.000000
 41
0.000000
  0
VERTEX
  8
0
  6
CONTINUOUS
 10
3.509440
 20
2.309560
  0
VERTEX
  8
0
  6
CONTINUOUS
 10
3.506360
 20
3.041280
  0
VERTEX
  8
0
  6
CONTINUOUS
 10
3.571920
 20
3.032480
  0
VERTEX
  8
0
  6
CONTINUOUS
 10
3.574560
 20
2.300760
  0
VERTEX
  8
0
  6
CONTINUOUS
 10
3.509440
 20
2.309560
  0
SEQEND
  8
0
  0
SOLID
  8
0
 62
    15
 10
3.574560
 20
2.300760
 11
3.571920
 21
3.032480
 12
3.638360
 22
2.282720
 13
3.635280
 23
3.014440
  0
POLYLINE
  8
0
  6
CONTINUOUS
 66
     1
 40
0.000000
 41
0.000000
  0
VERTEX
  8
0
  6
CONTINUOUS
 10
3.574560
 20
2.300760
  0
VERTEX
  8
0
  6
CONTINUOUS
 10
3.571920
 20
3.032480
  0
VERTEX
  8
0
  6
CONTINUOUS
 10
3.635280
 20
3.014440
  0
VERTEX
  8
0
  6
CONTINUOUS
 10
3.638360
 20
2.282720
  0
VERTEX
  8
0
  6
CONTINUOUS
 10
3.574560
 20
2.300760
  0
SEQEND
  8
0
  0
SOLID
  8
0
 62
    15
 10
3.638360
 20
2.282720
 11
3.635280
 21
3.014440
 12
3.699080
 22
2.255440
 13
3.696000
 23
2.987160
  0
POLYLINE
  8
0
  6
CONTINUOUS
 66
     1
 40
0.000000
 41
0.000000
  0
VERTEX
  8
0
  6
CONTINUOUS
 10
3.638360
 20
2.282720
  0
VERTEX
  8
0
  6
CONTINUOUS
 10
3.635280
 20
3.014440
  0
VERTEX
  8
0
  6
CONTINUOUS
 10
3.696000
 20
2.987160
  0
VERTEX
  8
0
  6
CONTINUOUS
 10
3.699080
 20
2.255440
  0
VERTEX
  8
0
  6
CONTINUOUS
 10
3.638360
 20
2.282720
  0
SEQEND
  8
0
  0
SOLID
  8
0
 62
    15
 10
3.699080
 20
2.255440
 11
3.696000
 21
2.987160
 12
3.754960
 22
2.218040
 13
3.752320
 23
2.949320
  0
POLYLINE
  8
0
  6
CONTINUOUS
 66
     1
 40
0.000000
 41
0.000000
  0
VERTEX
  8
0
  6
CONTINUOUS
 10
3.699080
 20
2.255440
  0
VERTEX
  8
0
  6
CONTINUOUS
 10
3.696000
 20
2.987160
  0
VERTEX
  8
0
  6
CONTINUOUS
 10
3.752320
 20
2.949320
  0
VERTEX
  8
0
  6
CONTINUOUS
 10
3.754960
 20
2.218040
  0
VERTEX
  8
0
  6
CONTINUOUS
 10
3.699080
 20
2.255440
  0
SEQEND
  8
0
  0
SOLID
  8
0
 62
    15
 10
3.754960
 20
2.218040
 11
3.752320
 21
2.949320
 12
3.805120
 22
2.169640
 13
3.802480
 23
2.901360
  0
POLYLINE
  8
0
  6
CONTINUOUS
 66
     1
 40
0.000000
 41
0.000000
  0
VERTEX
  8
0
  6
CONTINUOUS
 10
3.754960
 20
2.218040
  0
VERTEX
  8
0
  6
CONTINUOUS
 10
3.752320
 20
2.949320
  0
VERTEX
  8
0
  6
CONTINUOUS
 10
3.802480
 20
2.901360
  0
VERTEX
  8
0
  6
CONTINUOUS
 10
3.805120
 20
2.169640
  0
VERTEX
  8
0
  6
CONTINUOUS
 10
3.754960
 20
2.218040
  0
SEQEND
  8
0
  0
SOLID
  8
0
 62
    15
 10
3.805120
 20
2.169640
 11
3.802480
 21
2.901360
 12
3.847360
 22
2.110240
 13
3.844720
 23
2.841960
  0
POLYLINE
  8
0
  6
CONTINUOUS
 66
     1
 40
0.000000
 41
0.000000
  0
VERTEX
  8
0
  6
CONTINUOUS
 10
3.805120
 20
2.169640
  0
VERTEX
  8
0
  6
CONTINUOUS
 10
3.802480
 20
2.901360
  0
VERTEX
  8
0
  6
CONTINUOUS
 10
3.844720
 20
2.841960
  0
VERTEX
  8
0
  6
CONTINUOUS
 10
3.847360
 20
2.110240
  0
VERTEX
  8
0
  6
CONTINUOUS
 10
3.805120
 20
2.169640
  0
SEQEND
  8
0
  0
SOLID
  8
0
 62
    15
 10
3.847360
 20
2.110240
 11
3.844720
 21
2.841960
 12
3.880800
 22
2.039400
 13
3.878160
 23
2.770680
  0
POLYLINE
  8
0
  6
CONTINUOUS
 66
     1
 40
0.000000
 41
0.000000
  0
VERTEX
  8
0
  6
CONTINUOUS
 10
3.847360
 20
2.110240
  0
VERTEX
  8
0
  6
CONTINUOUS
 10
3.844720
 20
2.841960
  0
VERTEX
  8
0
  6
CONTINUOUS
 10
3.878160
 20
2.770680
  0
VERTEX
  8
0
  6
CONTINUOUS
 10
3.880800
 20
2.039400
  0
VERTEX
  8
0
  6
CONTINUOUS
 10
3.847360
 20
2.110240
  0
SEQEND
  8
0
  0
SOLID
  8
0
 62
    15
 10
3.880800
 20
2.039400
 11
3.878160
 21
2.770680
 12
3.903240
 22
1.956240
 13
3.900600
 23
2.687520
  0
POLYLINE
  8
0
  6
CONTINUOUS
 66
     1
 40
0.000000
 41
0.000000
  0
VERTEX
  8
0
  6
CONTINUOUS
 10
3.880800
 20
2.039400
  0
VERTEX
  8
0
  6
CONTINUOUS
 10
3.878160
 20
2.770680
  0
VERTEX
  8
0
  6
CONTINUOUS
 10
3.900600
 20
2.687520
  0
VERTEX
  8
0
  6
CONTINUOUS
 10
3.903240
 20
1.956240
  0
VERTEX
  8
0
  6
CONTINUOUS
 10
3.880800
 20
2.039400
  0
SEQEND
  8
0
  0
SOLID
  8
0
 62
    15
 10
3.903240
 20
1.956240
 11
3.900600
 21
2.687520
 12
3.913800
 22
1.860320
 13
3.910720
 23
2.591600
  0
POLYLINE
  8
0
  6
CONTINUOUS
 66
     1
 40
0.000000
 41
0.000000
  0
VERTEX
  8
0
  6
CONTINUOUS
 10
3.903240
 20
1.956240
  0
VERTEX
  8
0
  6
CONTINUOUS
 10
3.900600
 20
2.687520
  0
VERTEX
  8
0
  6
CONTINUOUS
 10
3.910720
 20
2.591600
  0
VERTEX
  8
0
  6
CONTINUOUS
 10
3.913800
 20
1.860320
  0
VERTEX
  8
0
  6
CONTINUOUS
 10
3.903240
 20
1.956240
  0
SEQEND
  8
0
  0
SOLID
  8
0
 62
    15
 10
3.913800
 20
1.860320
 11
3.910720
 21
2.591600
 12
3.959120
 22
1.860320
 13
3.956480
 23
2.591600
  0
POLYLINE
  8
0
  6
CONTINUOUS
 66
     1
 40
0.000000
 41
0.000000
  0
VERTEX
  8
0
  6
CONTINUOUS
 10
3.913800
 20
1.860320
  0
VERTEX
  8
0
  6
CONTINUOUS
 10
3.910720
 20
2.591600
  0
VERTEX
  8
0
  6
CONTINUOUS
 10
3.956480
 20
2.591600
  0
VERTEX
  8
0
  6
CONTINUOUS
 10
3.959120
 20
1.860320
  0
VERTEX
  8
0
  6
CONTINUOUS
 10
3.913800
 20
1.860320
  0
SEQEND
  8
0
  0
POLYLINE
  8
0
  6
CONTINUOUS
 66
     1
 40
0.000000
 41
0.000000
  0
VERTEX
  8
0
  6
CONTINUOUS
 10
3.959120
 20
1.860320
  0
VERTEX
  8
0
  6
CONTINUOUS
 10
4.105640
 20
1.933360
  0
VERTEX
  8
0
  6
CONTINUOUS
 10
4.195840
 20
1.843160
  0
VERTEX
  8
0
  6
CONTINUOUS
 10
4.291760
 20
1.761320
  0
VERTEX
  8
0
  6
CONTINUOUS
 10
4.392520
 20
1.687840
  0
VERTEX
  8
0
  6
CONTINUOUS
 10
4.498120
 20
1.623160
  0
VERTEX
  8
0
  6
CONTINUOUS
 10
4.607680
 20
1.567720
  0
VERTEX
  8
0
  6
CONTINUOUS
 10
4.720760
 20
1.520640
  0
VERTEX
  8
0
  6
CONTINUOUS
 10
4.837360
 20
1.482800
  0
VERTEX
  8
0
  6
CONTINUOUS
 10
4.956600
 20
1.454200
  0
VERTEX
  8
0
  6
CONTINUOUS
 10
5.077600
 20
1.434840
  0
VERTEX
  8
0
  6
CONTINUOUS
 10
5.200800
 20
1.424720
  0
VERTEX
  8
0
  6
CONTINUOUS
 10
5.324880
 20
1.424720
  0
VERTEX
  8
0
  6
CONTINUOUS
 10
5.450280
 20
1.433960
  0
VERTEX
  8
0
  6
CONTINUOUS
 10
5.575240
 20
1.453320
  0
VERTEX
  8
0
  6
CONTINUOUS
 10
5.700640
 20
1.482800
  0
VERTEX
  8
0
  6
CONTINUOUS
 10
5.825160
 20
1.522400
  0
VERTEX
  8
0
  6
CONTINUOUS
 10
5.948360
 20
1.571680
  0
VERTEX
  8
0
  6
CONTINUOUS
 10
6.073320
 20
1.485880
  0
VERTEX
  8
0
  6
CONTINUOUS
 10
6.090040
 20
1.522400
  0
VERTEX
  8
0
  6
CONTINUOUS
 10
6.112920
 20
1.553200
  0
VERTEX
  8
0
  6
CONTINUOUS
 10
6.141080
 20
1.579160
  0
VERTEX
  8
0
  6
CONTINUOUS
 10
6.172760
 20
1.598960
  0
VERTEX
  8
0
  6
CONTINUOUS
 10
6.207960
 20
1.613920
  0
VERTEX
  8
0
  6
CONTINUOUS
 10
6.245360
 20
1.623160
  0
VERTEX
  8
0
  6
CONTINUOUS
 10
6.322360
 20
1.625360
  0
VERTEX
  8
0
  6
CONTINUOUS
 10
6.359760
 20
1.617880
  0
VERTEX
  8
0
  6
CONTINUOUS
 10
6.395840
 20
1.605120
  0
VERTEX
  8
0
  6
CONTINUOUS
 10
6.428840
 20
1.586640
  0
VERTEX
  8
0
  6
CONTINUOUS
 10
6.457880
 20
1.562880
  0
VERTEX
  8
0
  6
CONTINUOUS
 10
6.482520
 20
1.532960
  0
VERTEX
  8
0
  6
CONTINUOUS
 10
6.501000
 20
1.497760
  0
VERTEX
  8
0
  6
CONTINUOUS
 10
6.513320
 20
1.456840
  0
VERTEX
  8
0
  6
CONTINUOUS
 10
6.517280
 20
1.410200
  0
VERTEX
  8
0
  6
CONTINUOUS
 10
6.517280
 20
1.060840
  0
VERTEX
  8
0
  6
CONTINUOUS
 10
6.518160
 20
1.061280
  0
VERTEX
  8
0
  6
CONTINUOUS
 10
2.464000
 20
1.061280
  0
VERTEX
  8
0
  6
CONTINUOUS
 10
2.464000
 20
2.315280
  0
VERTEX
  8
0
  6
CONTINUOUS
 10
3.019280
 20
2.315280
  0
VERTEX
  8
0
  6
CONTINUOUS
 10
3.019280
 20
2.157760
  0
VERTEX
  8
0
  6
CONTINUOUS
 10
3.144240
 20
2.157760
  0
VERTEX
  8
0
  6
CONTINUOUS
 10
3.144240
 20
2.158640
  0
VERTEX
  8
0
  6
CONTINUOUS
 10
3.175920
 20
2.199560
  0
VERTEX
  8
0
  6
CONTINUOUS
 10
3.216840
 20
2.234760
  0
VERTEX
  8
0
  6
CONTINUOUS
 10
3.265680
 20
2.263800
  0
VERTEX
  8
0
  6
CONTINUOUS
 10
3.321120
 20
2.286240
  0
VERTEX
  8
0
  6
CONTINUOUS
 10
3.381400
 20
2.301640
  0
VERTEX
  8
0
  6
CONTINUOUS
 10
3.444320
 20
2.309560
  0
VERTEX
  8
0
  6
CONTINUOUS
 10
3.509440
 20
2.309560
  0
VERTEX
  8
0
  6
CONTINUOUS
 10
3.574560
 20
2.300760
  0
VERTEX
  8
0
  6
CONTINUOUS
 10
3.638360
 20
2.282720
  0
VERTEX
  8
0
  6
CONTINUOUS
 10
3.699080
 20
2.255440
  0
VERTEX
  8
0
  6
CONTINUOUS
 10
3.754960
 20
2.218040
  0
VERTEX
  8
0
  6
CONTINUOUS
 10
3.805120
 20
2.169640
  0
VERTEX
  8
0
  6
CONTINUOUS
 10
3.847360
 20
2.110240
  0
VERTEX
  8
0
  6
CONTINUOUS
 10
3.880800
 20
2.039400
  0
VERTEX
  8
0
  6
CONTINUOUS
 10
3.903240
 20
1.956240
  0
VERTEX
  8
0
  6
CONTINUOUS
 10
3.913800
 20
1.860320
  0
VERTEX
  8
0
  6
CONTINUOUS
 10
3.959120
 20
1.860320
  0
SEQEND
  8
0
  0
TEXT
  8
0
 10
4.148320
 20
0.828960
 40
0.138022
  1
BA  1024
 41
1.000000
  7
SN0
 71
     0
 72
     5
 11
4.829755
 21
0.828960
  0
TEXT
  8
0
 10
3.918640
 20
0.637120
 40
0.138022
  1
1-1/4" x 4-1/16"
 41
1.000000
  7
SN0
 71
     0
 72
     5
 11
5.056895
 21
0.637120
  0
POLYLINE
  8
0
  6
CONTINUOUS
 66
     1
 40
0.014080
 41
0.014080
  0
VERTEX
  8
0
  6
CONTINUOUS
 10
3.918640
 20
4.137320
  0
VERTEX
  8
0
  6
CONTINUOUS
 10
4.065160
 20
4.210360
  0
VERTEX
  8
0
  6
CONTINUOUS
 10
4.132480
 20
4.141720
  0
VERTEX
  8
0
  6
CONTINUOUS
 10
4.202880
 20
4.078360
  0
VERTEX
  8
0
  6
CONTINUOUS
 10
4.275920
 20
4.018960
  0
VERTEX
  8
0
  6
CONTINUOUS
 10
4.352040
 20
3.964840
  0
VERTEX
  8
0
  6
CONTINUOUS
 10
4.430800
 20
3.915560
  0
VERTEX
  8
0
  6
CONTINUOUS
 10
4.512200
 20
3.871120
  0
VERTEX
  8
0
  6
CONTINUOUS
 10
4.567200
 20
3.844280
  0
VERTEX
  8
0
  6
CONTINUOUS
 10
4.623520
 20
3.820080
  0
VERTEX
  8
0
  6
CONTINUOUS
 10
4.680720
 20
3.797640
  0
VERTEX
  8
0
  6
CONTINUOUS
 10
4.738360
 20
3.777400
  0
VERTEX
  8
0
  6
CONTINUOUS
 10
4.796880
 20
3.759800
  0
VERTEX
  8
0
  6
CONTINUOUS
 10
4.856280
 20
3.744400
  0
VERTEX
  8
0
  6
CONTINUOUS
 10
4.916120
 20
3.731200
  0
VERTEX
  8
0
  6
CONTINUOUS
 10
4.976400
 20
3.720200
  0
VERTEX
  8
0
  6
CONTINUOUS
 10
5.037560
 20
3.711840
  0
VERTEX
  8
0
  6
CONTINUOUS
 10
5.098720
 20
3.705680
  0
VERTEX
  8
0
  6
CONTINUOUS
 10
5.160320
 20
3.701720
  0
VERTEX
  8
0
  6
CONTINUOUS
 10
5.222360
 20
3.700400
  0
VERTEX
  8
0
  6
CONTINUOUS
 10
5.284840
 20
3.701720
  0
VERTEX
  8
0
  6
CONTINUOUS
 10
5.347320
 20
3.705240
  0
VERTEX
  8
0
  6
CONTINUOUS
 10
5.409800
 20
3.710960
  0
VERTEX
  8
0
  6
CONTINUOUS
 10
5.472720
 20
3.719320
  0
VERTEX
  8
0
  6
CONTINUOUS
 10
5.535200
 20
3.730320
  0
VERTEX
  8
0
  6
CONTINUOUS
 10
5.597680
 20
3.743520
  0
VERTEX
  8
0
  6
CONTINUOUS
 10
5.660600
 20
3.759360
  0
VERTEX
  8
0
  6
CONTINUOUS
 10
5.753880
 20
3.787960
  0
VERTEX
  8
0
  6
CONTINUOUS
 10
5.846720
 20
3.822720
  0
VERTEX
  8
0
  6
CONTINUOUS
 10
5.908320
 20
3.848680
  0
VERTEX
  8
0
  6
CONTINUOUS
 10
6.032840
 20
3.762880
  0
VERTEX
  8
0
  6
CONTINUOUS
 10
6.040320
 20
3.781800
  0
VERTEX
  8
0
  6
CONTINUOUS
 10
6.049560
 20
3.799400
  0
VERTEX
  8
0
  6
CONTINUOUS
 10
6.072440
 20
3.830200
  0
VERTEX
  8
0
  6
CONTINUOUS
 10
6.100600
 20
3.856160
  0
VERTEX
  8
0
  6
CONTINUOUS
 10
6.132280
 20
3.875960
  0
VERTEX
  8
0
  6
CONTINUOUS
 10
6.167480
 20
3.890920
  0
VERTEX
  8
0
  6
CONTINUOUS
 10
6.204880
 20
3.900160
  0
VERTEX
  8
0
  6
CONTINUOUS
 10
6.243160
 20
3.904120
  0
VERTEX
  8
0
  6
CONTINUOUS
 10
6.281880
 20
3.902360
  0
VERTEX
  8
0
  6
CONTINUOUS
 10
6.319280
 20
3.894880
  0
VERTEX
  8
0
  6
CONTINUOUS
 10
6.355360
 20
3.882120
  0
VERTEX
  8
0
  6
CONTINUOUS
 10
6.388360
 20
3.863640
  0
VERTEX
  8
0
  6
CONTINUOUS
 10
6.403320
 20
3.852640
  0
VERTEX
  8
0
  6
CONTINUOUS
 10
6.430600
 20
3.825800
  0
VERTEX
  8
0
  6
CONTINUOUS
 10
6.452160
 20
3.793240
  0
VERTEX
  8
0
  6
CONTINUOUS
 10
6.460520
 20
3.774760
  0
VERTEX
  8
0
  6
CONTINUOUS
 10
6.467560
 20
3.754960
  0
VERTEX
  8
0
  6
CONTINUOUS
 10
6.472400
 20
3.733840
  0
VERTEX
  8
0
  6
CONTINUOUS
 10
6.475920
 20
3.711400
  0
VERTEX
  8
0
  6
CONTINUOUS
 10
6.476800
 20
3.687200
  0
VERTEX
  8
0
  6
CONTINUOUS
 10
6.476800
 20
3.337400
  0
VERTEX
  8
0
  6
CONTINUOUS
 10
6.478120
 20
3.338280
  0
VERTEX
  8
0
  6
CONTINUOUS
 10
2.423520
 20
3.338280
  0
VERTEX
  8
0
  6
CONTINUOUS
 10
2.423520
 20
4.592280
  0
VERTEX
  8
0
  6
CONTINUOUS
 10
2.978800
 20
4.592280
  0
VERTEX
  8
0
  6
CONTINUOUS
 10
2.978800
 20
4.434760
  0
VERTEX
  8
0
  6
CONTINUOUS
 10
3.103760
 20
4.434760
  0
VERTEX
  8
0
  6
CONTINUOUS
 10
3.118280
 20
4.456760
  0
VERTEX
  8
0
  6
CONTINUOUS
 10
3.144680
 20
4.485800
  0
VERTEX
  8
0
  6
CONTINUOUS
 10
3.176360
 20
4.511320
  0
VERTEX
  8
0
  6
CONTINUOUS
 10
3.200120
 20
4.526720
  0
VERTEX
  8
0
  6
CONTINUOUS
 10
3.225640
 20
4.540800
  0
VERTEX
  8
0
  6
CONTINUOUS
 10
3.252480
 20
4.552680
  0
VERTEX
  8
0
  6
CONTINUOUS
 10
3.280640
 20
4.563240
  0
VERTEX
  8
0
  6
CONTINUOUS
 10
3.310120
 20
4.572040
  0
VERTEX
  8
0
  6
CONTINUOUS
 10
3.340920
 20
4.578640
  0
VERTEX
  8
0
  6
CONTINUOUS
 10
3.372160
 20
4.583480
  0
VERTEX
  8
0
  6
CONTINUOUS
 10
3.404280
 20
4.586560
  0
VERTEX
  8
0
  6
CONTINUOUS
 10
3.436400
 20
4.587440
  0
VERTEX
  8
0
  6
CONTINUOUS
 10
3.468960
 20
4.586560
  0
VERTEX
  8
0
  6
CONTINUOUS
 10
3.501960
 20
4.583040
  0
VERTEX
  8
0
  6
CONTINUOUS
 10
3.534080
 20
4.577760
  0
VERTEX
  8
0
  6
CONTINUOUS
 10
3.582040
 20
4.565000
  0
VERTEX
  8
0
  6
CONTINUOUS
 10
3.628680
 20
4.547400
  0
VERTEX
  8
0
  6
CONTINUOUS
 10
3.673120
 20
4.524080
  0
VERTEX
  8
0
  6
CONTINUOUS
 10
3.714920
 20
4.494600
  0
VERTEX
  8
0
  6
CONTINUOUS
 10
3.753200
 20
4.459840
  0
VERTEX
  8
0
  6
CONTINUOUS
 10
3.787080
 20
4.418480
  0
VERTEX
  8
0
  6
CONTINUOUS
 10
3.807320
 20
4.387240
  0
VERTEX
  8
0
  6
CONTINUOUS
 10
3.825360
 20
4.353360
  0
VERTEX
  8
0
  6
CONTINUOUS
 10
3.840760
 20
4.316400
  0
VERTEX
  8
0
  6
CONTINUOUS
 10
3.853080
 20
4.276360
  0
VERTEX
  8
0
  6
CONTINUOUS
 10
3.863200
 20
4.233240
  0
VERTEX
  8
0
  6
CONTINUOUS
 10
3.869800
 20
4.187040
  0
VERTEX
  8
0
  6
CONTINUOUS
 10
3.873320
 20
4.137320
  0
VERTEX
  8
0
  6
CONTINUOUS
 10
3.918640
 20
4.137320
  0
SEQEND
  8
0
  0
TEXT
  8
0
 10
3.317160
 20
3.657720
 40
0.138022
  1
BA  1024
 41
1.000000
  7
SN0
 71
     0
 72
     5
 11
3.998595
 21
3.657720
  0
TEXT
  8
0
 10
3.087920
 20
3.466320
 40
0.138022
  1
1-1/4" x 4-1/16"
 41
1.000000
  7
SN0
 71
     0
 72
     5
 11
4.226175
 21
3.466320
  0
ENDSEC
  0
EOF
