  0
SECTION
  2
HEADER
  9
$ACADVER
  1
AC1006
  9
$EXTMIN
 10
3.587320
 20
0.468600
  9
$EXTMAX
 10
7.394640
 20
3.578520
  9
$LTSCALE
 40
0.044000
  9
$PDMODE
 70
    35
  9
$PDSIZE
 40
0.035200
  0
ENDSEC
  0
SECTION
  2
TABLES
  0
TABLE
  2
LTYPE
 70
     9
  0
LTYPE
  2
CONTINUOUS
 70
    64
  3
Solid line
 72
    65
 73
     0
 40
0.000000
  0
LTYPE
  2
DASHED
 70
    64
  3
__ __ __ __ __ __ __ __ __ __ __ __ __ __ __
 72
    65
 73
     2
 40
0.000330
 49
0.000220
 49
-0.000110
  0
LTYPE
  2
HIDDEN
 70
    64
  3
 _ _ _ _ _ _ _ _ _ _ _ _ _ _ _ _ _ _ _ _ _ _
 72
    65
 73
     2
 40
0.000165
 49
0.000110
 49
-0.000055
  0
LTYPE
  2
CENTER
 70
    64
  3
____ _ ____ _ ____ _ ____ _ ____ _ ____ _ ____
 72
    65
 73
     4
 40
0.000880
 49
0.000550
 49
-0.000110
 49
0.000110
 49
-0.000110
  0
LTYPE
  2
PHANTOM
 70
    64
  3
_____ _ _ _____ _ _ _____ _ _ _____ _ _ ____
 72
    65
 73
     6
 40
0.001100
 49
0.000550
 49
-0.000110
 49
0.000110
 49
-0.000110
 49
0.000110
 49
-0.000110
  0
LTYPE
  2
DOT
 70
    64
  3
...............................................
 72
    65
 73
     2
 40
0.000110
 49
0.000000
 49
-0.000110
  0
LTYPE
  2
DASHDOT
 70
    64
  3
__ . __ . __ . __ . __ . __ . __ . __ . __ . __
 72
    65
 73
     4
 40
0.000440
 49
0.000220
 49
-0.000110
 49
0.000000
 49
-0.000110
  0
LTYPE
  2
BORDER
 70
    64
  3
__ __ . __ __ . __ __ . __ __ . __ __ . __ __
 72
    65
 73
     6
 40
0.000770
 49
0.000220
 49
-0.000110
 49
0.000220
 49
-0.000110
 49
0.000000
 49
-0.000110
  0
LTYPE
  2
DIVIDE
 70
    64
  3
__ . . __ . . __ . . __ . . __ . . __ . . __
 72
    65
 73
     6
 40
0.000550
 49
0.000220
 49
-0.000110
 49
0.000000
 49
-0.000110
 49
0.000000
 49
-0.000110
  0
LTYPE
  2
DOTDOT
 70
    64
  3
 . .  . .  . .  . .  . .  . . 
 72
    65
 73
     5
 40
0.000242
 49
-0.000110
 49
0.000000
 49
-0.000110
 49
0.000000
 49
-0.000110
  0
ENDTAB
  0
TABLE
  2
STYLE
 70
     2
  0
STYLE
 70
     0
  2
SN0
 40
0.000000
 41
0.000440
 50
0.000000
 71
     0
 42
0.000000
  3
ROMAND
  0
STYLE
 70
    68
  2
SV0
 40
0.000000
 41
0.000440
 50
0.000000
 71
     0
 42
0.000000
  3
ROMAND
  0
ENDTAB
  0
TABLE
  2
LAYER
 70
     3
  0
LAYER
  2
FOREGROUND
 70
    64
 62
     7
  6
CONTINUOUS
  0
LAYER
  2
BACKGROUND
 70
    65
 62
    -7
  6
CONTINUOUS
  0
LAYER
  2
0
 70
    64
 62
     7
  6
CONTINUOUS
  0
ENDTAB
  0
ENDSEC
  0
SECTION
  2
ENTITIES
  0
POLYLINE
  8
FOREGROUND
  6
CONTINUOUS
 66
     1
 40
0.000000
 41
0.000000
  0
VERTEX
  8
FOREGROUND
  6
CONTINUOUS
 10
0.000000
 20
4.047120
  0
VERTEX
  8
FOREGROUND
  6
CONTINUOUS
 10
8.499920
 20
4.047120
  0
VERTEX
  8
FOREGROUND
  6
CONTINUOUS
 10
8.499920
 20
-6.952880
  0
VERTEX
  8
FOREGROUND
  6
CONTINUOUS
 10
0.000000
 20
-6.952880
  0
VERTEX
  8
FOREGROUND
  6
CONTINUOUS
 10
0.000000
 20
4.047120
  0
SEQEND
  8
0
  0
POLYLINE
  8
FOREGROUND
  6
CONTINUOUS
 66
     1
 40
0.000000
 41
0.000000
  0
VERTEX
  8
FOREGROUND
  6
CONTINUOUS
 10
0.000000
 20
4.047120
  0
VERTEX
  8
FOREGROUND
  6
CONTINUOUS
 10
8.499920
 20
4.047120
  0
VERTEX
  8
FOREGROUND
  6
CONTINUOUS
 10
8.499920
 20
-6.952880
  0
VERTEX
  8
FOREGROUND
  6
CONTINUOUS
 10
0.000000
 20
-6.952880
  0
VERTEX
  8
FOREGROUND
  6
CONTINUOUS
 10
0.000000
 20
4.047120
  0
SEQEND
  8
0
  0
SOLID
  8
0
 62
    15
 10
4.037440
 20
2.265120
 11
4.681160
 21
2.624160
 12
4.067360
 22
2.224640
 13
4.711080
 23
2.584120
  0
POLYLINE
  8
0
  6
CONTINUOUS
 66
     1
 40
0.000000
 41
0.000000
  0
VERTEX
  8
0
  6
CONTINUOUS
 10
4.037440
 20
2.265120
  0
VERTEX
  8
0
  6
CONTINUOUS
 10
4.681160
 20
2.624160
  0
VERTEX
  8
0
  6
CONTINUOUS
 10
4.711080
 20
2.584120
  0
VERTEX
  8
0
  6
CONTINUOUS
 10
4.067360
 20
2.224640
  0
VERTEX
  8
0
  6
CONTINUOUS
 10
4.037440
 20
2.265120
  0
SEQEND
  8
0
  0
SOLID
  8
0
 62
    15
 10
3.761560
 20
3.218600
 11
4.405280
 21
3.578080
 12
3.763760
 22
3.150400
 13
4.407040
 23
3.509880
  0
POLYLINE
  8
0
  6
CONTINUOUS
 66
     1
 40
0.000000
 41
0.000000
  0
VERTEX
  8
0
  6
CONTINUOUS
 10
3.761560
 20
3.218600
  0
VERTEX
  8
0
  6
CONTINUOUS
 10
4.405280
 20
3.578080
  0
VERTEX
  8
0
  6
CONTINUOUS
 10
4.407040
 20
3.509880
  0
VERTEX
  8
0
  6
CONTINUOUS
 10
3.763760
 20
3.150400
  0
VERTEX
  8
0
  6
CONTINUOUS
 10
3.761560
 20
3.218600
  0
SEQEND
  8
0
  0
SOLID
  8
0
 62
    15
 10
3.763760
 20
3.150400
 11
4.407040
 21
3.509880
 12
3.767720
 22
3.087920
 13
4.411440
 23
3.447400
  0
POLYLINE
  8
0
  6
CONTINUOUS
 66
     1
 40
0.000000
 41
0.000000
  0
VERTEX
  8
0
  6
CONTINUOUS
 10
3.763760
 20
3.150400
  0
VERTEX
  8
0
  6
CONTINUOUS
 10
4.407040
 20
3.509880
  0
VERTEX
  8
0
  6
CONTINUOUS
 10
4.411440
 20
3.447400
  0
VERTEX
  8
0
  6
CONTINUOUS
 10
3.767720
 20
3.087920
  0
VERTEX
  8
0
  6
CONTINUOUS
 10
3.763760
 20
3.150400
  0
SEQEND
  8
0
  0
SOLID
  8
0
 62
    15
 10
3.767720
 20
3.087920
 11
4.411440
 21
3.447400
 12
3.774320
 22
3.030280
 13
4.418040
 23
3.389760
  0
POLYLINE
  8
0
  6
CONTINUOUS
 66
     1
 40
0.000000
 41
0.000000
  0
VERTEX
  8
0
  6
CONTINUOUS
 10
3.767720
 20
3.087920
  0
VERTEX
  8
0
  6
CONTINUOUS
 10
4.411440
 20
3.447400
  0
VERTEX
  8
0
  6
CONTINUOUS
 10
4.418040
 20
3.389760
  0
VERTEX
  8
0
  6
CONTINUOUS
 10
3.774320
 20
3.030280
  0
VERTEX
  8
0
  6
CONTINUOUS
 10
3.767720
 20
3.087920
  0
SEQEND
  8
0
  0
SOLID
  8
0
 62
    15
 10
3.774320
 20
3.030280
 11
4.418040
 21
3.389760
 12
3.783560
 22
2.977040
 13
4.426840
 23
3.336520
  0
POLYLINE
  8
0
  6
CONTINUOUS
 66
     1
 40
0.000000
 41
0.000000
  0
VERTEX
  8
0
  6
CONTINUOUS
 10
3.774320
 20
3.030280
  0
VERTEX
  8
0
  6
CONTINUOUS
 10
4.418040
 20
3.389760
  0
VERTEX
  8
0
  6
CONTINUOUS
 10
4.426840
 20
3.336520
  0
VERTEX
  8
0
  6
CONTINUOUS
 10
3.783560
 20
2.977040
  0
VERTEX
  8
0
  6
CONTINUOUS
 10
3.774320
 20
3.030280
  0
SEQEND
  8
0
  0
SOLID
  8
0
 62
    15
 10
3.783560
 20
2.977040
 11
4.426840
 21
3.336520
 12
3.794120
 22
2.928640
 13
4.437400
 23
3.288120
  0
POLYLINE
  8
0
  6
CONTINUOUS
 66
     1
 40
0.000000
 41
0.000000
  0
VERTEX
  8
0
  6
CONTINUOUS
 10
3.783560
 20
2.977040
  0
VERTEX
  8
0
  6
CONTINUOUS
 10
4.426840
 20
3.336520
  0
VERTEX
  8
0
  6
CONTINUOUS
 10
4.437400
 20
3.288120
  0
VERTEX
  8
0
  6
CONTINUOUS
 10
3.794120
 20
2.928640
  0
VERTEX
  8
0
  6
CONTINUOUS
 10
3.783560
 20
2.977040
  0
SEQEND
  8
0
  0
SOLID
  8
0
 62
    15
 10
3.794120
 20
2.928640
 11
4.437400
 21
3.288120
 12
3.806440
 22
2.884200
 13
4.450160
 23
3.243680
  0
POLYLINE
  8
0
  6
CONTINUOUS
 66
     1
 40
0.000000
 41
0.000000
  0
VERTEX
  8
0
  6
CONTINUOUS
 10
3.794120
 20
2.928640
  0
VERTEX
  8
0
  6
CONTINUOUS
 10
4.437400
 20
3.288120
  0
VERTEX
  8
0
  6
CONTINUOUS
 10
4.450160
 20
3.243680
  0
VERTEX
  8
0
  6
CONTINUOUS
 10
3.806440
 20
2.884200
  0
VERTEX
  8
0
  6
CONTINUOUS
 10
3.794120
 20
2.928640
  0
SEQEND
  8
0
  0
SOLID
  8
0
 62
    15
 10
3.806440
 20
2.884200
 11
4.450160
 21
3.243680
 12
3.820520
 22
2.843720
 13
4.464240
 23
3.203200
  0
POLYLINE
  8
0
  6
CONTINUOUS
 66
     1
 40
0.000000
 41
0.000000
  0
VERTEX
  8
0
  6
CONTINUOUS
 10
3.806440
 20
2.884200
  0
VERTEX
  8
0
  6
CONTINUOUS
 10
4.450160
 20
3.243680
  0
VERTEX
  8
0
  6
CONTINUOUS
 10
4.464240
 20
3.203200
  0
VERTEX
  8
0
  6
CONTINUOUS
 10
3.820520
 20
2.843720
  0
VERTEX
  8
0
  6
CONTINUOUS
 10
3.806440
 20
2.884200
  0
SEQEND
  8
0
  0
SOLID
  8
0
 62
    15
 10
3.820520
 20
2.843720
 11
4.464240
 21
3.203200
 12
3.835920
 22
2.806760
 13
4.479640
 23
3.166240
  0
POLYLINE
  8
0
  6
CONTINUOUS
 66
     1
 40
0.000000
 41
0.000000
  0
VERTEX
  8
0
  6
CONTINUOUS
 10
3.820520
 20
2.843720
  0
VERTEX
  8
0
  6
CONTINUOUS
 10
4.464240
 20
3.203200
  0
VERTEX
  8
0
  6
CONTINUOUS
 10
4.479640
 20
3.166240
  0
VERTEX
  8
0
  6
CONTINUOUS
 10
3.835920
 20
2.806760
  0
VERTEX
  8
0
  6
CONTINUOUS
 10
3.820520
 20
2.843720
  0
SEQEND
  8
0
  0
SOLID
  8
0
 62
    15
 10
3.835920
 20
2.806760
 11
4.479640
 21
3.166240
 12
3.869800
 22
2.742960
 13
4.513520
 23
3.102440
  0
POLYLINE
  8
0
  6
CONTINUOUS
 66
     1
 40
0.000000
 41
0.000000
  0
VERTEX
  8
0
  6
CONTINUOUS
 10
3.835920
 20
2.806760
  0
VERTEX
  8
0
  6
CONTINUOUS
 10
4.479640
 20
3.166240
  0
VERTEX
  8
0
  6
CONTINUOUS
 10
4.513520
 20
3.102440
  0
VERTEX
  8
0
  6
CONTINUOUS
 10
3.869800
 20
2.742960
  0
VERTEX
  8
0
  6
CONTINUOUS
 10
3.835920
 20
2.806760
  0
SEQEND
  8
0
  0
SOLID
  8
0
 62
    15
 10
3.869800
 20
2.742960
 11
4.513520
 21
3.102440
 12
3.906760
 22
2.691040
 13
4.550480
 23
3.050520
  0
POLYLINE
  8
0
  6
CONTINUOUS
 66
     1
 40
0.000000
 41
0.000000
  0
VERTEX
  8
0
  6
CONTINUOUS
 10
3.869800
 20
2.742960
  0
VERTEX
  8
0
  6
CONTINUOUS
 10
4.513520
 20
3.102440
  0
VERTEX
  8
0
  6
CONTINUOUS
 10
4.550480
 20
3.050520
  0
VERTEX
  8
0
  6
CONTINUOUS
 10
3.906760
 20
2.691040
  0
VERTEX
  8
0
  6
CONTINUOUS
 10
3.869800
 20
2.742960
  0
SEQEND
  8
0
  0
SOLID
  8
0
 62
    15
 10
3.906760
 20
2.691040
 11
4.550480
 21
3.050520
 12
3.945040
 22
2.648360
 13
4.588760
 23
3.007400
  0
POLYLINE
  8
0
  6
CONTINUOUS
 66
     1
 40
0.000000
 41
0.000000
  0
VERTEX
  8
0
  6
CONTINUOUS
 10
3.906760
 20
2.691040
  0
VERTEX
  8
0
  6
CONTINUOUS
 10
4.550480
 20
3.050520
  0
VERTEX
  8
0
  6
CONTINUOUS
 10
4.588760
 20
3.007400
  0
VERTEX
  8
0
  6
CONTINUOUS
 10
3.945040
 20
2.648360
  0
VERTEX
  8
0
  6
CONTINUOUS
 10
3.906760
 20
2.691040
  0
SEQEND
  8
0
  0
SOLID
  8
0
 62
    15
 10
3.945040
 20
2.648360
 11
4.588760
 21
3.007400
 12
3.983320
 22
2.612720
 13
4.627040
 23
2.972200
  0
POLYLINE
  8
0
  6
CONTINUOUS
 66
     1
 40
0.000000
 41
0.000000
  0
VERTEX
  8
0
  6
CONTINUOUS
 10
3.945040
 20
2.648360
  0
VERTEX
  8
0
  6
CONTINUOUS
 10
4.588760
 20
3.007400
  0
VERTEX
  8
0
  6
CONTINUOUS
 10
4.627040
 20
2.972200
  0
VERTEX
  8
0
  6
CONTINUOUS
 10
3.983320
 20
2.612720
  0
VERTEX
  8
0
  6
CONTINUOUS
 10
3.945040
 20
2.648360
  0
SEQEND
  8
0
  0
SOLID
  8
0
 62
    15
 10
3.983320
 20
2.612720
 11
4.627040
 21
2.972200
 12
3.861880
 22
2.467520
 13
4.505600
 23
2.827000
  0
POLYLINE
  8
0
  6
CONTINUOUS
 66
     1
 40
0.000000
 41
0.000000
  0
VERTEX
  8
0
  6
CONTINUOUS
 10
3.983320
 20
2.612720
  0
VERTEX
  8
0
  6
CONTINUOUS
 10
4.627040
 20
2.972200
  0
VERTEX
  8
0
  6
CONTINUOUS
 10
4.505600
 20
2.827000
  0
VERTEX
  8
0
  6
CONTINUOUS
 10
3.861880
 20
2.467520
  0
VERTEX
  8
0
  6
CONTINUOUS
 10
3.983320
 20
2.612720
  0
SEQEND
  8
0
  0
SOLID
  8
0
 62
    15
 10
3.861880
 20
2.467520
 11
4.505600
 21
2.827000
 12
3.861880
 22
2.447280
 13
4.505600
 23
2.806760
  0
POLYLINE
  8
0
  6
CONTINUOUS
 66
     1
 40
0.000000
 41
0.000000
  0
VERTEX
  8
0
  6
CONTINUOUS
 10
3.861880
 20
2.467520
  0
VERTEX
  8
0
  6
CONTINUOUS
 10
4.505600
 20
2.827000
  0
VERTEX
  8
0
  6
CONTINUOUS
 10
4.505600
 20
2.806760
  0
VERTEX
  8
0
  6
CONTINUOUS
 10
3.861880
 20
2.447280
  0
VERTEX
  8
0
  6
CONTINUOUS
 10
3.861880
 20
2.467520
  0
SEQEND
  8
0
  0
SOLID
  8
0
 62
    15
 10
3.861880
 20
2.447280
 11
4.505600
 21
2.806760
 12
3.869360
 22
2.442000
 13
4.512640
 23
2.801480
  0
POLYLINE
  8
0
  6
CONTINUOUS
 66
     1
 40
0.000000
 41
0.000000
  0
VERTEX
  8
0
  6
CONTINUOUS
 10
3.861880
 20
2.447280
  0
VERTEX
  8
0
  6
CONTINUOUS
 10
4.505600
 20
2.806760
  0
VERTEX
  8
0
  6
CONTINUOUS
 10
4.512640
 20
2.801480
  0
VERTEX
  8
0
  6
CONTINUOUS
 10
3.869360
 20
2.442000
  0
VERTEX
  8
0
  6
CONTINUOUS
 10
3.861880
 20
2.447280
  0
SEQEND
  8
0
  0
SOLID
  8
0
 62
    15
 10
3.869360
 20
2.442000
 11
4.512640
 21
2.801480
 12
3.880360
 22
2.433200
 13
4.524080
 23
2.792680
  0
POLYLINE
  8
0
  6
CONTINUOUS
 66
     1
 40
0.000000
 41
0.000000
  0
VERTEX
  8
0
  6
CONTINUOUS
 10
3.869360
 20
2.442000
  0
VERTEX
  8
0
  6
CONTINUOUS
 10
4.512640
 20
2.801480
  0
VERTEX
  8
0
  6
CONTINUOUS
 10
4.524080
 20
2.792680
  0
VERTEX
  8
0
  6
CONTINUOUS
 10
3.880360
 20
2.433200
  0
VERTEX
  8
0
  6
CONTINUOUS
 10
3.869360
 20
2.442000
  0
SEQEND
  8
0
  0
SOLID
  8
0
 62
    15
 10
3.880360
 20
2.433200
 11
4.524080
 21
2.792680
 12
3.894880
 22
2.420880
 13
4.538600
 23
2.780360
  0
POLYLINE
  8
0
  6
CONTINUOUS
 66
     1
 40
0.000000
 41
0.000000
  0
VERTEX
  8
0
  6
CONTINUOUS
 10
3.880360
 20
2.433200
  0
VERTEX
  8
0
  6
CONTINUOUS
 10
4.524080
 20
2.792680
  0
VERTEX
  8
0
  6
CONTINUOUS
 10
4.538600
 20
2.780360
  0
VERTEX
  8
0
  6
CONTINUOUS
 10
3.894880
 20
2.420880
  0
VERTEX
  8
0
  6
CONTINUOUS
 10
3.880360
 20
2.433200
  0
SEQEND
  8
0
  0
SOLID
  8
0
 62
    15
 10
3.894880
 20
2.420880
 11
4.538600
 21
2.780360
 12
3.912920
 22
2.404600
 13
4.556200
 23
2.764080
  0
POLYLINE
  8
0
  6
CONTINUOUS
 66
     1
 40
0.000000
 41
0.000000
  0
VERTEX
  8
0
  6
CONTINUOUS
 10
3.894880
 20
2.420880
  0
VERTEX
  8
0
  6
CONTINUOUS
 10
4.538600
 20
2.780360
  0
VERTEX
  8
0
  6
CONTINUOUS
 10
4.556200
 20
2.764080
  0
VERTEX
  8
0
  6
CONTINUOUS
 10
3.912920
 20
2.404600
  0
VERTEX
  8
0
  6
CONTINUOUS
 10
3.894880
 20
2.420880
  0
SEQEND
  8
0
  0
SOLID
  8
0
 62
    15
 10
3.912920
 20
2.404600
 11
4.556200
 21
2.764080
 12
3.933600
 22
2.384800
 13
4.576880
 23
2.743840
  0
POLYLINE
  8
0
  6
CONTINUOUS
 66
     1
 40
0.000000
 41
0.000000
  0
VERTEX
  8
0
  6
CONTINUOUS
 10
3.912920
 20
2.404600
  0
VERTEX
  8
0
  6
CONTINUOUS
 10
4.556200
 20
2.764080
  0
VERTEX
  8
0
  6
CONTINUOUS
 10
4.576880
 20
2.743840
  0
VERTEX
  8
0
  6
CONTINUOUS
 10
3.933600
 20
2.384800
  0
VERTEX
  8
0
  6
CONTINUOUS
 10
3.912920
 20
2.404600
  0
SEQEND
  8
0
  0
SOLID
  8
0
 62
    15
 10
3.933600
 20
2.384800
 11
4.576880
 21
2.743840
 12
3.956480
 22
2.360600
 13
4.600200
 23
2.720080
  0
POLYLINE
  8
0
  6
CONTINUOUS
 66
     1
 40
0.000000
 41
0.000000
  0
VERTEX
  8
0
  6
CONTINUOUS
 10
3.933600
 20
2.384800
  0
VERTEX
  8
0
  6
CONTINUOUS
 10
4.576880
 20
2.743840
  0
VERTEX
  8
0
  6
CONTINUOUS
 10
4.600200
 20
2.720080
  0
VERTEX
  8
0
  6
CONTINUOUS
 10
3.956480
 20
2.360600
  0
VERTEX
  8
0
  6
CONTINUOUS
 10
3.933600
 20
2.384800
  0
SEQEND
  8
0
  0
SOLID
  8
0
 62
    15
 10
3.956480
 20
2.360600
 11
4.600200
 21
2.720080
 12
3.982000
 22
2.332880
 13
4.625280
 23
2.692360
  0
POLYLINE
  8
0
  6
CONTINUOUS
 66
     1
 40
0.000000
 41
0.000000
  0
VERTEX
  8
0
  6
CONTINUOUS
 10
3.956480
 20
2.360600
  0
VERTEX
  8
0
  6
CONTINUOUS
 10
4.600200
 20
2.720080
  0
VERTEX
  8
0
  6
CONTINUOUS
 10
4.625280
 20
2.692360
  0
VERTEX
  8
0
  6
CONTINUOUS
 10
3.982000
 20
2.332880
  0
VERTEX
  8
0
  6
CONTINUOUS
 10
3.956480
 20
2.360600
  0
SEQEND
  8
0
  0
SOLID
  8
0
 62
    15
 10
3.982000
 20
2.332880
 11
4.625280
 21
2.692360
 12
4.008840
 22
2.300760
 13
4.652560
 23
2.660240
  0
POLYLINE
  8
0
  6
CONTINUOUS
 66
     1
 40
0.000000
 41
0.000000
  0
VERTEX
  8
0
  6
CONTINUOUS
 10
3.982000
 20
2.332880
  0
VERTEX
  8
0
  6
CONTINUOUS
 10
4.625280
 20
2.692360
  0
VERTEX
  8
0
  6
CONTINUOUS
 10
4.652560
 20
2.660240
  0
VERTEX
  8
0
  6
CONTINUOUS
 10
4.008840
 20
2.300760
  0
VERTEX
  8
0
  6
CONTINUOUS
 10
3.982000
 20
2.332880
  0
SEQEND
  8
0
  0
SOLID
  8
0
 62
    15
 10
4.008840
 20
2.300760
 11
4.652560
 21
2.660240
 12
4.037440
 22
2.265120
 13
4.681160
 23
2.624160
  0
POLYLINE
  8
0
  6
CONTINUOUS
 66
     1
 40
0.000000
 41
0.000000
  0
VERTEX
  8
0
  6
CONTINUOUS
 10
4.008840
 20
2.300760
  0
VERTEX
  8
0
  6
CONTINUOUS
 10
4.652560
 20
2.660240
  0
VERTEX
  8
0
  6
CONTINUOUS
 10
4.681160
 20
2.624160
  0
VERTEX
  8
0
  6
CONTINUOUS
 10
4.037440
 20
2.265120
  0
VERTEX
  8
0
  6
CONTINUOUS
 10
4.008840
 20
2.300760
  0
SEQEND
  8
0
  0
SOLID
  8
0
 62
    15
 10
3.588200
 20
3.218600
 11
4.231480
 21
3.578080
 12
3.761560
 22
3.218600
 13
4.405280
 23
3.578080
  0
POLYLINE
  8
0
  6
CONTINUOUS
 66
     1
 40
0.000000
 41
0.000000
  0
VERTEX
  8
0
  6
CONTINUOUS
 10
3.588200
 20
3.218600
  0
VERTEX
  8
0
  6
CONTINUOUS
 10
4.231480
 20
3.578080
  0
VERTEX
  8
0
  6
CONTINUOUS
 10
4.405280
 20
3.578080
  0
VERTEX
  8
0
  6
CONTINUOUS
 10
3.761560
 20
3.218600
  0
VERTEX
  8
0
  6
CONTINUOUS
 10
3.588200
 20
3.218600
  0
SEQEND
  8
0
  0
SOLID
  8
0
 62
    15
 10
4.067360
 20
2.224640
 11
4.711080
 21
2.584120
 12
4.098160
 22
2.180200
 13
4.741440
 23
2.539680
  0
POLYLINE
  8
0
  6
CONTINUOUS
 66
     1
 40
0.000000
 41
0.000000
  0
VERTEX
  8
0
  6
CONTINUOUS
 10
4.067360
 20
2.224640
  0
VERTEX
  8
0
  6
CONTINUOUS
 10
4.711080
 20
2.584120
  0
VERTEX
  8
0
  6
CONTINUOUS
 10
4.741440
 20
2.539680
  0
VERTEX
  8
0
  6
CONTINUOUS
 10
4.098160
 20
2.180200
  0
VERTEX
  8
0
  6
CONTINUOUS
 10
4.067360
 20
2.224640
  0
SEQEND
  8
0
  0
SOLID
  8
0
 62
    15
 10
4.098160
 20
2.180200
 11
4.741440
 21
2.539680
 12
4.129400
 22
2.131360
 13
4.772680
 23
2.490840
  0
POLYLINE
  8
0
  6
CONTINUOUS
 66
     1
 40
0.000000
 41
0.000000
  0
VERTEX
  8
0
  6
CONTINUOUS
 10
4.098160
 20
2.180200
  0
VERTEX
  8
0
  6
CONTINUOUS
 10
4.741440
 20
2.539680
  0
VERTEX
  8
0
  6
CONTINUOUS
 10
4.772680
 20
2.490840
  0
VERTEX
  8
0
  6
CONTINUOUS
 10
4.129400
 20
2.131360
  0
VERTEX
  8
0
  6
CONTINUOUS
 10
4.098160
 20
2.180200
  0
SEQEND
  8
0
  0
SOLID
  8
0
 62
    15
 10
4.129400
 20
2.131360
 11
4.772680
 21
2.490840
 12
4.160640
 22
2.077680
 13
4.803920
 23
2.437160
  0
POLYLINE
  8
0
  6
CONTINUOUS
 66
     1
 40
0.000000
 41
0.000000
  0
VERTEX
  8
0
  6
CONTINUOUS
 10
4.129400
 20
2.131360
  0
VERTEX
  8
0
  6
CONTINUOUS
 10
4.772680
 20
2.490840
  0
VERTEX
  8
0
  6
CONTINUOUS
 10
4.803920
 20
2.437160
  0
VERTEX
  8
0
  6
CONTINUOUS
 10
4.160640
 20
2.077680
  0
VERTEX
  8
0
  6
CONTINUOUS
 10
4.129400
 20
2.131360
  0
SEQEND
  8
0
  0
SOLID
  8
0
 62
    15
 10
4.160640
 20
2.077680
 11
4.803920
 21
2.437160
 12
4.191880
 22
2.020040
 13
4.835160
 23
2.379080
  0
POLYLINE
  8
0
  6
CONTINUOUS
 66
     1
 40
0.000000
 41
0.000000
  0
VERTEX
  8
0
  6
CONTINUOUS
 10
4.160640
 20
2.077680
  0
VERTEX
  8
0
  6
CONTINUOUS
 10
4.803920
 20
2.437160
  0
VERTEX
  8
0
  6
CONTINUOUS
 10
4.835160
 20
2.379080
  0
VERTEX
  8
0
  6
CONTINUOUS
 10
4.191880
 20
2.020040
  0
VERTEX
  8
0
  6
CONTINUOUS
 10
4.160640
 20
2.077680
  0
SEQEND
  8
0
  0
SOLID
  8
0
 62
    15
 10
4.191880
 20
2.020040
 11
4.835160
 21
2.379080
 12
4.222680
 22
1.957120
 13
4.865960
 23
2.316600
  0
POLYLINE
  8
0
  6
CONTINUOUS
 66
     1
 40
0.000000
 41
0.000000
  0
VERTEX
  8
0
  6
CONTINUOUS
 10
4.191880
 20
2.020040
  0
VERTEX
  8
0
  6
CONTINUOUS
 10
4.835160
 20
2.379080
  0
VERTEX
  8
0
  6
CONTINUOUS
 10
4.865960
 20
2.316600
  0
VERTEX
  8
0
  6
CONTINUOUS
 10
4.222680
 20
1.957120
  0
VERTEX
  8
0
  6
CONTINUOUS
 10
4.191880
 20
2.020040
  0
SEQEND
  8
0
  0
SOLID
  8
0
 62
    15
 10
4.222680
 20
1.957120
 11
4.865960
 21
2.316600
 12
4.252600
 22
1.889800
 13
4.896320
 23
2.249280
  0
POLYLINE
  8
0
  6
CONTINUOUS
 66
     1
 40
0.000000
 41
0.000000
  0
VERTEX
  8
0
  6
CONTINUOUS
 10
4.222680
 20
1.957120
  0
VERTEX
  8
0
  6
CONTINUOUS
 10
4.865960
 20
2.316600
  0
VERTEX
  8
0
  6
CONTINUOUS
 10
4.896320
 20
2.249280
  0
VERTEX
  8
0
  6
CONTINUOUS
 10
4.252600
 20
1.889800
  0
VERTEX
  8
0
  6
CONTINUOUS
 10
4.222680
 20
1.957120
  0
SEQEND
  8
0
  0
SOLID
  8
0
 62
    15
 10
4.252600
 20
1.889800
 11
4.896320
 21
2.249280
 12
4.279880
 22
1.822480
 13
4.923600
 23
2.181960
  0
POLYLINE
  8
0
  6
CONTINUOUS
 66
     1
 40
0.000000
 41
0.000000
  0
VERTEX
  8
0
  6
CONTINUOUS
 10
4.252600
 20
1.889800
  0
VERTEX
  8
0
  6
CONTINUOUS
 10
4.896320
 20
2.249280
  0
VERTEX
  8
0
  6
CONTINUOUS
 10
4.923600
 20
2.181960
  0
VERTEX
  8
0
  6
CONTINUOUS
 10
4.279880
 20
1.822480
  0
VERTEX
  8
0
  6
CONTINUOUS
 10
4.252600
 20
1.889800
  0
SEQEND
  8
0
  0
SOLID
  8
0
 62
    15
 10
4.279880
 20
1.822480
 11
4.923600
 21
2.181960
 12
4.303640
 22
1.760000
 13
4.946920
 23
2.119040
  0
POLYLINE
  8
0
  6
CONTINUOUS
 66
     1
 40
0.000000
 41
0.000000
  0
VERTEX
  8
0
  6
CONTINUOUS
 10
4.279880
 20
1.822480
  0
VERTEX
  8
0
  6
CONTINUOUS
 10
4.923600
 20
2.181960
  0
VERTEX
  8
0
  6
CONTINUOUS
 10
4.946920
 20
2.119040
  0
VERTEX
  8
0
  6
CONTINUOUS
 10
4.303640
 20
1.760000
  0
VERTEX
  8
0
  6
CONTINUOUS
 10
4.279880
 20
1.822480
  0
SEQEND
  8
0
  0
SOLID
  8
0
 62
    15
 10
4.303640
 20
1.760000
 11
4.946920
 21
2.119040
 12
4.323000
 22
1.701040
 13
4.966280
 23
2.060520
  0
POLYLINE
  8
0
  6
CONTINUOUS
 66
     1
 40
0.000000
 41
0.000000
  0
VERTEX
  8
0
  6
CONTINUOUS
 10
4.303640
 20
1.760000
  0
VERTEX
  8
0
  6
CONTINUOUS
 10
4.946920
 20
2.119040
  0
VERTEX
  8
0
  6
CONTINUOUS
 10
4.966280
 20
2.060520
  0
VERTEX
  8
0
  6
CONTINUOUS
 10
4.323000
 20
1.701040
  0
VERTEX
  8
0
  6
CONTINUOUS
 10
4.303640
 20
1.760000
  0
SEQEND
  8
0
  0
SOLID
  8
0
 62
    15
 10
4.323000
 20
1.701040
 11
4.966280
 21
2.060520
 12
4.338400
 22
1.646480
 13
4.981680
 23
2.005960
  0
POLYLINE
  8
0
  6
CONTINUOUS
 66
     1
 40
0.000000
 41
0.000000
  0
VERTEX
  8
0
  6
CONTINUOUS
 10
4.323000
 20
1.701040
  0
VERTEX
  8
0
  6
CONTINUOUS
 10
4.966280
 20
2.060520
  0
VERTEX
  8
0
  6
CONTINUOUS
 10
4.981680
 20
2.005960
  0
VERTEX
  8
0
  6
CONTINUOUS
 10
4.338400
 20
1.646480
  0
VERTEX
  8
0
  6
CONTINUOUS
 10
4.323000
 20
1.701040
  0
SEQEND
  8
0
  0
SOLID
  8
0
 62
    15
 10
4.338400
 20
1.646480
 11
4.981680
 21
2.005960
 12
4.349400
 22
1.595880
 13
4.993120
 23
1.954920
  0
POLYLINE
  8
0
  6
CONTINUOUS
 66
     1
 40
0.000000
 41
0.000000
  0
VERTEX
  8
0
  6
CONTINUOUS
 10
4.338400
 20
1.646480
  0
VERTEX
  8
0
  6
CONTINUOUS
 10
4.981680
 20
2.005960
  0
VERTEX
  8
0
  6
CONTINUOUS
 10
4.993120
 20
1.954920
  0
VERTEX
  8
0
  6
CONTINUOUS
 10
4.349400
 20
1.595880
  0
VERTEX
  8
0
  6
CONTINUOUS
 10
4.338400
 20
1.646480
  0
SEQEND
  8
0
  0
SOLID
  8
0
 62
    15
 10
4.349400
 20
1.595880
 11
4.993120
 21
1.954920
 12
4.356440
 22
1.548360
 13
5.000160
 23
1.907840
  0
POLYLINE
  8
0
  6
CONTINUOUS
 66
     1
 40
0.000000
 41
0.000000
  0
VERTEX
  8
0
  6
CONTINUOUS
 10
4.349400
 20
1.595880
  0
VERTEX
  8
0
  6
CONTINUOUS
 10
4.993120
 20
1.954920
  0
VERTEX
  8
0
  6
CONTINUOUS
 10
5.000160
 20
1.907840
  0
VERTEX
  8
0
  6
CONTINUOUS
 10
4.356440
 20
1.548360
  0
VERTEX
  8
0
  6
CONTINUOUS
 10
4.349400
 20
1.595880
  0
SEQEND
  8
0
  0
SOLID
  8
0
 62
    15
 10
4.356440
 20
1.548360
 11
5.000160
 21
1.907840
 12
4.359520
 22
1.503920
 13
5.003240
 23
1.863400
  0
POLYLINE
  8
0
  6
CONTINUOUS
 66
     1
 40
0.000000
 41
0.000000
  0
VERTEX
  8
0
  6
CONTINUOUS
 10
4.356440
 20
1.548360
  0
VERTEX
  8
0
  6
CONTINUOUS
 10
5.000160
 20
1.907840
  0
VERTEX
  8
0
  6
CONTINUOUS
 10
5.003240
 20
1.863400
  0
VERTEX
  8
0
  6
CONTINUOUS
 10
4.359520
 20
1.503920
  0
VERTEX
  8
0
  6
CONTINUOUS
 10
4.356440
 20
1.548360
  0
SEQEND
  8
0
  0
SOLID
  8
0
 62
    15
 10
4.359520
 20
1.503920
 11
5.003240
 21
1.863400
 12
4.358200
 22
1.463000
 13
5.001920
 23
1.822480
  0
POLYLINE
  8
0
  6
CONTINUOUS
 66
     1
 40
0.000000
 41
0.000000
  0
VERTEX
  8
0
  6
CONTINUOUS
 10
4.359520
 20
1.503920
  0
VERTEX
  8
0
  6
CONTINUOUS
 10
5.003240
 20
1.863400
  0
VERTEX
  8
0
  6
CONTINUOUS
 10
5.001920
 20
1.822480
  0
VERTEX
  8
0
  6
CONTINUOUS
 10
4.358200
 20
1.463000
  0
VERTEX
  8
0
  6
CONTINUOUS
 10
4.359520
 20
1.503920
  0
SEQEND
  8
0
  0
SOLID
  8
0
 62
    15
 10
4.358200
 20
1.463000
 11
5.001920
 21
1.822480
 12
4.352920
 22
1.424720
 13
4.996640
 23
1.783760
  0
POLYLINE
  8
0
  6
CONTINUOUS
 66
     1
 40
0.000000
 41
0.000000
  0
VERTEX
  8
0
  6
CONTINUOUS
 10
4.358200
 20
1.463000
  0
VERTEX
  8
0
  6
CONTINUOUS
 10
5.001920
 20
1.822480
  0
VERTEX
  8
0
  6
CONTINUOUS
 10
4.996640
 20
1.783760
  0
VERTEX
  8
0
  6
CONTINUOUS
 10
4.352920
 20
1.424720
  0
VERTEX
  8
0
  6
CONTINUOUS
 10
4.358200
 20
1.463000
  0
SEQEND
  8
0
  0
SOLID
  8
0
 62
    15
 10
4.352920
 20
1.424720
 11
4.996640
 21
1.783760
 12
4.343680
 22
1.388640
 13
4.986960
 23
1.748120
  0
POLYLINE
  8
0
  6
CONTINUOUS
 66
     1
 40
0.000000
 41
0.000000
  0
VERTEX
  8
0
  6
CONTINUOUS
 10
4.352920
 20
1.424720
  0
VERTEX
  8
0
  6
CONTINUOUS
 10
4.996640
 20
1.783760
  0
VERTEX
  8
0
  6
CONTINUOUS
 10
4.986960
 20
1.748120
  0
VERTEX
  8
0
  6
CONTINUOUS
 10
4.343680
 20
1.388640
  0
VERTEX
  8
0
  6
CONTINUOUS
 10
4.352920
 20
1.424720
  0
SEQEND
  8
0
  0
SOLID
  8
0
 62
    15
 10
4.343680
 20
1.388640
 11
4.986960
 21
1.748120
 12
4.329600
 22
1.354760
 13
4.973320
 23
1.714240
  0
POLYLINE
  8
0
  6
CONTINUOUS
 66
     1
 40
0.000000
 41
0.000000
  0
VERTEX
  8
0
  6
CONTINUOUS
 10
4.343680
 20
1.388640
  0
VERTEX
  8
0
  6
CONTINUOUS
 10
4.986960
 20
1.748120
  0
VERTEX
  8
0
  6
CONTINUOUS
 10
4.973320
 20
1.714240
  0
VERTEX
  8
0
  6
CONTINUOUS
 10
4.329600
 20
1.354760
  0
VERTEX
  8
0
  6
CONTINUOUS
 10
4.343680
 20
1.388640
  0
SEQEND
  8
0
  0
SOLID
  8
0
 62
    15
 10
4.329600
 20
1.354760
 11
4.973320
 21
1.714240
 12
4.312000
 22
1.323080
 13
4.955280
 23
1.682560
  0
POLYLINE
  8
0
  6
CONTINUOUS
 66
     1
 40
0.000000
 41
0.000000
  0
VERTEX
  8
0
  6
CONTINUOUS
 10
4.329600
 20
1.354760
  0
VERTEX
  8
0
  6
CONTINUOUS
 10
4.973320
 20
1.714240
  0
VERTEX
  8
0
  6
CONTINUOUS
 10
4.955280
 20
1.682560
  0
VERTEX
  8
0
  6
CONTINUOUS
 10
4.312000
 20
1.323080
  0
VERTEX
  8
0
  6
CONTINUOUS
 10
4.329600
 20
1.354760
  0
SEQEND
  8
0
  0
SOLID
  8
0
 62
    15
 10
4.312000
 20
1.323080
 11
4.955280
 21
1.682560
 12
4.289560
 22
1.293160
 13
4.933280
 23
1.652640
  0
POLYLINE
  8
0
  6
CONTINUOUS
 66
     1
 40
0.000000
 41
0.000000
  0
VERTEX
  8
0
  6
CONTINUOUS
 10
4.312000
 20
1.323080
  0
VERTEX
  8
0
  6
CONTINUOUS
 10
4.955280
 20
1.682560
  0
VERTEX
  8
0
  6
CONTINUOUS
 10
4.933280
 20
1.652640
  0
VERTEX
  8
0
  6
CONTINUOUS
 10
4.289560
 20
1.293160
  0
VERTEX
  8
0
  6
CONTINUOUS
 10
4.312000
 20
1.323080
  0
SEQEND
  8
0
  0
SOLID
  8
0
 62
    15
 10
4.289560
 20
1.293160
 11
4.933280
 21
1.652640
 12
4.263160
 22
1.264560
 13
4.906880
 23
1.624040
  0
POLYLINE
  8
0
  6
CONTINUOUS
 66
     1
 40
0.000000
 41
0.000000
  0
VERTEX
  8
0
  6
CONTINUOUS
 10
4.289560
 20
1.293160
  0
VERTEX
  8
0
  6
CONTINUOUS
 10
4.933280
 20
1.652640
  0
VERTEX
  8
0
  6
CONTINUOUS
 10
4.906880
 20
1.624040
  0
VERTEX
  8
0
  6
CONTINUOUS
 10
4.263160
 20
1.264560
  0
VERTEX
  8
0
  6
CONTINUOUS
 10
4.289560
 20
1.293160
  0
SEQEND
  8
0
  0
SOLID
  8
0
 62
    15
 10
4.263160
 20
1.264560
 11
4.906880
 21
1.624040
 12
4.232800
 22
1.237280
 13
4.876080
 23
1.596760
  0
POLYLINE
  8
0
  6
CONTINUOUS
 66
     1
 40
0.000000
 41
0.000000
  0
VERTEX
  8
0
  6
CONTINUOUS
 10
4.263160
 20
1.264560
  0
VERTEX
  8
0
  6
CONTINUOUS
 10
4.906880
 20
1.624040
  0
VERTEX
  8
0
  6
CONTINUOUS
 10
4.876080
 20
1.596760
  0
VERTEX
  8
0
  6
CONTINUOUS
 10
4.232800
 20
1.237280
  0
VERTEX
  8
0
  6
CONTINUOUS
 10
4.263160
 20
1.264560
  0
SEQEND
  8
0
  0
SOLID
  8
0
 62
    15
 10
4.232800
 20
1.237280
 11
4.876080
 21
1.596760
 12
4.197600
 22
1.210880
 13
4.841320
 23
1.570360
  0
POLYLINE
  8
0
  6
CONTINUOUS
 66
     1
 40
0.000000
 41
0.000000
  0
VERTEX
  8
0
  6
CONTINUOUS
 10
4.232800
 20
1.237280
  0
VERTEX
  8
0
  6
CONTINUOUS
 10
4.876080
 20
1.596760
  0
VERTEX
  8
0
  6
CONTINUOUS
 10
4.841320
 20
1.570360
  0
VERTEX
  8
0
  6
CONTINUOUS
 10
4.197600
 20
1.210880
  0
VERTEX
  8
0
  6
CONTINUOUS
 10
4.232800
 20
1.237280
  0
SEQEND
  8
0
  0
SOLID
  8
0
 62
    15
 10
4.197600
 20
1.210880
 11
4.841320
 21
1.570360
 12
4.197600
 22
0.967560
 13
4.840880
 23
1.327040
  0
POLYLINE
  8
0
  6
CONTINUOUS
 66
     1
 40
0.000000
 41
0.000000
  0
VERTEX
  8
0
  6
CONTINUOUS
 10
4.197600
 20
1.210880
  0
VERTEX
  8
0
  6
CONTINUOUS
 10
4.841320
 20
1.570360
  0
VERTEX
  8
0
  6
CONTINUOUS
 10
4.840880
 20
1.327040
  0
VERTEX
  8
0
  6
CONTINUOUS
 10
4.197600
 20
0.967560
  0
VERTEX
  8
0
  6
CONTINUOUS
 10
4.197600
 20
1.210880
  0
SEQEND
  8
0
  0
POLYLINE
  8
0
  6
CONTINUOUS
 66
     1
 40
0.000000
 41
0.000000
  0
VERTEX
  8
0
  6
CONTINUOUS
 10
3.588200
 20
0.968440
  0
VERTEX
  8
0
  6
CONTINUOUS
 10
3.588200
 20
3.218600
  0
VERTEX
  8
0
  6
CONTINUOUS
 10
3.761560
 20
3.218600
  0
VERTEX
  8
0
  6
CONTINUOUS
 10
3.763760
 20
3.150400
  0
VERTEX
  8
0
  6
CONTINUOUS
 10
3.767720
 20
3.087920
  0
VERTEX
  8
0
  6
CONTINUOUS
 10
3.774320
 20
3.030280
  0
VERTEX
  8
0
  6
CONTINUOUS
 10
3.783560
 20
2.977040
  0
VERTEX
  8
0
  6
CONTINUOUS
 10
3.794120
 20
2.928640
  0
VERTEX
  8
0
  6
CONTINUOUS
 10
3.806440
 20
2.884200
  0
VERTEX
  8
0
  6
CONTINUOUS
 10
3.820520
 20
2.843720
  0
VERTEX
  8
0
  6
CONTINUOUS
 10
3.835920
 20
2.806760
  0
VERTEX
  8
0
  6
CONTINUOUS
 10
3.869800
 20
2.742960
  0
VERTEX
  8
0
  6
CONTINUOUS
 10
3.906760
 20
2.691040
  0
VERTEX
  8
0
  6
CONTINUOUS
 10
3.945040
 20
2.648360
  0
VERTEX
  8
0
  6
CONTINUOUS
 10
3.983320
 20
2.612720
  0
VERTEX
  8
0
  6
CONTINUOUS
 10
3.861880
 20
2.467520
  0
VERTEX
  8
0
  6
CONTINUOUS
 10
3.861880
 20
2.447280
  0
VERTEX
  8
0
  6
CONTINUOUS
 10
3.894880
 20
2.420880
  0
VERTEX
  8
0
  6
CONTINUOUS
 10
3.933600
 20
2.384800
  0
VERTEX
  8
0
  6
CONTINUOUS
 10
3.982000
 20
2.332880
  0
VERTEX
  8
0
  6
CONTINUOUS
 10
4.037440
 20
2.265120
  0
VERTEX
  8
0
  6
CONTINUOUS
 10
4.098160
 20
2.180200
  0
VERTEX
  8
0
  6
CONTINUOUS
 10
4.129400
 20
2.131360
  0
VERTEX
  8
0
  6
CONTINUOUS
 10
4.160640
 20
2.077680
  0
VERTEX
  8
0
  6
CONTINUOUS
 10
4.191880
 20
2.020040
  0
VERTEX
  8
0
  6
CONTINUOUS
 10
4.222680
 20
1.957120
  0
VERTEX
  8
0
  6
CONTINUOUS
 10
4.252600
 20
1.889800
  0
VERTEX
  8
0
  6
CONTINUOUS
 10
4.303640
 20
1.760000
  0
VERTEX
  8
0
  6
CONTINUOUS
 10
4.323000
 20
1.701040
  0
VERTEX
  8
0
  6
CONTINUOUS
 10
4.338400
 20
1.646480
  0
VERTEX
  8
0
  6
CONTINUOUS
 10
4.349400
 20
1.595880
  0
VERTEX
  8
0
  6
CONTINUOUS
 10
4.356440
 20
1.548360
  0
VERTEX
  8
0
  6
CONTINUOUS
 10
4.359520
 20
1.503920
  0
VERTEX
  8
0
  6
CONTINUOUS
 10
4.358200
 20
1.463000
  0
VERTEX
  8
0
  6
CONTINUOUS
 10
4.352920
 20
1.424720
  0
VERTEX
  8
0
  6
CONTINUOUS
 10
4.343680
 20
1.388640
  0
VERTEX
  8
0
  6
CONTINUOUS
 10
4.329600
 20
1.354760
  0
VERTEX
  8
0
  6
CONTINUOUS
 10
4.312000
 20
1.323080
  0
VERTEX
  8
0
  6
CONTINUOUS
 10
4.289560
 20
1.293160
  0
VERTEX
  8
0
  6
CONTINUOUS
 10
4.263160
 20
1.264560
  0
VERTEX
  8
0
  6
CONTINUOUS
 10
4.232800
 20
1.237280
  0
VERTEX
  8
0
  6
CONTINUOUS
 10
4.197600
 20
1.210880
  0
VERTEX
  8
0
  6
CONTINUOUS
 10
4.197600
 20
0.967560
  0
VERTEX
  8
0
  6
CONTINUOUS
 10
3.588200
 20
0.967560
  0
VERTEX
  8
0
  6
CONTINUOUS
 10
3.588200
 20
0.968440
  0
SEQEND
  8
0
  0
TEXT
  8
0
 10
3.954280
 20
0.703560
 40
0.138036
  1
BA  1022
 41
1.000000
  7
SN0
 71
     0
 72
     5
 11
4.636171
 21
0.703560
  0
TEXT
  8
0
 10
3.844280
 20
0.511720
 40
0.138036
  1
3/4" x 2-1/4"
 41
1.000000
  7
SN0
 71
     0
 72
     5
 11
4.743950
 21
0.511720
  0
POLYLINE
  8
0
  6
CONTINUOUS
 66
     1
 40
0.014080
 41
0.014080
  0
VERTEX
  8
0
  6
CONTINUOUS
 10
7.387160
 20
2.547160
  0
VERTEX
  8
0
  6
CONTINUOUS
 10
7.387160
 20
3.156560
  0
VERTEX
  8
0
  6
CONTINUOUS
 10
7.143840
 20
3.157000
  0
VERTEX
  8
0
  6
CONTINUOUS
 10
7.103800
 20
3.207600
  0
VERTEX
  8
0
  6
CONTINUOUS
 10
7.076080
 20
3.236200
  0
VERTEX
  8
0
  6
CONTINUOUS
 10
7.047040
 20
3.260400
  0
VERTEX
  8
0
  6
CONTINUOUS
 10
7.016240
 20
3.280640
  0
VERTEX
  8
0
  6
CONTINUOUS
 10
6.983240
 20
3.296480
  0
VERTEX
  8
0
  6
CONTINUOUS
 10
6.948480
 20
3.307920
  0
VERTEX
  8
0
  6
CONTINUOUS
 10
6.911520
 20
3.315400
  0
VERTEX
  8
0
  6
CONTINUOUS
 10
6.871480
 20
3.318480
  0
VERTEX
  8
0
  6
CONTINUOUS
 10
6.828800
 20
3.317600
  0
VERTEX
  8
0
  6
CONTINUOUS
 10
6.783040
 20
3.312760
  0
VERTEX
  8
0
  6
CONTINUOUS
 10
6.734200
 20
3.303520
  0
VERTEX
  8
0
  6
CONTINUOUS
 10
6.653680
 20
3.282400
  0
VERTEX
  8
0
  6
CONTINUOUS
 10
6.564360
 20
3.251600
  0
VERTEX
  8
0
  6
CONTINUOUS
 10
6.464920
 20
3.212000
  0
VERTEX
  8
0
  6
CONTINUOUS
 10
6.365920
 20
3.166680
  0
VERTEX
  8
0
  6
CONTINUOUS
 10
6.277040
 20
3.120040
  0
VERTEX
  8
0
  6
CONTINUOUS
 10
6.174520
 20
3.057120
  0
VERTEX
  8
0
  6
CONTINUOUS
 10
6.109400
 20
3.011800
  0
VERTEX
  8
0
  6
CONTINUOUS
 10
6.021840
 20
2.941400
  0
VERTEX
  8
0
  6
CONTINUOUS
 10
5.950120
 20
2.872320
  0
VERTEX
  8
0
  6
CONTINUOUS
 10
5.912720
 20
2.828760
  0
VERTEX
  8
0
  6
CONTINUOUS
 10
5.907440
 20
2.821280
  0
VERTEX
  8
0
  6
CONTINUOUS
 10
5.887200
 20
2.821280
  0
VERTEX
  8
0
  6
CONTINUOUS
 10
5.742000
 20
2.942720
  0
VERTEX
  8
0
  6
CONTINUOUS
 10
5.706800
 20
2.904440
  0
VERTEX
  8
0
  6
CONTINUOUS
 10
5.664120
 20
2.866160
  0
VERTEX
  8
0
  6
CONTINUOUS
 10
5.625840
 20
2.838000
  0
VERTEX
  8
0
  6
CONTINUOUS
 10
5.565120
 20
2.803240
  0
VERTEX
  8
0
  6
CONTINUOUS
 10
5.511000
 20
2.779920
  0
VERTEX
  8
0
  6
CONTINUOUS
 10
5.448960
 20
2.759240
  0
VERTEX
  8
0
  6
CONTINUOUS
 10
5.377680
 20
2.742520
  0
VERTEX
  8
0
  6
CONTINUOUS
 10
5.296280
 20
2.730200
  0
VERTEX
  8
0
  6
CONTINUOUS
 10
5.236000
 20
2.724480
  0
VERTEX
  8
0
  6
CONTINUOUS
 10
5.170880
 20
2.721400
  0
VERTEX
  8
0
  6
CONTINUOUS
 10
5.136120
 20
2.720960
  0
VERTEX
  8
0
  6
CONTINUOUS
 10
5.136120
 20
2.547160
  0
VERTEX
  8
0
  6
CONTINUOUS
 10
7.387160
 20
2.547160
  0
SEQEND
  8
0
  0
TEXT
  8
0
 10
6.378680
 20
2.860000
 40
0.138036
  1
BA  1022
 41
1.000000
  7
SN0
 71
     0
 72
     5
 11
7.060571
 21
2.860000
  0
TEXT
  8
0
 10
6.269120
 20
2.668600
 40
0.138036
  1
3/4" x 2-1/4"
 41
1.000000
  7
SN0
 71
     0
 72
     5
 11
7.168790
 21
2.668600
  0
ENDSEC
  0
EOF
