  0
SECTION
  2
HEADER
  9
$ACADVER
  1
AC1006
  9
$EXTMIN
 10
1.422520
 20
1.972520
  9
$EXTMAX
 10
7.422800
 20
9.924640
  9
$LTSCALE
 40
0.044000
  9
$PDMODE
 70
    35
  9
$PDSIZE
 40
0.035200
  0
ENDSEC
  0
SECTION
  2
TABLES
  0
TABLE
  2
LTYPE
 70
     9
  0
LTYPE
  2
CONTINUOUS
 70
    64
  3
Solid line
 72
    65
 73
     0
 40
0.000000
  0
LTYPE
  2
DASHED
 70
    64
  3
__ __ __ __ __ __ __ __ __ __ __ __ __ __ __
 72
    65
 73
     2
 40
0.000330
 49
0.000220
 49
-0.000110
  0
LTYPE
  2
HIDDEN
 70
    64
  3
 _ _ _ _ _ _ _ _ _ _ _ _ _ _ _ _ _ _ _ _ _ _
 72
    65
 73
     2
 40
0.000165
 49
0.000110
 49
-0.000055
  0
LTYPE
  2
CENTER
 70
    64
  3
____ _ ____ _ ____ _ ____ _ ____ _ ____ _ ____
 72
    65
 73
     4
 40
0.000880
 49
0.000550
 49
-0.000110
 49
0.000110
 49
-0.000110
  0
LTYPE
  2
PHANTOM
 70
    64
  3
_____ _ _ _____ _ _ _____ _ _ _____ _ _ ____
 72
    65
 73
     6
 40
0.001100
 49
0.000550
 49
-0.000110
 49
0.000110
 49
-0.000110
 49
0.000110
 49
-0.000110
  0
LTYPE
  2
DOT
 70
    64
  3
...............................................
 72
    65
 73
     2
 40
0.000110
 49
0.000000
 49
-0.000110
  0
LTYPE
  2
DASHDOT
 70
    64
  3
__ . __ . __ . __ . __ . __ . __ . __ . __ . __
 72
    65
 73
     4
 40
0.000440
 49
0.000220
 49
-0.000110
 49
0.000000
 49
-0.000110
  0
LTYPE
  2
BORDER
 70
    64
  3
__ __ . __ __ . __ __ . __ __ . __ __ . __ __
 72
    65
 73
     6
 40
0.000770
 49
0.000220
 49
-0.000110
 49
0.000220
 49
-0.000110
 49
0.000000
 49
-0.000110
  0
LTYPE
  2
DIVIDE
 70
    64
  3
__ . . __ . . __ . . __ . . __ . . __ . . __
 72
    65
 73
     6
 40
0.000550
 49
0.000220
 49
-0.000110
 49
0.000000
 49
-0.000110
 49
0.000000
 49
-0.000110
  0
LTYPE
  2
DOTDOT
 70
    64
  3
 . .  . .  . .  . .  . .  . . 
 72
    65
 73
     5
 40
0.000242
 49
-0.000110
 49
0.000000
 49
-0.000110
 49
0.000000
 49
-0.000110
  0
ENDTAB
  0
TABLE
  2
STYLE
 70
     2
  0
STYLE
 70
     0
  2
SN0
 40
0.000000
 41
0.000440
 50
0.000000
 71
     0
 42
0.000000
  3
ROMAND
  0
STYLE
 70
    68
  2
SV0
 40
0.000000
 41
0.000440
 50
0.000000
 71
     0
 42
0.000000
  3
ROMAND
  0
ENDTAB
  0
TABLE
  2
LAYER
 70
     3
  0
LAYER
  2
FOREGROUND
 70
    64
 62
     7
  6
CONTINUOUS
  0
LAYER
  2
BACKGROUND
 70
    65
 62
    -7
  6
CONTINUOUS
  0
LAYER
  2
0
 70
    64
 62
     7
  6
CONTINUOUS
  0
ENDTAB
  0
ENDSEC
  0
SECTION
  2
ENTITIES
  0
POLYLINE
  8
FOREGROUND
  6
CONTINUOUS
 66
     1
 40
0.000000
 41
0.000000
  0
VERTEX
  8
FOREGROUND
  6
CONTINUOUS
 10
0.000000
 20
11.897160
  0
VERTEX
  8
FOREGROUND
  6
CONTINUOUS
 10
8.499920
 20
11.897160
  0
VERTEX
  8
FOREGROUND
  6
CONTINUOUS
 10
8.499920
 20
0.897160
  0
VERTEX
  8
FOREGROUND
  6
CONTINUOUS
 10
0.000000
 20
0.897160
  0
VERTEX
  8
FOREGROUND
  6
CONTINUOUS
 10
0.000000
 20
11.897160
  0
SEQEND
  8
0
  0
POLYLINE
  8
FOREGROUND
  6
CONTINUOUS
 66
     1
 40
0.000000
 41
0.000000
  0
VERTEX
  8
FOREGROUND
  6
CONTINUOUS
 10
0.000000
 20
11.897160
  0
VERTEX
  8
FOREGROUND
  6
CONTINUOUS
 10
8.499920
 20
11.897160
  0
VERTEX
  8
FOREGROUND
  6
CONTINUOUS
 10
8.499920
 20
0.897160
  0
VERTEX
  8
FOREGROUND
  6
CONTINUOUS
 10
0.000000
 20
0.897160
  0
VERTEX
  8
FOREGROUND
  6
CONTINUOUS
 10
0.000000
 20
11.897160
  0
SEQEND
  8
0
  0
TEXT
  8
0
 10
3.344880
 20
4.501640
 40
0.138140
  1
BA  1020 2" x 2-1/8"
 41
1.000000
  7
SN0
 71
     0
 72
     5
 11
4.834710
 21
4.501640
  0
TEXT
  8
0
 10
3.344880
 20
4.310240
 40
0.138140
  1
BA  1021 1-1/8" x 4-5/8"
 41
1.000000
  7
SN0
 71
     0
 72
     5
 11
5.120191
 21
4.310240
  0
SOLID
  8
0
 62
    15
 10
6.303000
 20
5.918440
 11
6.303000
 21
6.670840
 12
6.334240
 22
5.915800
 13
6.333800
 23
6.668200
  0
POLYLINE
  8
0
  6
CONTINUOUS
 66
     1
 40
0.000000
 41
0.000000
  0
VERTEX
  8
0
  6
CONTINUOUS
 10
6.303000
 20
5.918440
  0
VERTEX
  8
0
  6
CONTINUOUS
 10
6.303000
 20
6.670840
  0
VERTEX
  8
0
  6
CONTINUOUS
 10
6.333800
 20
6.668200
  0
VERTEX
  8
0
  6
CONTINUOUS
 10
6.334240
 20
5.915800
  0
VERTEX
  8
0
  6
CONTINUOUS
 10
6.303000
 20
5.918440
  0
SEQEND
  8
0
  0
SOLID
  8
0
 62
    15
 10
3.743520
 20
5.735400
 11
3.743080
 21
6.487800
 12
3.957800
 22
5.735400
 13
3.957360
 23
6.487800
  0
POLYLINE
  8
0
  6
CONTINUOUS
 66
     1
 40
0.000000
 41
0.000000
  0
VERTEX
  8
0
  6
CONTINUOUS
 10
3.743520
 20
5.735400
  0
VERTEX
  8
0
  6
CONTINUOUS
 10
3.743080
 20
6.487800
  0
VERTEX
  8
0
  6
CONTINUOUS
 10
3.957360
 20
6.487800
  0
VERTEX
  8
0
  6
CONTINUOUS
 10
3.957800
 20
5.735400
  0
VERTEX
  8
0
  6
CONTINUOUS
 10
3.743520
 20
5.735400
  0
SEQEND
  8
0
  0
SOLID
  8
0
 62
    15
 10
2.692360
 20
4.813160
 11
2.692360
 21
5.565560
 12
2.692360
 22
5.915360
 13
2.692360
 23
6.667760
  0
POLYLINE
  8
0
  6
CONTINUOUS
 66
     1
 40
0.000000
 41
0.000000
  0
VERTEX
  8
0
  6
CONTINUOUS
 10
2.692360
 20
4.813160
  0
VERTEX
  8
0
  6
CONTINUOUS
 10
2.692360
 20
5.565560
  0
VERTEX
  8
0
  6
CONTINUOUS
 10
2.692360
 20
6.667760
  0
VERTEX
  8
0
  6
CONTINUOUS
 10
2.692360
 20
5.915360
  0
VERTEX
  8
0
  6
CONTINUOUS
 10
2.692360
 20
4.813160
  0
SEQEND
  8
0
  0
SOLID
  8
0
 62
    15
 10
3.957800
 20
5.735400
 11
3.957360
 21
6.487800
 12
3.963520
 22
5.676000
 13
3.963520
 23
6.428400
  0
POLYLINE
  8
0
  6
CONTINUOUS
 66
     1
 40
0.000000
 41
0.000000
  0
VERTEX
  8
0
  6
CONTINUOUS
 10
3.957800
 20
5.735400
  0
VERTEX
  8
0
  6
CONTINUOUS
 10
3.957360
 20
6.487800
  0
VERTEX
  8
0
  6
CONTINUOUS
 10
3.963520
 20
6.428400
  0
VERTEX
  8
0
  6
CONTINUOUS
 10
3.963520
 20
5.676000
  0
VERTEX
  8
0
  6
CONTINUOUS
 10
3.957800
 20
5.735400
  0
SEQEND
  8
0
  0
SOLID
  8
0
 62
    15
 10
3.963520
 20
5.676000
 11
3.963520
 21
6.428400
 12
3.980240
 22
5.628920
 13
3.980240
 23
6.381320
  0
POLYLINE
  8
0
  6
CONTINUOUS
 66
     1
 40
0.000000
 41
0.000000
  0
VERTEX
  8
0
  6
CONTINUOUS
 10
3.963520
 20
5.676000
  0
VERTEX
  8
0
  6
CONTINUOUS
 10
3.963520
 20
6.428400
  0
VERTEX
  8
0
  6
CONTINUOUS
 10
3.980240
 20
6.381320
  0
VERTEX
  8
0
  6
CONTINUOUS
 10
3.980240
 20
5.628920
  0
VERTEX
  8
0
  6
CONTINUOUS
 10
3.963520
 20
5.676000
  0
SEQEND
  8
0
  0
SOLID
  8
0
 62
    15
 10
3.980240
 20
5.628920
 11
3.980240
 21
6.381320
 12
4.006200
 22
5.592840
 13
4.006200
 23
6.345240
  0
POLYLINE
  8
0
  6
CONTINUOUS
 66
     1
 40
0.000000
 41
0.000000
  0
VERTEX
  8
0
  6
CONTINUOUS
 10
3.980240
 20
5.628920
  0
VERTEX
  8
0
  6
CONTINUOUS
 10
3.980240
 20
6.381320
  0
VERTEX
  8
0
  6
CONTINUOUS
 10
4.006200
 20
6.345240
  0
VERTEX
  8
0
  6
CONTINUOUS
 10
4.006200
 20
5.592840
  0
VERTEX
  8
0
  6
CONTINUOUS
 10
3.980240
 20
5.628920
  0
SEQEND
  8
0
  0
SOLID
  8
0
 62
    15
 10
4.006200
 20
5.592840
 11
4.006200
 21
6.345240
 12
4.040080
 22
5.566440
 13
4.039640
 23
6.318840
  0
POLYLINE
  8
0
  6
CONTINUOUS
 66
     1
 40
0.000000
 41
0.000000
  0
VERTEX
  8
0
  6
CONTINUOUS
 10
4.006200
 20
5.592840
  0
VERTEX
  8
0
  6
CONTINUOUS
 10
4.006200
 20
6.345240
  0
VERTEX
  8
0
  6
CONTINUOUS
 10
4.039640
 20
6.318840
  0
VERTEX
  8
0
  6
CONTINUOUS
 10
4.040080
 20
5.566440
  0
VERTEX
  8
0
  6
CONTINUOUS
 10
4.006200
 20
5.592840
  0
SEQEND
  8
0
  0
SOLID
  8
0
 62
    15
 10
4.040080
 20
5.566440
 11
4.039640
 21
6.318840
 12
4.080120
 22
5.547960
 13
4.080120
 23
6.300800
  0
POLYLINE
  8
0
  6
CONTINUOUS
 66
     1
 40
0.000000
 41
0.000000
  0
VERTEX
  8
0
  6
CONTINUOUS
 10
4.040080
 20
5.566440
  0
VERTEX
  8
0
  6
CONTINUOUS
 10
4.039640
 20
6.318840
  0
VERTEX
  8
0
  6
CONTINUOUS
 10
4.080120
 20
6.300800
  0
VERTEX
  8
0
  6
CONTINUOUS
 10
4.080120
 20
5.547960
  0
VERTEX
  8
0
  6
CONTINUOUS
 10
4.040080
 20
5.566440
  0
SEQEND
  8
0
  0
SOLID
  8
0
 62
    15
 10
4.080120
 20
5.547960
 11
4.080120
 21
6.300800
 12
4.125000
 22
5.536520
 13
4.125000
 23
6.289360
  0
POLYLINE
  8
0
  6
CONTINUOUS
 66
     1
 40
0.000000
 41
0.000000
  0
VERTEX
  8
0
  6
CONTINUOUS
 10
4.080120
 20
5.547960
  0
VERTEX
  8
0
  6
CONTINUOUS
 10
4.080120
 20
6.300800
  0
VERTEX
  8
0
  6
CONTINUOUS
 10
4.125000
 20
6.289360
  0
VERTEX
  8
0
  6
CONTINUOUS
 10
4.125000
 20
5.536520
  0
VERTEX
  8
0
  6
CONTINUOUS
 10
4.080120
 20
5.547960
  0
SEQEND
  8
0
  0
SOLID
  8
0
 62
    15
 10
4.125000
 20
5.536520
 11
4.125000
 21
6.289360
 12
4.224000
 22
5.529480
 13
4.223560
 23
6.281880
  0
POLYLINE
  8
0
  6
CONTINUOUS
 66
     1
 40
0.000000
 41
0.000000
  0
VERTEX
  8
0
  6
CONTINUOUS
 10
4.125000
 20
5.536520
  0
VERTEX
  8
0
  6
CONTINUOUS
 10
4.125000
 20
6.289360
  0
VERTEX
  8
0
  6
CONTINUOUS
 10
4.223560
 20
6.281880
  0
VERTEX
  8
0
  6
CONTINUOUS
 10
4.224000
 20
5.529480
  0
VERTEX
  8
0
  6
CONTINUOUS
 10
4.125000
 20
5.536520
  0
SEQEND
  8
0
  0
SOLID
  8
0
 62
    15
 10
4.224000
 20
5.529480
 11
4.223560
 21
6.281880
 12
4.774880
 22
5.531240
 13
4.774880
 23
6.283640
  0
POLYLINE
  8
0
  6
CONTINUOUS
 66
     1
 40
0.000000
 41
0.000000
  0
VERTEX
  8
0
  6
CONTINUOUS
 10
4.224000
 20
5.529480
  0
VERTEX
  8
0
  6
CONTINUOUS
 10
4.223560
 20
6.281880
  0
VERTEX
  8
0
  6
CONTINUOUS
 10
4.774880
 20
6.283640
  0
VERTEX
  8
0
  6
CONTINUOUS
 10
4.774880
 20
5.531240
  0
VERTEX
  8
0
  6
CONTINUOUS
 10
4.224000
 20
5.529480
  0
SEQEND
  8
0
  0
SOLID
  8
0
 62
    15
 10
4.774880
 20
5.531240
 11
4.774880
 21
6.283640
 12
5.778960
 22
5.531240
 13
5.778960
 23
6.283640
  0
POLYLINE
  8
0
  6
CONTINUOUS
 66
     1
 40
0.000000
 41
0.000000
  0
VERTEX
  8
0
  6
CONTINUOUS
 10
4.774880
 20
5.531240
  0
VERTEX
  8
0
  6
CONTINUOUS
 10
4.774880
 20
6.283640
  0
VERTEX
  8
0
  6
CONTINUOUS
 10
5.778960
 20
6.283640
  0
VERTEX
  8
0
  6
CONTINUOUS
 10
5.778960
 20
5.531240
  0
VERTEX
  8
0
  6
CONTINUOUS
 10
4.774880
 20
5.531240
  0
SEQEND
  8
0
  0
SOLID
  8
0
 62
    15
 10
5.778960
 20
5.531240
 11
5.778960
 21
6.283640
 12
5.816360
 22
5.536080
 13
5.816360
 23
6.288480
  0
POLYLINE
  8
0
  6
CONTINUOUS
 66
     1
 40
0.000000
 41
0.000000
  0
VERTEX
  8
0
  6
CONTINUOUS
 10
5.778960
 20
5.531240
  0
VERTEX
  8
0
  6
CONTINUOUS
 10
5.778960
 20
6.283640
  0
VERTEX
  8
0
  6
CONTINUOUS
 10
5.816360
 20
6.288480
  0
VERTEX
  8
0
  6
CONTINUOUS
 10
5.816360
 20
5.536080
  0
VERTEX
  8
0
  6
CONTINUOUS
 10
5.778960
 20
5.531240
  0
SEQEND
  8
0
  0
SOLID
  8
0
 62
    15
 10
5.816360
 20
5.536080
 11
5.816360
 21
6.288480
 12
5.851120
 22
5.548840
 13
5.850680
 23
6.301680
  0
POLYLINE
  8
0
  6
CONTINUOUS
 66
     1
 40
0.000000
 41
0.000000
  0
VERTEX
  8
0
  6
CONTINUOUS
 10
5.816360
 20
5.536080
  0
VERTEX
  8
0
  6
CONTINUOUS
 10
5.816360
 20
6.288480
  0
VERTEX
  8
0
  6
CONTINUOUS
 10
5.850680
 20
6.301680
  0
VERTEX
  8
0
  6
CONTINUOUS
 10
5.851120
 20
5.548840
  0
VERTEX
  8
0
  6
CONTINUOUS
 10
5.816360
 20
5.536080
  0
SEQEND
  8
0
  0
SOLID
  8
0
 62
    15
 10
5.851120
 20
5.548840
 11
5.850680
 21
6.301680
 12
5.881920
 22
5.569080
 13
5.881480
 23
6.321920
  0
POLYLINE
  8
0
  6
CONTINUOUS
 66
     1
 40
0.000000
 41
0.000000
  0
VERTEX
  8
0
  6
CONTINUOUS
 10
5.851120
 20
5.548840
  0
VERTEX
  8
0
  6
CONTINUOUS
 10
5.850680
 20
6.301680
  0
VERTEX
  8
0
  6
CONTINUOUS
 10
5.881480
 20
6.321920
  0
VERTEX
  8
0
  6
CONTINUOUS
 10
5.881920
 20
5.569080
  0
VERTEX
  8
0
  6
CONTINUOUS
 10
5.851120
 20
5.548840
  0
SEQEND
  8
0
  0
SOLID
  8
0
 62
    15
 10
5.881920
 20
5.569080
 11
5.881480
 21
6.321920
 12
5.908760
 22
5.595480
 13
5.908320
 23
6.348320
  0
POLYLINE
  8
0
  6
CONTINUOUS
 66
     1
 40
0.000000
 41
0.000000
  0
VERTEX
  8
0
  6
CONTINUOUS
 10
5.881920
 20
5.569080
  0
VERTEX
  8
0
  6
CONTINUOUS
 10
5.881480
 20
6.321920
  0
VERTEX
  8
0
  6
CONTINUOUS
 10
5.908320
 20
6.348320
  0
VERTEX
  8
0
  6
CONTINUOUS
 10
5.908760
 20
5.595480
  0
VERTEX
  8
0
  6
CONTINUOUS
 10
5.881920
 20
5.569080
  0
SEQEND
  8
0
  0
SOLID
  8
0
 62
    15
 10
5.908760
 20
5.595480
 11
5.908320
 21
6.348320
 12
5.930320
 22
5.626720
 13
5.929880
 23
6.379120
  0
POLYLINE
  8
0
  6
CONTINUOUS
 66
     1
 40
0.000000
 41
0.000000
  0
VERTEX
  8
0
  6
CONTINUOUS
 10
5.908760
 20
5.595480
  0
VERTEX
  8
0
  6
CONTINUOUS
 10
5.908320
 20
6.348320
  0
VERTEX
  8
0
  6
CONTINUOUS
 10
5.929880
 20
6.379120
  0
VERTEX
  8
0
  6
CONTINUOUS
 10
5.930320
 20
5.626720
  0
VERTEX
  8
0
  6
CONTINUOUS
 10
5.908760
 20
5.595480
  0
SEQEND
  8
0
  0
SOLID
  8
0
 62
    15
 10
5.930320
 20
5.626720
 11
5.929880
 21
6.379120
 12
5.946600
 22
5.661040
 13
5.946160
 23
6.413440
  0
POLYLINE
  8
0
  6
CONTINUOUS
 66
     1
 40
0.000000
 41
0.000000
  0
VERTEX
  8
0
  6
CONTINUOUS
 10
5.930320
 20
5.626720
  0
VERTEX
  8
0
  6
CONTINUOUS
 10
5.929880
 20
6.379120
  0
VERTEX
  8
0
  6
CONTINUOUS
 10
5.946160
 20
6.413440
  0
VERTEX
  8
0
  6
CONTINUOUS
 10
5.946600
 20
5.661040
  0
VERTEX
  8
0
  6
CONTINUOUS
 10
5.930320
 20
5.626720
  0
SEQEND
  8
0
  0
SOLID
  8
0
 62
    15
 10
5.946600
 20
5.661040
 11
5.946160
 21
6.413440
 12
5.956720
 22
5.698000
 13
5.956720
 23
6.450400
  0
POLYLINE
  8
0
  6
CONTINUOUS
 66
     1
 40
0.000000
 41
0.000000
  0
VERTEX
  8
0
  6
CONTINUOUS
 10
5.946600
 20
5.661040
  0
VERTEX
  8
0
  6
CONTINUOUS
 10
5.946160
 20
6.413440
  0
VERTEX
  8
0
  6
CONTINUOUS
 10
5.956720
 20
6.450400
  0
VERTEX
  8
0
  6
CONTINUOUS
 10
5.956720
 20
5.698000
  0
VERTEX
  8
0
  6
CONTINUOUS
 10
5.946600
 20
5.661040
  0
SEQEND
  8
0
  0
SOLID
  8
0
 62
    15
 10
5.956720
 20
5.698000
 11
5.956720
 21
6.450400
 12
5.960240
 22
5.735400
 13
5.960240
 23
6.488240
  0
POLYLINE
  8
0
  6
CONTINUOUS
 66
     1
 40
0.000000
 41
0.000000
  0
VERTEX
  8
0
  6
CONTINUOUS
 10
5.956720
 20
5.698000
  0
VERTEX
  8
0
  6
CONTINUOUS
 10
5.956720
 20
6.450400
  0
VERTEX
  8
0
  6
CONTINUOUS
 10
5.960240
 20
6.488240
  0
VERTEX
  8
0
  6
CONTINUOUS
 10
5.960240
 20
5.735400
  0
VERTEX
  8
0
  6
CONTINUOUS
 10
5.956720
 20
5.698000
  0
SEQEND
  8
0
  0
SOLID
  8
0
 62
    15
 10
5.960240
 20
5.735400
 11
5.960240
 21
6.488240
 12
6.135800
 22
5.735400
 13
6.135800
 23
6.488240
  0
POLYLINE
  8
0
  6
CONTINUOUS
 66
     1
 40
0.000000
 41
0.000000
  0
VERTEX
  8
0
  6
CONTINUOUS
 10
5.960240
 20
5.735400
  0
VERTEX
  8
0
  6
CONTINUOUS
 10
5.960240
 20
6.488240
  0
VERTEX
  8
0
  6
CONTINUOUS
 10
6.135800
 20
6.488240
  0
VERTEX
  8
0
  6
CONTINUOUS
 10
6.135800
 20
5.735400
  0
VERTEX
  8
0
  6
CONTINUOUS
 10
5.960240
 20
5.735400
  0
SEQEND
  8
0
  0
SOLID
  8
0
 62
    15
 10
6.135800
 20
5.735400
 11
6.135800
 21
6.488240
 12
6.139760
 22
5.778520
 13
6.139320
 23
6.530920
  0
POLYLINE
  8
0
  6
CONTINUOUS
 66
     1
 40
0.000000
 41
0.000000
  0
VERTEX
  8
0
  6
CONTINUOUS
 10
6.135800
 20
5.735400
  0
VERTEX
  8
0
  6
CONTINUOUS
 10
6.135800
 20
6.488240
  0
VERTEX
  8
0
  6
CONTINUOUS
 10
6.139320
 20
6.530920
  0
VERTEX
  8
0
  6
CONTINUOUS
 10
6.139760
 20
5.778520
  0
VERTEX
  8
0
  6
CONTINUOUS
 10
6.135800
 20
5.735400
  0
SEQEND
  8
0
  0
SOLID
  8
0
 62
    15
 10
6.139760
 20
5.778520
 11
6.139320
 21
6.530920
 12
6.150320
 22
5.815480
 13
6.150320
 23
6.568320
  0
POLYLINE
  8
0
  6
CONTINUOUS
 66
     1
 40
0.000000
 41
0.000000
  0
VERTEX
  8
0
  6
CONTINUOUS
 10
6.139760
 20
5.778520
  0
VERTEX
  8
0
  6
CONTINUOUS
 10
6.139320
 20
6.530920
  0
VERTEX
  8
0
  6
CONTINUOUS
 10
6.150320
 20
6.568320
  0
VERTEX
  8
0
  6
CONTINUOUS
 10
6.150320
 20
5.815480
  0
VERTEX
  8
0
  6
CONTINUOUS
 10
6.139760
 20
5.778520
  0
SEQEND
  8
0
  0
SOLID
  8
0
 62
    15
 10
6.150320
 20
5.815480
 11
6.150320
 21
6.568320
 12
6.167040
 22
5.847160
 13
6.166600
 23
6.599560
  0
POLYLINE
  8
0
  6
CONTINUOUS
 66
     1
 40
0.000000
 41
0.000000
  0
VERTEX
  8
0
  6
CONTINUOUS
 10
6.150320
 20
5.815480
  0
VERTEX
  8
0
  6
CONTINUOUS
 10
6.150320
 20
6.568320
  0
VERTEX
  8
0
  6
CONTINUOUS
 10
6.166600
 20
6.599560
  0
VERTEX
  8
0
  6
CONTINUOUS
 10
6.167040
 20
5.847160
  0
VERTEX
  8
0
  6
CONTINUOUS
 10
6.150320
 20
5.815480
  0
SEQEND
  8
0
  0
SOLID
  8
0
 62
    15
 10
6.167040
 20
5.847160
 11
6.166600
 21
6.599560
 12
6.188160
 22
5.872680
 13
6.188160
 23
6.625520
  0
POLYLINE
  8
0
  6
CONTINUOUS
 66
     1
 40
0.000000
 41
0.000000
  0
VERTEX
  8
0
  6
CONTINUOUS
 10
6.167040
 20
5.847160
  0
VERTEX
  8
0
  6
CONTINUOUS
 10
6.166600
 20
6.599560
  0
VERTEX
  8
0
  6
CONTINUOUS
 10
6.188160
 20
6.625520
  0
VERTEX
  8
0
  6
CONTINUOUS
 10
6.188160
 20
5.872680
  0
VERTEX
  8
0
  6
CONTINUOUS
 10
6.167040
 20
5.847160
  0
SEQEND
  8
0
  0
SOLID
  8
0
 62
    15
 10
6.188160
 20
5.872680
 11
6.188160
 21
6.625520
 12
6.213680
 22
5.892920
 13
6.213240
 23
6.645320
  0
POLYLINE
  8
0
  6
CONTINUOUS
 66
     1
 40
0.000000
 41
0.000000
  0
VERTEX
  8
0
  6
CONTINUOUS
 10
6.188160
 20
5.872680
  0
VERTEX
  8
0
  6
CONTINUOUS
 10
6.188160
 20
6.625520
  0
VERTEX
  8
0
  6
CONTINUOUS
 10
6.213240
 20
6.645320
  0
VERTEX
  8
0
  6
CONTINUOUS
 10
6.213680
 20
5.892920
  0
VERTEX
  8
0
  6
CONTINUOUS
 10
6.188160
 20
5.872680
  0
SEQEND
  8
0
  0
SOLID
  8
0
 62
    15
 10
6.213680
 20
5.892920
 11
6.213240
 21
6.645320
 12
6.241840
 22
5.907000
 13
6.241400
 23
6.659840
  0
POLYLINE
  8
0
  6
CONTINUOUS
 66
     1
 40
0.000000
 41
0.000000
  0
VERTEX
  8
0
  6
CONTINUOUS
 10
6.213680
 20
5.892920
  0
VERTEX
  8
0
  6
CONTINUOUS
 10
6.213240
 20
6.645320
  0
VERTEX
  8
0
  6
CONTINUOUS
 10
6.241400
 20
6.659840
  0
VERTEX
  8
0
  6
CONTINUOUS
 10
6.241840
 20
5.907000
  0
VERTEX
  8
0
  6
CONTINUOUS
 10
6.213680
 20
5.892920
  0
SEQEND
  8
0
  0
SOLID
  8
0
 62
    15
 10
6.241840
 20
5.907000
 11
6.241400
 21
6.659840
 12
6.272200
 22
5.915800
 13
6.271760
 23
6.668200
  0
POLYLINE
  8
0
  6
CONTINUOUS
 66
     1
 40
0.000000
 41
0.000000
  0
VERTEX
  8
0
  6
CONTINUOUS
 10
6.241840
 20
5.907000
  0
VERTEX
  8
0
  6
CONTINUOUS
 10
6.241400
 20
6.659840
  0
VERTEX
  8
0
  6
CONTINUOUS
 10
6.271760
 20
6.668200
  0
VERTEX
  8
0
  6
CONTINUOUS
 10
6.272200
 20
5.915800
  0
VERTEX
  8
0
  6
CONTINUOUS
 10
6.241840
 20
5.907000
  0
SEQEND
  8
0
  0
SOLID
  8
0
 62
    15
 10
6.272200
 20
5.915800
 11
6.271760
 21
6.668200
 12
6.303000
 22
5.918440
 13
6.303000
 23
6.670840
  0
POLYLINE
  8
0
  6
CONTINUOUS
 66
     1
 40
0.000000
 41
0.000000
  0
VERTEX
  8
0
  6
CONTINUOUS
 10
6.272200
 20
5.915800
  0
VERTEX
  8
0
  6
CONTINUOUS
 10
6.271760
 20
6.668200
  0
VERTEX
  8
0
  6
CONTINUOUS
 10
6.303000
 20
6.670840
  0
VERTEX
  8
0
  6
CONTINUOUS
 10
6.303000
 20
5.918440
  0
VERTEX
  8
0
  6
CONTINUOUS
 10
6.272200
 20
5.915800
  0
SEQEND
  8
0
  0
SOLID
  8
0
 62
    15
 10
2.692360
 20
5.915360
 11
2.692360
 21
6.667760
 12
3.743520
 22
5.915360
 13
3.743080
 23
6.667760
  0
POLYLINE
  8
0
  6
CONTINUOUS
 66
     1
 40
0.000000
 41
0.000000
  0
VERTEX
  8
0
  6
CONTINUOUS
 10
2.692360
 20
5.915360
  0
VERTEX
  8
0
  6
CONTINUOUS
 10
2.692360
 20
6.667760
  0
VERTEX
  8
0
  6
CONTINUOUS
 10
3.743080
 20
6.667760
  0
VERTEX
  8
0
  6
CONTINUOUS
 10
3.743520
 20
5.915360
  0
VERTEX
  8
0
  6
CONTINUOUS
 10
2.692360
 20
5.915360
  0
SEQEND
  8
0
  0
SOLID
  8
0
 62
    15
 10
6.334240
 20
5.915800
 11
6.333800
 21
6.668200
 12
6.364600
 22
5.907000
 13
6.364160
 23
6.659840
  0
POLYLINE
  8
0
  6
CONTINUOUS
 66
     1
 40
0.000000
 41
0.000000
  0
VERTEX
  8
0
  6
CONTINUOUS
 10
6.334240
 20
5.915800
  0
VERTEX
  8
0
  6
CONTINUOUS
 10
6.333800
 20
6.668200
  0
VERTEX
  8
0
  6
CONTINUOUS
 10
6.364160
 20
6.659840
  0
VERTEX
  8
0
  6
CONTINUOUS
 10
6.364600
 20
5.907000
  0
VERTEX
  8
0
  6
CONTINUOUS
 10
6.334240
 20
5.915800
  0
SEQEND
  8
0
  0
SOLID
  8
0
 62
    15
 10
6.364600
 20
5.907000
 11
6.364160
 21
6.659840
 12
6.392760
 22
5.892920
 13
6.392320
 23
6.645320
  0
POLYLINE
  8
0
  6
CONTINUOUS
 66
     1
 40
0.000000
 41
0.000000
  0
VERTEX
  8
0
  6
CONTINUOUS
 10
6.364600
 20
5.907000
  0
VERTEX
  8
0
  6
CONTINUOUS
 10
6.364160
 20
6.659840
  0
VERTEX
  8
0
  6
CONTINUOUS
 10
6.392320
 20
6.645320
  0
VERTEX
  8
0
  6
CONTINUOUS
 10
6.392760
 20
5.892920
  0
VERTEX
  8
0
  6
CONTINUOUS
 10
6.364600
 20
5.907000
  0
SEQEND
  8
0
  0
SOLID
  8
0
 62
    15
 10
6.392760
 20
5.892920
 11
6.392320
 21
6.645320
 12
6.417840
 22
5.872680
 13
6.417840
 23
6.625080
  0
POLYLINE
  8
0
  6
CONTINUOUS
 66
     1
 40
0.000000
 41
0.000000
  0
VERTEX
  8
0
  6
CONTINUOUS
 10
6.392760
 20
5.892920
  0
VERTEX
  8
0
  6
CONTINUOUS
 10
6.392320
 20
6.645320
  0
VERTEX
  8
0
  6
CONTINUOUS
 10
6.417840
 20
6.625080
  0
VERTEX
  8
0
  6
CONTINUOUS
 10
6.417840
 20
5.872680
  0
VERTEX
  8
0
  6
CONTINUOUS
 10
6.392760
 20
5.892920
  0
SEQEND
  8
0
  0
SOLID
  8
0
 62
    15
 10
6.417840
 20
5.872680
 11
6.417840
 21
6.625080
 12
6.439400
 22
5.847160
 13
6.438960
 23
6.599560
  0
POLYLINE
  8
0
  6
CONTINUOUS
 66
     1
 40
0.000000
 41
0.000000
  0
VERTEX
  8
0
  6
CONTINUOUS
 10
6.417840
 20
5.872680
  0
VERTEX
  8
0
  6
CONTINUOUS
 10
6.417840
 20
6.625080
  0
VERTEX
  8
0
  6
CONTINUOUS
 10
6.438960
 20
6.599560
  0
VERTEX
  8
0
  6
CONTINUOUS
 10
6.439400
 20
5.847160
  0
VERTEX
  8
0
  6
CONTINUOUS
 10
6.417840
 20
5.872680
  0
SEQEND
  8
0
  0
SOLID
  8
0
 62
    15
 10
6.455680
 20
5.815480
 11
6.455240
 21
6.567880
 12
6.466240
 22
5.778080
 13
6.466240
 23
6.530920
  0
POLYLINE
  8
0
  6
CONTINUOUS
 66
     1
 40
0.000000
 41
0.000000
  0
VERTEX
  8
0
  6
CONTINUOUS
 10
6.455680
 20
5.815480
  0
VERTEX
  8
0
  6
CONTINUOUS
 10
6.455240
 20
6.567880
  0
VERTEX
  8
0
  6
CONTINUOUS
 10
6.466240
 20
6.530920
  0
VERTEX
  8
0
  6
CONTINUOUS
 10
6.466240
 20
5.778080
  0
VERTEX
  8
0
  6
CONTINUOUS
 10
6.455680
 20
5.815480
  0
SEQEND
  8
0
  0
SOLID
  8
0
 62
    15
 10
6.439400
 20
5.847160
 11
6.438960
 21
6.599560
 12
6.455680
 22
5.815480
 13
6.455240
 23
6.567880
  0
POLYLINE
  8
0
  6
CONTINUOUS
 66
     1
 40
0.000000
 41
0.000000
  0
VERTEX
  8
0
  6
CONTINUOUS
 10
6.439400
 20
5.847160
  0
VERTEX
  8
0
  6
CONTINUOUS
 10
6.438960
 20
6.599560
  0
VERTEX
  8
0
  6
CONTINUOUS
 10
6.455240
 20
6.567880
  0
VERTEX
  8
0
  6
CONTINUOUS
 10
6.455680
 20
5.815480
  0
VERTEX
  8
0
  6
CONTINUOUS
 10
6.439400
 20
5.847160
  0
SEQEND
  8
0
  0
SOLID
  8
0
 62
    15
 10
6.630360
 20
5.522000
 11
6.630360
 21
6.274400
 12
6.677880
 22
5.519800
 13
6.677880
 23
6.272200
  0
POLYLINE
  8
0
  6
CONTINUOUS
 66
     1
 40
0.000000
 41
0.000000
  0
VERTEX
  8
0
  6
CONTINUOUS
 10
6.630360
 20
5.522000
  0
VERTEX
  8
0
  6
CONTINUOUS
 10
6.630360
 20
6.274400
  0
VERTEX
  8
0
  6
CONTINUOUS
 10
6.677880
 20
6.272200
  0
VERTEX
  8
0
  6
CONTINUOUS
 10
6.677880
 20
5.519800
  0
VERTEX
  8
0
  6
CONTINUOUS
 10
6.630360
 20
5.522000
  0
SEQEND
  8
0
  0
SOLID
  8
0
 62
    15
 10
6.470200
 20
5.735400
 11
6.469760
 21
6.487800
 12
6.630360
 22
5.735400
 13
6.630360
 23
6.487800
  0
POLYLINE
  8
0
  6
CONTINUOUS
 66
     1
 40
0.000000
 41
0.000000
  0
VERTEX
  8
0
  6
CONTINUOUS
 10
6.470200
 20
5.735400
  0
VERTEX
  8
0
  6
CONTINUOUS
 10
6.469760
 20
6.487800
  0
VERTEX
  8
0
  6
CONTINUOUS
 10
6.630360
 20
6.487800
  0
VERTEX
  8
0
  6
CONTINUOUS
 10
6.630360
 20
5.735400
  0
VERTEX
  8
0
  6
CONTINUOUS
 10
6.470200
 20
5.735400
  0
SEQEND
  8
0
  0
SOLID
  8
0
 62
    15
 10
6.466240
 20
5.778080
 11
6.466240
 21
6.530920
 12
6.470200
 22
5.735400
 13
6.469760
 23
6.487800
  0
POLYLINE
  8
0
  6
CONTINUOUS
 66
     1
 40
0.000000
 41
0.000000
  0
VERTEX
  8
0
  6
CONTINUOUS
 10
6.466240
 20
5.778080
  0
VERTEX
  8
0
  6
CONTINUOUS
 10
6.466240
 20
6.530920
  0
VERTEX
  8
0
  6
CONTINUOUS
 10
6.469760
 20
6.487800
  0
VERTEX
  8
0
  6
CONTINUOUS
 10
6.470200
 20
5.735400
  0
VERTEX
  8
0
  6
CONTINUOUS
 10
6.466240
 20
5.778080
  0
SEQEND
  8
0
  0
SOLID
  8
0
 62
    15
 10
6.677880
 20
5.519800
 11
6.677880
 21
6.272200
 12
6.721440
 22
5.513640
 13
6.721000
 23
6.266040
  0
POLYLINE
  8
0
  6
CONTINUOUS
 66
     1
 40
0.000000
 41
0.000000
  0
VERTEX
  8
0
  6
CONTINUOUS
 10
6.677880
 20
5.519800
  0
VERTEX
  8
0
  6
CONTINUOUS
 10
6.677880
 20
6.272200
  0
VERTEX
  8
0
  6
CONTINUOUS
 10
6.721000
 20
6.266040
  0
VERTEX
  8
0
  6
CONTINUOUS
 10
6.721440
 20
5.513640
  0
VERTEX
  8
0
  6
CONTINUOUS
 10
6.677880
 20
5.519800
  0
SEQEND
  8
0
  0
SOLID
  8
0
 62
    15
 10
6.721440
 20
5.513640
 11
6.721000
 21
6.266040
 12
6.796240
 22
5.489880
 13
6.795800
 23
6.242280
  0
POLYLINE
  8
0
  6
CONTINUOUS
 66
     1
 40
0.000000
 41
0.000000
  0
VERTEX
  8
0
  6
CONTINUOUS
 10
6.721440
 20
5.513640
  0
VERTEX
  8
0
  6
CONTINUOUS
 10
6.721000
 20
6.266040
  0
VERTEX
  8
0
  6
CONTINUOUS
 10
6.795800
 20
6.242280
  0
VERTEX
  8
0
  6
CONTINUOUS
 10
6.796240
 20
5.489880
  0
VERTEX
  8
0
  6
CONTINUOUS
 10
6.721440
 20
5.513640
  0
SEQEND
  8
0
  0
SOLID
  8
0
 62
    15
 10
6.796240
 20
5.489880
 11
6.795800
 21
6.242280
 12
6.855640
 22
5.454680
 13
6.855640
 23
6.207520
  0
POLYLINE
  8
0
  6
CONTINUOUS
 66
     1
 40
0.000000
 41
0.000000
  0
VERTEX
  8
0
  6
CONTINUOUS
 10
6.796240
 20
5.489880
  0
VERTEX
  8
0
  6
CONTINUOUS
 10
6.795800
 20
6.242280
  0
VERTEX
  8
0
  6
CONTINUOUS
 10
6.855640
 20
6.207520
  0
VERTEX
  8
0
  6
CONTINUOUS
 10
6.855640
 20
5.454680
  0
VERTEX
  8
0
  6
CONTINUOUS
 10
6.796240
 20
5.489880
  0
SEQEND
  8
0
  0
SOLID
  8
0
 62
    15
 10
6.855640
 20
5.454680
 11
6.855640
 21
6.207520
 12
6.901840
 22
5.412440
 13
6.901400
 23
6.164840
  0
POLYLINE
  8
0
  6
CONTINUOUS
 66
     1
 40
0.000000
 41
0.000000
  0
VERTEX
  8
0
  6
CONTINUOUS
 10
6.855640
 20
5.454680
  0
VERTEX
  8
0
  6
CONTINUOUS
 10
6.855640
 20
6.207520
  0
VERTEX
  8
0
  6
CONTINUOUS
 10
6.901400
 20
6.164840
  0
VERTEX
  8
0
  6
CONTINUOUS
 10
6.901840
 20
5.412440
  0
VERTEX
  8
0
  6
CONTINUOUS
 10
6.855640
 20
5.454680
  0
SEQEND
  8
0
  0
SOLID
  8
0
 62
    15
 10
6.901840
 20
5.412440
 11
6.901400
 21
6.164840
 12
6.935280
 22
5.366240
 13
6.934840
 23
6.118640
  0
POLYLINE
  8
0
  6
CONTINUOUS
 66
     1
 40
0.000000
 41
0.000000
  0
VERTEX
  8
0
  6
CONTINUOUS
 10
6.901840
 20
5.412440
  0
VERTEX
  8
0
  6
CONTINUOUS
 10
6.901400
 20
6.164840
  0
VERTEX
  8
0
  6
CONTINUOUS
 10
6.934840
 20
6.118640
  0
VERTEX
  8
0
  6
CONTINUOUS
 10
6.935280
 20
5.366240
  0
VERTEX
  8
0
  6
CONTINUOUS
 10
6.901840
 20
5.412440
  0
SEQEND
  8
0
  0
SOLID
  8
0
 62
    15
 10
6.957720
 20
5.320480
 11
6.957280
 21
6.072880
 12
6.970040
 22
5.278240
 13
6.970040
 23
6.030640
  0
POLYLINE
  8
0
  6
CONTINUOUS
 66
     1
 40
0.000000
 41
0.000000
  0
VERTEX
  8
0
  6
CONTINUOUS
 10
6.957720
 20
5.320480
  0
VERTEX
  8
0
  6
CONTINUOUS
 10
6.957280
 20
6.072880
  0
VERTEX
  8
0
  6
CONTINUOUS
 10
6.970040
 20
6.030640
  0
VERTEX
  8
0
  6
CONTINUOUS
 10
6.970040
 20
5.278240
  0
VERTEX
  8
0
  6
CONTINUOUS
 10
6.957720
 20
5.320480
  0
SEQEND
  8
0
  0
SOLID
  8
0
 62
    15
 10
6.935280
 20
5.366240
 11
6.934840
 21
6.118640
 12
6.957720
 22
5.320480
 13
6.957280
 23
6.072880
  0
POLYLINE
  8
0
  6
CONTINUOUS
 66
     1
 40
0.000000
 41
0.000000
  0
VERTEX
  8
0
  6
CONTINUOUS
 10
6.935280
 20
5.366240
  0
VERTEX
  8
0
  6
CONTINUOUS
 10
6.934840
 20
6.118640
  0
VERTEX
  8
0
  6
CONTINUOUS
 10
6.957280
 20
6.072880
  0
VERTEX
  8
0
  6
CONTINUOUS
 10
6.957720
 20
5.320480
  0
VERTEX
  8
0
  6
CONTINUOUS
 10
6.935280
 20
5.366240
  0
SEQEND
  8
0
  0
SOLID
  8
0
 62
    15
 10
6.970040
 20
5.278240
 11
6.970040
 21
6.030640
 12
6.977520
 22
5.212680
 13
6.977520
 23
5.965080
  0
POLYLINE
  8
0
  6
CONTINUOUS
 66
     1
 40
0.000000
 41
0.000000
  0
VERTEX
  8
0
  6
CONTINUOUS
 10
6.970040
 20
5.278240
  0
VERTEX
  8
0
  6
CONTINUOUS
 10
6.970040
 20
6.030640
  0
VERTEX
  8
0
  6
CONTINUOUS
 10
6.977520
 20
5.965080
  0
VERTEX
  8
0
  6
CONTINUOUS
 10
6.977520
 20
5.212680
  0
VERTEX
  8
0
  6
CONTINUOUS
 10
6.970040
 20
5.278240
  0
SEQEND
  8
0
  0
SOLID
  8
0
 62
    15
 10
6.989840
 20
5.180120
 11
6.989400
 21
5.932520
 12
7.012280
 22
5.147120
 13
7.012280
 23
5.899520
  0
POLYLINE
  8
0
  6
CONTINUOUS
 66
     1
 40
0.000000
 41
0.000000
  0
VERTEX
  8
0
  6
CONTINUOUS
 10
6.989840
 20
5.180120
  0
VERTEX
  8
0
  6
CONTINUOUS
 10
6.989400
 20
5.932520
  0
VERTEX
  8
0
  6
CONTINUOUS
 10
7.012280
 20
5.899520
  0
VERTEX
  8
0
  6
CONTINUOUS
 10
7.012280
 20
5.147120
  0
VERTEX
  8
0
  6
CONTINUOUS
 10
6.989840
 20
5.180120
  0
SEQEND
  8
0
  0
SOLID
  8
0
 62
    15
 10
6.977520
 20
5.212680
 11
6.977520
 21
5.965080
 12
6.989840
 22
5.180120
 13
6.989400
 23
5.932520
  0
POLYLINE
  8
0
  6
CONTINUOUS
 66
     1
 40
0.000000
 41
0.000000
  0
VERTEX
  8
0
  6
CONTINUOUS
 10
6.977520
 20
5.212680
  0
VERTEX
  8
0
  6
CONTINUOUS
 10
6.977520
 20
5.965080
  0
VERTEX
  8
0
  6
CONTINUOUS
 10
6.989400
 20
5.932520
  0
VERTEX
  8
0
  6
CONTINUOUS
 10
6.989840
 20
5.180120
  0
VERTEX
  8
0
  6
CONTINUOUS
 10
6.977520
 20
5.212680
  0
SEQEND
  8
0
  0
SOLID
  8
0
 62
    15
 10
7.012280
 20
5.147120
 11
7.012280
 21
5.899520
 12
7.047480
 22
5.116320
 13
7.047040
 23
5.868720
  0
POLYLINE
  8
0
  6
CONTINUOUS
 66
     1
 40
0.000000
 41
0.000000
  0
VERTEX
  8
0
  6
CONTINUOUS
 10
7.012280
 20
5.147120
  0
VERTEX
  8
0
  6
CONTINUOUS
 10
7.012280
 20
5.899520
  0
VERTEX
  8
0
  6
CONTINUOUS
 10
7.047040
 20
5.868720
  0
VERTEX
  8
0
  6
CONTINUOUS
 10
7.047480
 20
5.116320
  0
VERTEX
  8
0
  6
CONTINUOUS
 10
7.012280
 20
5.147120
  0
SEQEND
  8
0
  0
SOLID
  8
0
 62
    15
 10
7.047480
 20
5.116320
 11
7.047040
 21
5.868720
 12
7.096760
 22
5.089040
 13
7.096320
 23
5.841440
  0
POLYLINE
  8
0
  6
CONTINUOUS
 66
     1
 40
0.000000
 41
0.000000
  0
VERTEX
  8
0
  6
CONTINUOUS
 10
7.047480
 20
5.116320
  0
VERTEX
  8
0
  6
CONTINUOUS
 10
7.047040
 20
5.868720
  0
VERTEX
  8
0
  6
CONTINUOUS
 10
7.096320
 20
5.841440
  0
VERTEX
  8
0
  6
CONTINUOUS
 10
7.096760
 20
5.089040
  0
VERTEX
  8
0
  6
CONTINUOUS
 10
7.047480
 20
5.116320
  0
SEQEND
  8
0
  0
SOLID
  8
0
 62
    15
 10
7.096760
 20
5.089040
 11
7.096320
 21
5.841440
 12
7.162320
 22
5.067040
 13
7.161880
 23
5.819440
  0
POLYLINE
  8
0
  6
CONTINUOUS
 66
     1
 40
0.000000
 41
0.000000
  0
VERTEX
  8
0
  6
CONTINUOUS
 10
7.096760
 20
5.089040
  0
VERTEX
  8
0
  6
CONTINUOUS
 10
7.096320
 20
5.841440
  0
VERTEX
  8
0
  6
CONTINUOUS
 10
7.161880
 20
5.819440
  0
VERTEX
  8
0
  6
CONTINUOUS
 10
7.162320
 20
5.067040
  0
VERTEX
  8
0
  6
CONTINUOUS
 10
7.096760
 20
5.089040
  0
SEQEND
  8
0
  0
SOLID
  8
0
 62
    15
 10
7.162320
 20
5.067040
 11
7.161880
 21
5.819440
 12
7.201920
 22
5.058680
 13
7.201480
 23
5.811520
  0
POLYLINE
  8
0
  6
CONTINUOUS
 66
     1
 40
0.000000
 41
0.000000
  0
VERTEX
  8
0
  6
CONTINUOUS
 10
7.162320
 20
5.067040
  0
VERTEX
  8
0
  6
CONTINUOUS
 10
7.161880
 20
5.819440
  0
VERTEX
  8
0
  6
CONTINUOUS
 10
7.201480
 20
5.811520
  0
VERTEX
  8
0
  6
CONTINUOUS
 10
7.201920
 20
5.058680
  0
VERTEX
  8
0
  6
CONTINUOUS
 10
7.162320
 20
5.067040
  0
SEQEND
  8
0
  0
SOLID
  8
0
 62
    15
 10
7.201920
 20
5.058680
 11
7.201480
 21
5.811520
 12
7.246360
 22
5.052520
 13
7.245920
 23
5.805360
  0
POLYLINE
  8
0
  6
CONTINUOUS
 66
     1
 40
0.000000
 41
0.000000
  0
VERTEX
  8
0
  6
CONTINUOUS
 10
7.201920
 20
5.058680
  0
VERTEX
  8
0
  6
CONTINUOUS
 10
7.201480
 20
5.811520
  0
VERTEX
  8
0
  6
CONTINUOUS
 10
7.245920
 20
5.805360
  0
VERTEX
  8
0
  6
CONTINUOUS
 10
7.246360
 20
5.052520
  0
VERTEX
  8
0
  6
CONTINUOUS
 10
7.201920
 20
5.058680
  0
SEQEND
  8
0
  0
SOLID
  8
0
 62
    15
 10
7.246360
 20
5.052520
 11
7.245920
 21
5.805360
 12
7.295640
 22
5.049000
 13
7.295200
 23
5.801400
  0
POLYLINE
  8
0
  6
CONTINUOUS
 66
     1
 40
0.000000
 41
0.000000
  0
VERTEX
  8
0
  6
CONTINUOUS
 10
7.246360
 20
5.052520
  0
VERTEX
  8
0
  6
CONTINUOUS
 10
7.245920
 20
5.805360
  0
VERTEX
  8
0
  6
CONTINUOUS
 10
7.295200
 20
5.801400
  0
VERTEX
  8
0
  6
CONTINUOUS
 10
7.295640
 20
5.049000
  0
VERTEX
  8
0
  6
CONTINUOUS
 10
7.246360
 20
5.052520
  0
SEQEND
  8
0
  0
SOLID
  8
0
 62
    15
 10
7.350200
 20
5.047680
 11
7.350200
 21
5.800080
 12
7.351080
 22
4.797760
 13
7.351080
 23
5.550160
  0
POLYLINE
  8
0
  6
CONTINUOUS
 66
     1
 40
0.000000
 41
0.000000
  0
VERTEX
  8
0
  6
CONTINUOUS
 10
7.350200
 20
5.047680
  0
VERTEX
  8
0
  6
CONTINUOUS
 10
7.350200
 20
5.800080
  0
VERTEX
  8
0
  6
CONTINUOUS
 10
7.351080
 20
5.550160
  0
VERTEX
  8
0
  6
CONTINUOUS
 10
7.351080
 20
4.797760
  0
VERTEX
  8
0
  6
CONTINUOUS
 10
7.350200
 20
5.047680
  0
SEQEND
  8
0
  0
SOLID
  8
0
 62
    15
 10
7.295640
 20
5.049000
 11
7.295200
 21
5.801400
 12
7.350200
 22
5.047680
 13
7.350200
 23
5.800080
  0
POLYLINE
  8
0
  6
CONTINUOUS
 66
     1
 40
0.000000
 41
0.000000
  0
VERTEX
  8
0
  6
CONTINUOUS
 10
7.295640
 20
5.049000
  0
VERTEX
  8
0
  6
CONTINUOUS
 10
7.295200
 20
5.801400
  0
VERTEX
  8
0
  6
CONTINUOUS
 10
7.350200
 20
5.800080
  0
VERTEX
  8
0
  6
CONTINUOUS
 10
7.350200
 20
5.047680
  0
VERTEX
  8
0
  6
CONTINUOUS
 10
7.295640
 20
5.049000
  0
SEQEND
  8
0
  0
SOLID
  8
0
 62
    15
 10
2.692360
 20
4.797760
 11
2.691920
 21
5.550160
 12
2.692360
 22
4.813160
 13
2.692360
 23
5.565560
  0
POLYLINE
  8
0
  6
CONTINUOUS
 66
     1
 40
0.000000
 41
0.000000
  0
VERTEX
  8
0
  6
CONTINUOUS
 10
2.692360
 20
4.797760
  0
VERTEX
  8
0
  6
CONTINUOUS
 10
2.691920
 20
5.550160
  0
VERTEX
  8
0
  6
CONTINUOUS
 10
2.692360
 20
5.565560
  0
VERTEX
  8
0
  6
CONTINUOUS
 10
2.692360
 20
4.813160
  0
VERTEX
  8
0
  6
CONTINUOUS
 10
2.692360
 20
4.797760
  0
SEQEND
  8
0
  0
POLYLINE
  8
0
  6
CONTINUOUS
 66
     1
 40
0.000000
 41
0.000000
  0
VERTEX
  8
0
  6
CONTINUOUS
 10
2.692360
 20
4.813160
  0
VERTEX
  8
0
  6
CONTINUOUS
 10
2.692360
 20
5.915360
  0
VERTEX
  8
0
  6
CONTINUOUS
 10
3.743520
 20
5.915360
  0
VERTEX
  8
0
  6
CONTINUOUS
 10
3.743520
 20
5.735400
  0
VERTEX
  8
0
  6
CONTINUOUS
 10
3.957800
 20
5.735400
  0
VERTEX
  8
0
  6
CONTINUOUS
 10
3.963520
 20
5.676000
  0
VERTEX
  8
0
  6
CONTINUOUS
 10
3.980240
 20
5.628920
  0
VERTEX
  8
0
  6
CONTINUOUS
 10
4.006200
 20
5.592840
  0
VERTEX
  8
0
  6
CONTINUOUS
 10
4.040080
 20
5.566440
  0
VERTEX
  8
0
  6
CONTINUOUS
 10
4.080120
 20
5.547960
  0
VERTEX
  8
0
  6
CONTINUOUS
 10
4.125000
 20
5.536520
  0
VERTEX
  8
0
  6
CONTINUOUS
 10
4.224000
 20
5.529480
  0
VERTEX
  8
0
  6
CONTINUOUS
 10
4.774880
 20
5.531240
  0
VERTEX
  8
0
  6
CONTINUOUS
 10
5.778960
 20
5.531240
  0
VERTEX
  8
0
  6
CONTINUOUS
 10
5.816360
 20
5.536080
  0
VERTEX
  8
0
  6
CONTINUOUS
 10
5.851120
 20
5.548840
  0
VERTEX
  8
0
  6
CONTINUOUS
 10
5.881920
 20
5.569080
  0
VERTEX
  8
0
  6
CONTINUOUS
 10
5.908760
 20
5.595480
  0
VERTEX
  8
0
  6
CONTINUOUS
 10
5.930320
 20
5.626720
  0
VERTEX
  8
0
  6
CONTINUOUS
 10
5.946600
 20
5.661040
  0
VERTEX
  8
0
  6
CONTINUOUS
 10
5.956720
 20
5.698000
  0
VERTEX
  8
0
  6
CONTINUOUS
 10
5.960240
 20
5.735400
  0
VERTEX
  8
0
  6
CONTINUOUS
 10
6.135800
 20
5.735400
  0
VERTEX
  8
0
  6
CONTINUOUS
 10
6.139760
 20
5.778520
  0
VERTEX
  8
0
  6
CONTINUOUS
 10
6.150320
 20
5.815480
  0
VERTEX
  8
0
  6
CONTINUOUS
 10
6.167040
 20
5.847160
  0
VERTEX
  8
0
  6
CONTINUOUS
 10
6.188160
 20
5.872680
  0
VERTEX
  8
0
  6
CONTINUOUS
 10
6.213680
 20
5.892920
  0
VERTEX
  8
0
  6
CONTINUOUS
 10
6.241840
 20
5.907000
  0
VERTEX
  8
0
  6
CONTINUOUS
 10
6.272200
 20
5.915800
  0
VERTEX
  8
0
  6
CONTINUOUS
 10
6.303000
 20
5.918440
  0
VERTEX
  8
0
  6
CONTINUOUS
 10
6.334240
 20
5.915800
  0
VERTEX
  8
0
  6
CONTINUOUS
 10
6.364600
 20
5.907000
  0
VERTEX
  8
0
  6
CONTINUOUS
 10
6.392760
 20
5.892920
  0
VERTEX
  8
0
  6
CONTINUOUS
 10
6.417840
 20
5.872680
  0
VERTEX
  8
0
  6
CONTINUOUS
 10
6.439400
 20
5.847160
  0
VERTEX
  8
0
  6
CONTINUOUS
 10
6.455680
 20
5.815480
  0
VERTEX
  8
0
  6
CONTINUOUS
 10
6.466240
 20
5.778080
  0
VERTEX
  8
0
  6
CONTINUOUS
 10
6.470200
 20
5.735400
  0
VERTEX
  8
0
  6
CONTINUOUS
 10
6.630360
 20
5.735400
  0
VERTEX
  8
0
  6
CONTINUOUS
 10
6.630360
 20
5.522000
  0
VERTEX
  8
0
  6
CONTINUOUS
 10
6.677880
 20
5.519800
  0
VERTEX
  8
0
  6
CONTINUOUS
 10
6.721440
 20
5.513640
  0
VERTEX
  8
0
  6
CONTINUOUS
 10
6.796240
 20
5.489880
  0
VERTEX
  8
0
  6
CONTINUOUS
 10
6.855640
 20
5.454680
  0
VERTEX
  8
0
  6
CONTINUOUS
 10
6.901840
 20
5.412440
  0
VERTEX
  8
0
  6
CONTINUOUS
 10
6.935280
 20
5.366240
  0
VERTEX
  8
0
  6
CONTINUOUS
 10
6.957720
 20
5.320480
  0
VERTEX
  8
0
  6
CONTINUOUS
 10
6.970040
 20
5.278240
  0
VERTEX
  8
0
  6
CONTINUOUS
 10
6.977520
 20
5.212680
  0
VERTEX
  8
0
  6
CONTINUOUS
 10
6.989840
 20
5.180120
  0
VERTEX
  8
0
  6
CONTINUOUS
 10
7.012280
 20
5.147120
  0
VERTEX
  8
0
  6
CONTINUOUS
 10
7.047480
 20
5.116320
  0
VERTEX
  8
0
  6
CONTINUOUS
 10
7.096760
 20
5.089040
  0
VERTEX
  8
0
  6
CONTINUOUS
 10
7.162320
 20
5.067040
  0
VERTEX
  8
0
  6
CONTINUOUS
 10
7.201920
 20
5.058680
  0
VERTEX
  8
0
  6
CONTINUOUS
 10
7.246360
 20
5.052520
  0
VERTEX
  8
0
  6
CONTINUOUS
 10
7.295640
 20
5.049000
  0
VERTEX
  8
0
  6
CONTINUOUS
 10
7.350200
 20
5.047680
  0
VERTEX
  8
0
  6
CONTINUOUS
 10
7.351080
 20
4.797760
  0
VERTEX
  8
0
  6
CONTINUOUS
 10
2.692360
 20
4.797760
  0
VERTEX
  8
0
  6
CONTINUOUS
 10
2.692360
 20
4.813160
  0
SEQEND
  8
0
  0
SOLID
  8
0
 62
    15
 10
2.879360
 20
6.461840
 11
2.876280
 21
7.193120
 12
2.913240
 22
6.461840
 13
2.910160
 23
7.193120
  0
POLYLINE
  8
0
  6
CONTINUOUS
 66
     1
 40
0.000000
 41
0.000000
  0
VERTEX
  8
0
  6
CONTINUOUS
 10
2.879360
 20
6.461840
  0
VERTEX
  8
0
  6
CONTINUOUS
 10
2.876280
 20
7.193120
  0
VERTEX
  8
0
  6
CONTINUOUS
 10
2.910160
 20
7.193120
  0
VERTEX
  8
0
  6
CONTINUOUS
 10
2.913240
 20
6.461840
  0
VERTEX
  8
0
  6
CONTINUOUS
 10
2.879360
 20
6.461840
  0
SEQEND
  8
0
  0
SOLID
  8
0
 62
    15
 10
1.943920
 20
6.659840
 11
1.941280
 21
7.390680
 12
2.064480
 22
6.659840
 13
2.061400
 23
7.390680
  0
POLYLINE
  8
0
  6
CONTINUOUS
 66
     1
 40
0.000000
 41
0.000000
  0
VERTEX
  8
0
  6
CONTINUOUS
 10
1.943920
 20
6.659840
  0
VERTEX
  8
0
  6
CONTINUOUS
 10
1.941280
 20
7.390680
  0
VERTEX
  8
0
  6
CONTINUOUS
 10
2.061400
 20
7.390680
  0
VERTEX
  8
0
  6
CONTINUOUS
 10
2.064480
 20
6.659840
  0
VERTEX
  8
0
  6
CONTINUOUS
 10
1.943920
 20
6.659840
  0
SEQEND
  8
0
  0
SOLID
  8
0
 62
    15
 10
1.426480
 20
4.797320
 11
1.423400
 21
5.528600
 12
1.426480
 22
6.818240
 13
1.423400
 23
7.549080
  0
POLYLINE
  8
0
  6
CONTINUOUS
 66
     1
 40
0.000000
 41
0.000000
  0
VERTEX
  8
0
  6
CONTINUOUS
 10
1.426480
 20
4.797320
  0
VERTEX
  8
0
  6
CONTINUOUS
 10
1.423400
 20
5.528600
  0
VERTEX
  8
0
  6
CONTINUOUS
 10
1.423400
 20
7.549080
  0
VERTEX
  8
0
  6
CONTINUOUS
 10
1.426480
 20
6.818240
  0
VERTEX
  8
0
  6
CONTINUOUS
 10
1.426480
 20
4.797320
  0
SEQEND
  8
0
  0
SOLID
  8
0
 62
    15
 10
2.064480
 20
6.659840
 11
2.061400
 21
7.390680
 12
2.093520
 22
6.709560
 13
2.090880
 23
7.440840
  0
POLYLINE
  8
0
  6
CONTINUOUS
 66
     1
 40
0.000000
 41
0.000000
  0
VERTEX
  8
0
  6
CONTINUOUS
 10
2.064480
 20
6.659840
  0
VERTEX
  8
0
  6
CONTINUOUS
 10
2.061400
 20
7.390680
  0
VERTEX
  8
0
  6
CONTINUOUS
 10
2.090880
 20
7.440840
  0
VERTEX
  8
0
  6
CONTINUOUS
 10
2.093520
 20
6.709560
  0
VERTEX
  8
0
  6
CONTINUOUS
 10
2.064480
 20
6.659840
  0
SEQEND
  8
0
  0
SOLID
  8
0
 62
    15
 10
2.093520
 20
6.709560
 11
2.090880
 21
7.440840
 12
2.133560
 22
6.745200
 13
2.130480
 23
7.476040
  0
POLYLINE
  8
0
  6
CONTINUOUS
 66
     1
 40
0.000000
 41
0.000000
  0
VERTEX
  8
0
  6
CONTINUOUS
 10
2.093520
 20
6.709560
  0
VERTEX
  8
0
  6
CONTINUOUS
 10
2.090880
 20
7.440840
  0
VERTEX
  8
0
  6
CONTINUOUS
 10
2.130480
 20
7.476040
  0
VERTEX
  8
0
  6
CONTINUOUS
 10
2.133560
 20
6.745200
  0
VERTEX
  8
0
  6
CONTINUOUS
 10
2.093520
 20
6.709560
  0
SEQEND
  8
0
  0
SOLID
  8
0
 62
    15
 10
2.133560
 20
6.745200
 11
2.130480
 21
7.476040
 12
2.180640
 22
6.766760
 13
2.177560
 23
7.498040
  0
POLYLINE
  8
0
  6
CONTINUOUS
 66
     1
 40
0.000000
 41
0.000000
  0
VERTEX
  8
0
  6
CONTINUOUS
 10
2.133560
 20
6.745200
  0
VERTEX
  8
0
  6
CONTINUOUS
 10
2.130480
 20
7.476040
  0
VERTEX
  8
0
  6
CONTINUOUS
 10
2.177560
 20
7.498040
  0
VERTEX
  8
0
  6
CONTINUOUS
 10
2.180640
 20
6.766760
  0
VERTEX
  8
0
  6
CONTINUOUS
 10
2.133560
 20
6.745200
  0
SEQEND
  8
0
  0
SOLID
  8
0
 62
    15
 10
2.180640
 20
6.766760
 11
2.177560
 21
7.498040
 12
2.232560
 22
6.776440
 13
2.229480
 23
7.507720
  0
POLYLINE
  8
0
  6
CONTINUOUS
 66
     1
 40
0.000000
 41
0.000000
  0
VERTEX
  8
0
  6
CONTINUOUS
 10
2.180640
 20
6.766760
  0
VERTEX
  8
0
  6
CONTINUOUS
 10
2.177560
 20
7.498040
  0
VERTEX
  8
0
  6
CONTINUOUS
 10
2.229480
 20
7.507720
  0
VERTEX
  8
0
  6
CONTINUOUS
 10
2.232560
 20
6.776440
  0
VERTEX
  8
0
  6
CONTINUOUS
 10
2.180640
 20
6.766760
  0
SEQEND
  8
0
  0
SOLID
  8
0
 62
    15
 10
2.232560
 20
6.776440
 11
2.229480
 21
7.507720
 12
2.285800
 22
6.774680
 13
2.283160
 23
7.505960
  0
POLYLINE
  8
0
  6
CONTINUOUS
 66
     1
 40
0.000000
 41
0.000000
  0
VERTEX
  8
0
  6
CONTINUOUS
 10
2.232560
 20
6.776440
  0
VERTEX
  8
0
  6
CONTINUOUS
 10
2.229480
 20
7.507720
  0
VERTEX
  8
0
  6
CONTINUOUS
 10
2.283160
 20
7.505960
  0
VERTEX
  8
0
  6
CONTINUOUS
 10
2.285800
 20
6.774680
  0
VERTEX
  8
0
  6
CONTINUOUS
 10
2.232560
 20
6.776440
  0
SEQEND
  8
0
  0
SOLID
  8
0
 62
    15
 10
2.285800
 20
6.774680
 11
2.283160
 21
7.505960
 12
2.338600
 22
6.763240
 13
2.335520
 23
7.494520
  0
POLYLINE
  8
0
  6
CONTINUOUS
 66
     1
 40
0.000000
 41
0.000000
  0
VERTEX
  8
0
  6
CONTINUOUS
 10
2.285800
 20
6.774680
  0
VERTEX
  8
0
  6
CONTINUOUS
 10
2.283160
 20
7.505960
  0
VERTEX
  8
0
  6
CONTINUOUS
 10
2.335520
 20
7.494520
  0
VERTEX
  8
0
  6
CONTINUOUS
 10
2.338600
 20
6.763240
  0
VERTEX
  8
0
  6
CONTINUOUS
 10
2.285800
 20
6.774680
  0
SEQEND
  8
0
  0
SOLID
  8
0
 62
    15
 10
2.338600
 20
6.763240
 11
2.335520
 21
7.494520
 12
2.386560
 22
6.743000
 13
2.383920
 23
7.474280
  0
POLYLINE
  8
0
  6
CONTINUOUS
 66
     1
 40
0.000000
 41
0.000000
  0
VERTEX
  8
0
  6
CONTINUOUS
 10
2.338600
 20
6.763240
  0
VERTEX
  8
0
  6
CONTINUOUS
 10
2.335520
 20
7.494520
  0
VERTEX
  8
0
  6
CONTINUOUS
 10
2.383920
 20
7.474280
  0
VERTEX
  8
0
  6
CONTINUOUS
 10
2.386560
 20
6.743000
  0
VERTEX
  8
0
  6
CONTINUOUS
 10
2.338600
 20
6.763240
  0
SEQEND
  8
0
  0
SOLID
  8
0
 62
    15
 10
2.386560
 20
6.743000
 11
2.383920
 21
7.474280
 12
2.428360
 22
6.715280
 13
2.425280
 23
7.446120
  0
POLYLINE
  8
0
  6
CONTINUOUS
 66
     1
 40
0.000000
 41
0.000000
  0
VERTEX
  8
0
  6
CONTINUOUS
 10
2.386560
 20
6.743000
  0
VERTEX
  8
0
  6
CONTINUOUS
 10
2.383920
 20
7.474280
  0
VERTEX
  8
0
  6
CONTINUOUS
 10
2.425280
 20
7.446120
  0
VERTEX
  8
0
  6
CONTINUOUS
 10
2.428360
 20
6.715280
  0
VERTEX
  8
0
  6
CONTINUOUS
 10
2.386560
 20
6.743000
  0
SEQEND
  8
0
  0
SOLID
  8
0
 62
    15
 10
2.428360
 20
6.715280
 11
2.425280
 21
7.446120
 12
2.464440
 22
6.680520
 13
2.461360
 23
7.411360
  0
POLYLINE
  8
0
  6
CONTINUOUS
 66
     1
 40
0.000000
 41
0.000000
  0
VERTEX
  8
0
  6
CONTINUOUS
 10
2.428360
 20
6.715280
  0
VERTEX
  8
0
  6
CONTINUOUS
 10
2.425280
 20
7.446120
  0
VERTEX
  8
0
  6
CONTINUOUS
 10
2.461360
 20
7.411360
  0
VERTEX
  8
0
  6
CONTINUOUS
 10
2.464440
 20
6.680520
  0
VERTEX
  8
0
  6
CONTINUOUS
 10
2.428360
 20
6.715280
  0
SEQEND
  8
0
  0
SOLID
  8
0
 62
    15
 10
2.464440
 20
6.680520
 11
2.461360
 21
7.411360
 12
2.482480
 22
6.660720
 13
2.479400
 23
7.392000
  0
POLYLINE
  8
0
  6
CONTINUOUS
 66
     1
 40
0.000000
 41
0.000000
  0
VERTEX
  8
0
  6
CONTINUOUS
 10
2.464440
 20
6.680520
  0
VERTEX
  8
0
  6
CONTINUOUS
 10
2.461360
 20
7.411360
  0
VERTEX
  8
0
  6
CONTINUOUS
 10
2.479400
 20
7.392000
  0
VERTEX
  8
0
  6
CONTINUOUS
 10
2.482480
 20
6.660720
  0
VERTEX
  8
0
  6
CONTINUOUS
 10
2.464440
 20
6.680520
  0
SEQEND
  8
0
  0
SOLID
  8
0
 62
    15
 10
2.482480
 20
6.660720
 11
2.479400
 21
7.392000
 12
2.500520
 22
6.640480
 13
2.497880
 23
7.371760
  0
POLYLINE
  8
0
  6
CONTINUOUS
 66
     1
 40
0.000000
 41
0.000000
  0
VERTEX
  8
0
  6
CONTINUOUS
 10
2.482480
 20
6.660720
  0
VERTEX
  8
0
  6
CONTINUOUS
 10
2.479400
 20
7.392000
  0
VERTEX
  8
0
  6
CONTINUOUS
 10
2.497880
 20
7.371760
  0
VERTEX
  8
0
  6
CONTINUOUS
 10
2.500520
 20
6.640480
  0
VERTEX
  8
0
  6
CONTINUOUS
 10
2.482480
 20
6.660720
  0
SEQEND
  8
0
  0
SOLID
  8
0
 62
    15
 10
2.500520
 20
6.640480
 11
2.497880
 21
7.371760
 12
2.585000
 22
6.557320
 13
2.581920
 23
7.288600
  0
POLYLINE
  8
0
  6
CONTINUOUS
 66
     1
 40
0.000000
 41
0.000000
  0
VERTEX
  8
0
  6
CONTINUOUS
 10
2.500520
 20
6.640480
  0
VERTEX
  8
0
  6
CONTINUOUS
 10
2.497880
 20
7.371760
  0
VERTEX
  8
0
  6
CONTINUOUS
 10
2.581920
 20
7.288600
  0
VERTEX
  8
0
  6
CONTINUOUS
 10
2.585000
 20
6.557320
  0
VERTEX
  8
0
  6
CONTINUOUS
 10
2.500520
 20
6.640480
  0
SEQEND
  8
0
  0
SOLID
  8
0
 62
    15
 10
2.585000
 20
6.557320
 11
2.581920
 21
7.288600
 12
2.638680
 22
6.519920
 13
2.635600
 23
7.251200
  0
POLYLINE
  8
0
  6
CONTINUOUS
 66
     1
 40
0.000000
 41
0.000000
  0
VERTEX
  8
0
  6
CONTINUOUS
 10
2.585000
 20
6.557320
  0
VERTEX
  8
0
  6
CONTINUOUS
 10
2.581920
 20
7.288600
  0
VERTEX
  8
0
  6
CONTINUOUS
 10
2.635600
 20
7.251200
  0
VERTEX
  8
0
  6
CONTINUOUS
 10
2.638680
 20
6.519920
  0
VERTEX
  8
0
  6
CONTINUOUS
 10
2.585000
 20
6.557320
  0
SEQEND
  8
0
  0
SOLID
  8
0
 62
    15
 10
2.638680
 20
6.519920
 11
2.635600
 21
7.251200
 12
2.703800
 22
6.489560
 13
2.700720
 23
7.220840
  0
POLYLINE
  8
0
  6
CONTINUOUS
 66
     1
 40
0.000000
 41
0.000000
  0
VERTEX
  8
0
  6
CONTINUOUS
 10
2.638680
 20
6.519920
  0
VERTEX
  8
0
  6
CONTINUOUS
 10
2.635600
 20
7.251200
  0
VERTEX
  8
0
  6
CONTINUOUS
 10
2.700720
 20
7.220840
  0
VERTEX
  8
0
  6
CONTINUOUS
 10
2.703800
 20
6.489560
  0
VERTEX
  8
0
  6
CONTINUOUS
 10
2.638680
 20
6.519920
  0
SEQEND
  8
0
  0
SOLID
  8
0
 62
    15
 10
2.703800
 20
6.489560
 11
2.700720
 21
7.220840
 12
2.783000
 22
6.469320
 13
2.779920
 23
7.200600
  0
POLYLINE
  8
0
  6
CONTINUOUS
 66
     1
 40
0.000000
 41
0.000000
  0
VERTEX
  8
0
  6
CONTINUOUS
 10
2.703800
 20
6.489560
  0
VERTEX
  8
0
  6
CONTINUOUS
 10
2.700720
 20
7.220840
  0
VERTEX
  8
0
  6
CONTINUOUS
 10
2.779920
 20
7.200600
  0
VERTEX
  8
0
  6
CONTINUOUS
 10
2.783000
 20
6.469320
  0
VERTEX
  8
0
  6
CONTINUOUS
 10
2.703800
 20
6.489560
  0
SEQEND
  8
0
  0
SOLID
  8
0
 62
    15
 10
2.783000
 20
6.469320
 11
2.779920
 21
7.200600
 12
2.879360
 22
6.461840
 13
2.876280
 23
7.193120
  0
POLYLINE
  8
0
  6
CONTINUOUS
 66
     1
 40
0.000000
 41
0.000000
  0
VERTEX
  8
0
  6
CONTINUOUS
 10
2.783000
 20
6.469320
  0
VERTEX
  8
0
  6
CONTINUOUS
 10
2.779920
 20
7.200600
  0
VERTEX
  8
0
  6
CONTINUOUS
 10
2.876280
 20
7.193120
  0
VERTEX
  8
0
  6
CONTINUOUS
 10
2.879360
 20
6.461840
  0
VERTEX
  8
0
  6
CONTINUOUS
 10
2.783000
 20
6.469320
  0
SEQEND
  8
0
  0
SOLID
  8
0
 62
    15
 10
1.426480
 20
6.818240
 11
1.423400
 21
7.549080
 12
1.945240
 22
6.818240
 13
1.942160
 23
7.549080
  0
POLYLINE
  8
0
  6
CONTINUOUS
 66
     1
 40
0.000000
 41
0.000000
  0
VERTEX
  8
0
  6
CONTINUOUS
 10
1.426480
 20
6.818240
  0
VERTEX
  8
0
  6
CONTINUOUS
 10
1.423400
 20
7.549080
  0
VERTEX
  8
0
  6
CONTINUOUS
 10
1.942160
 20
7.549080
  0
VERTEX
  8
0
  6
CONTINUOUS
 10
1.945240
 20
6.818240
  0
VERTEX
  8
0
  6
CONTINUOUS
 10
1.426480
 20
6.818240
  0
SEQEND
  8
0
  0
SOLID
  8
0
 62
    15
 10
2.913240
 20
6.461840
 11
2.910160
 21
7.193120
 12
2.932160
 22
6.455680
 13
2.929520
 23
7.186960
  0
POLYLINE
  8
0
  6
CONTINUOUS
 66
     1
 40
0.000000
 41
0.000000
  0
VERTEX
  8
0
  6
CONTINUOUS
 10
2.913240
 20
6.461840
  0
VERTEX
  8
0
  6
CONTINUOUS
 10
2.910160
 20
7.193120
  0
VERTEX
  8
0
  6
CONTINUOUS
 10
2.929520
 20
7.186960
  0
VERTEX
  8
0
  6
CONTINUOUS
 10
2.932160
 20
6.455680
  0
VERTEX
  8
0
  6
CONTINUOUS
 10
2.913240
 20
6.461840
  0
SEQEND
  8
0
  0
SOLID
  8
0
 62
    15
 10
2.932160
 20
6.455680
 11
2.929520
 21
7.186960
 12
2.938760
 22
6.435000
 13
2.935680
 23
7.165840
  0
POLYLINE
  8
0
  6
CONTINUOUS
 66
     1
 40
0.000000
 41
0.000000
  0
VERTEX
  8
0
  6
CONTINUOUS
 10
2.932160
 20
6.455680
  0
VERTEX
  8
0
  6
CONTINUOUS
 10
2.929520
 20
7.186960
  0
VERTEX
  8
0
  6
CONTINUOUS
 10
2.935680
 20
7.165840
  0
VERTEX
  8
0
  6
CONTINUOUS
 10
2.938760
 20
6.435000
  0
VERTEX
  8
0
  6
CONTINUOUS
 10
2.932160
 20
6.455680
  0
SEQEND
  8
0
  0
SOLID
  8
0
 62
    15
 10
2.938760
 20
6.435000
 11
2.935680
 21
7.165840
 12
2.948880
 22
6.353600
 13
2.945800
 23
7.084880
  0
POLYLINE
  8
0
  6
CONTINUOUS
 66
     1
 40
0.000000
 41
0.000000
  0
VERTEX
  8
0
  6
CONTINUOUS
 10
2.938760
 20
6.435000
  0
VERTEX
  8
0
  6
CONTINUOUS
 10
2.935680
 20
7.165840
  0
VERTEX
  8
0
  6
CONTINUOUS
 10
2.945800
 20
7.084880
  0
VERTEX
  8
0
  6
CONTINUOUS
 10
2.948880
 20
6.353600
  0
VERTEX
  8
0
  6
CONTINUOUS
 10
2.938760
 20
6.435000
  0
SEQEND
  8
0
  0
SOLID
  8
0
 62
    15
 10
2.948880
 20
6.353600
 11
2.945800
 21
7.084880
 12
2.984080
 22
6.353600
 13
2.981440
 23
7.084880
  0
POLYLINE
  8
0
  6
CONTINUOUS
 66
     1
 40
0.000000
 41
0.000000
  0
VERTEX
  8
0
  6
CONTINUOUS
 10
2.948880
 20
6.353600
  0
VERTEX
  8
0
  6
CONTINUOUS
 10
2.945800
 20
7.084880
  0
VERTEX
  8
0
  6
CONTINUOUS
 10
2.981440
 20
7.084880
  0
VERTEX
  8
0
  6
CONTINUOUS
 10
2.984080
 20
6.353600
  0
VERTEX
  8
0
  6
CONTINUOUS
 10
2.948880
 20
6.353600
  0
SEQEND
  8
0
  0
SOLID
  8
0
 62
    15
 10
2.984080
 20
6.353600
 11
2.981440
 21
7.084880
 12
2.994200
 22
6.391880
 13
2.991120
 23
7.123160
  0
POLYLINE
  8
0
  6
CONTINUOUS
 66
     1
 40
0.000000
 41
0.000000
  0
VERTEX
  8
0
  6
CONTINUOUS
 10
2.984080
 20
6.353600
  0
VERTEX
  8
0
  6
CONTINUOUS
 10
2.981440
 20
7.084880
  0
VERTEX
  8
0
  6
CONTINUOUS
 10
2.991120
 20
7.123160
  0
VERTEX
  8
0
  6
CONTINUOUS
 10
2.994200
 20
6.391880
  0
VERTEX
  8
0
  6
CONTINUOUS
 10
2.984080
 20
6.353600
  0
SEQEND
  8
0
  0
SOLID
  8
0
 62
    15
 10
2.994200
 20
6.391880
 11
2.991120
 21
7.123160
 12
3.019280
 22
6.419600
 13
3.016200
 23
7.150880
  0
POLYLINE
  8
0
  6
CONTINUOUS
 66
     1
 40
0.000000
 41
0.000000
  0
VERTEX
  8
0
  6
CONTINUOUS
 10
2.994200
 20
6.391880
  0
VERTEX
  8
0
  6
CONTINUOUS
 10
2.991120
 20
7.123160
  0
VERTEX
  8
0
  6
CONTINUOUS
 10
3.016200
 20
7.150880
  0
VERTEX
  8
0
  6
CONTINUOUS
 10
3.019280
 20
6.419600
  0
VERTEX
  8
0
  6
CONTINUOUS
 10
2.994200
 20
6.391880
  0
SEQEND
  8
0
  0
SOLID
  8
0
 62
    15
 10
3.019280
 20
6.419600
 11
3.016200
 21
7.150880
 12
3.054040
 22
6.436320
 13
3.050960
 23
7.167600
  0
POLYLINE
  8
0
  6
CONTINUOUS
 66
     1
 40
0.000000
 41
0.000000
  0
VERTEX
  8
0
  6
CONTINUOUS
 10
3.019280
 20
6.419600
  0
VERTEX
  8
0
  6
CONTINUOUS
 10
3.016200
 20
7.150880
  0
VERTEX
  8
0
  6
CONTINUOUS
 10
3.050960
 20
7.167600
  0
VERTEX
  8
0
  6
CONTINUOUS
 10
3.054040
 20
6.436320
  0
VERTEX
  8
0
  6
CONTINUOUS
 10
3.019280
 20
6.419600
  0
SEQEND
  8
0
  0
SOLID
  8
0
 62
    15
 10
3.054040
 20
6.436320
 11
3.050960
 21
7.167600
 12
3.094080
 22
6.440720
 13
3.091000
 23
7.171560
  0
POLYLINE
  8
0
  6
CONTINUOUS
 66
     1
 40
0.000000
 41
0.000000
  0
VERTEX
  8
0
  6
CONTINUOUS
 10
3.054040
 20
6.436320
  0
VERTEX
  8
0
  6
CONTINUOUS
 10
3.050960
 20
7.167600
  0
VERTEX
  8
0
  6
CONTINUOUS
 10
3.091000
 20
7.171560
  0
VERTEX
  8
0
  6
CONTINUOUS
 10
3.094080
 20
6.440720
  0
VERTEX
  8
0
  6
CONTINUOUS
 10
3.054040
 20
6.436320
  0
SEQEND
  8
0
  0
SOLID
  8
0
 62
    15
 10
3.094080
 20
6.440720
 11
3.091000
 21
7.171560
 12
3.133680
 22
6.431480
 13
3.131040
 23
7.162760
  0
POLYLINE
  8
0
  6
CONTINUOUS
 66
     1
 40
0.000000
 41
0.000000
  0
VERTEX
  8
0
  6
CONTINUOUS
 10
3.094080
 20
6.440720
  0
VERTEX
  8
0
  6
CONTINUOUS
 10
3.091000
 20
7.171560
  0
VERTEX
  8
0
  6
CONTINUOUS
 10
3.131040
 20
7.162760
  0
VERTEX
  8
0
  6
CONTINUOUS
 10
3.133680
 20
6.431480
  0
VERTEX
  8
0
  6
CONTINUOUS
 10
3.094080
 20
6.440720
  0
SEQEND
  8
0
  0
SOLID
  8
0
 62
    15
 10
3.133680
 20
6.431480
 11
3.131040
 21
7.162760
 12
3.168440
 22
6.409040
 13
3.165800
 23
7.140320
  0
POLYLINE
  8
0
  6
CONTINUOUS
 66
     1
 40
0.000000
 41
0.000000
  0
VERTEX
  8
0
  6
CONTINUOUS
 10
3.133680
 20
6.431480
  0
VERTEX
  8
0
  6
CONTINUOUS
 10
3.131040
 20
7.162760
  0
VERTEX
  8
0
  6
CONTINUOUS
 10
3.165800
 20
7.140320
  0
VERTEX
  8
0
  6
CONTINUOUS
 10
3.168440
 20
6.409040
  0
VERTEX
  8
0
  6
CONTINUOUS
 10
3.133680
 20
6.431480
  0
SEQEND
  8
0
  0
SOLID
  8
0
 62
    15
 10
3.168440
 20
6.409040
 11
3.165800
 21
7.140320
 12
3.193080
 22
6.371200
 13
3.190000
 23
7.102480
  0
POLYLINE
  8
0
  6
CONTINUOUS
 66
     1
 40
0.000000
 41
0.000000
  0
VERTEX
  8
0
  6
CONTINUOUS
 10
3.168440
 20
6.409040
  0
VERTEX
  8
0
  6
CONTINUOUS
 10
3.165800
 20
7.140320
  0
VERTEX
  8
0
  6
CONTINUOUS
 10
3.190000
 20
7.102480
  0
VERTEX
  8
0
  6
CONTINUOUS
 10
3.193080
 20
6.371200
  0
VERTEX
  8
0
  6
CONTINUOUS
 10
3.168440
 20
6.409040
  0
SEQEND
  8
0
  0
SOLID
  8
0
 62
    15
 10
3.202320
 20
6.225560
 11
3.199240
 21
6.956840
 12
3.285040
 22
6.225560
 13
3.281960
 23
6.956840
  0
POLYLINE
  8
0
  6
CONTINUOUS
 66
     1
 40
0.000000
 41
0.000000
  0
VERTEX
  8
0
  6
CONTINUOUS
 10
3.202320
 20
6.225560
  0
VERTEX
  8
0
  6
CONTINUOUS
 10
3.199240
 20
6.956840
  0
VERTEX
  8
0
  6
CONTINUOUS
 10
3.281960
 20
6.956840
  0
VERTEX
  8
0
  6
CONTINUOUS
 10
3.285040
 20
6.225560
  0
VERTEX
  8
0
  6
CONTINUOUS
 10
3.202320
 20
6.225560
  0
SEQEND
  8
0
  0
SOLID
  8
0
 62
    15
 10
3.193080
 20
6.371200
 11
3.190000
 21
7.102480
 12
3.202320
 22
6.317960
 13
3.199240
 23
7.049240
  0
POLYLINE
  8
0
  6
CONTINUOUS
 66
     1
 40
0.000000
 41
0.000000
  0
VERTEX
  8
0
  6
CONTINUOUS
 10
3.193080
 20
6.371200
  0
VERTEX
  8
0
  6
CONTINUOUS
 10
3.190000
 20
7.102480
  0
VERTEX
  8
0
  6
CONTINUOUS
 10
3.199240
 20
7.049240
  0
VERTEX
  8
0
  6
CONTINUOUS
 10
3.202320
 20
6.317960
  0
VERTEX
  8
0
  6
CONTINUOUS
 10
3.193080
 20
6.371200
  0
SEQEND
  8
0
  0
SOLID
  8
0
 62
    15
 10
3.285040
 20
6.225560
 11
3.281960
 21
6.956840
 12
3.296040
 22
6.168360
 13
3.292960
 23
6.899640
  0
POLYLINE
  8
0
  6
CONTINUOUS
 66
     1
 40
0.000000
 41
0.000000
  0
VERTEX
  8
0
  6
CONTINUOUS
 10
3.285040
 20
6.225560
  0
VERTEX
  8
0
  6
CONTINUOUS
 10
3.281960
 20
6.956840
  0
VERTEX
  8
0
  6
CONTINUOUS
 10
3.292960
 20
6.899640
  0
VERTEX
  8
0
  6
CONTINUOUS
 10
3.296040
 20
6.168360
  0
VERTEX
  8
0
  6
CONTINUOUS
 10
3.285040
 20
6.225560
  0
SEQEND
  8
0
  0
SOLID
  8
0
 62
    15
 10
3.296040
 20
6.168360
 11
3.292960
 21
6.899640
 12
3.333440
 22
6.100160
 13
3.330800
 23
6.831440
  0
POLYLINE
  8
0
  6
CONTINUOUS
 66
     1
 40
0.000000
 41
0.000000
  0
VERTEX
  8
0
  6
CONTINUOUS
 10
3.296040
 20
6.168360
  0
VERTEX
  8
0
  6
CONTINUOUS
 10
3.292960
 20
6.899640
  0
VERTEX
  8
0
  6
CONTINUOUS
 10
3.330800
 20
6.831440
  0
VERTEX
  8
0
  6
CONTINUOUS
 10
3.333440
 20
6.100160
  0
VERTEX
  8
0
  6
CONTINUOUS
 10
3.296040
 20
6.168360
  0
SEQEND
  8
0
  0
SOLID
  8
0
 62
    15
 10
3.333440
 20
6.100160
 11
3.330800
 21
6.831440
 12
3.364240
 22
6.068920
 13
3.361160
 23
6.800200
  0
POLYLINE
  8
0
  6
CONTINUOUS
 66
     1
 40
0.000000
 41
0.000000
  0
VERTEX
  8
0
  6
CONTINUOUS
 10
3.333440
 20
6.100160
  0
VERTEX
  8
0
  6
CONTINUOUS
 10
3.330800
 20
6.831440
  0
VERTEX
  8
0
  6
CONTINUOUS
 10
3.361160
 20
6.800200
  0
VERTEX
  8
0
  6
CONTINUOUS
 10
3.364240
 20
6.068920
  0
VERTEX
  8
0
  6
CONTINUOUS
 10
3.333440
 20
6.100160
  0
SEQEND
  8
0
  0
SOLID
  8
0
 62
    15
 10
3.364240
 20
6.068920
 11
3.361160
 21
6.800200
 12
3.403840
 22
6.042960
 13
3.401200
 23
6.774240
  0
POLYLINE
  8
0
  6
CONTINUOUS
 66
     1
 40
0.000000
 41
0.000000
  0
VERTEX
  8
0
  6
CONTINUOUS
 10
3.364240
 20
6.068920
  0
VERTEX
  8
0
  6
CONTINUOUS
 10
3.361160
 20
6.800200
  0
VERTEX
  8
0
  6
CONTINUOUS
 10
3.401200
 20
6.774240
  0
VERTEX
  8
0
  6
CONTINUOUS
 10
3.403840
 20
6.042960
  0
VERTEX
  8
0
  6
CONTINUOUS
 10
3.364240
 20
6.068920
  0
SEQEND
  8
0
  0
SOLID
  8
0
 62
    15
 10
3.403840
 20
6.042960
 11
3.401200
 21
6.774240
 12
3.453560
 22
6.025360
 13
3.450920
 23
6.756640
  0
POLYLINE
  8
0
  6
CONTINUOUS
 66
     1
 40
0.000000
 41
0.000000
  0
VERTEX
  8
0
  6
CONTINUOUS
 10
3.403840
 20
6.042960
  0
VERTEX
  8
0
  6
CONTINUOUS
 10
3.401200
 20
6.774240
  0
VERTEX
  8
0
  6
CONTINUOUS
 10
3.450920
 20
6.756640
  0
VERTEX
  8
0
  6
CONTINUOUS
 10
3.453560
 20
6.025360
  0
VERTEX
  8
0
  6
CONTINUOUS
 10
3.403840
 20
6.042960
  0
SEQEND
  8
0
  0
SOLID
  8
0
 62
    15
 10
3.453560
 20
6.025360
 11
3.450920
 21
6.756640
 12
3.514280
 22
6.018760
 13
3.511200
 23
6.750040
  0
POLYLINE
  8
0
  6
CONTINUOUS
 66
     1
 40
0.000000
 41
0.000000
  0
VERTEX
  8
0
  6
CONTINUOUS
 10
3.453560
 20
6.025360
  0
VERTEX
  8
0
  6
CONTINUOUS
 10
3.450920
 20
6.756640
  0
VERTEX
  8
0
  6
CONTINUOUS
 10
3.511200
 20
6.750040
  0
VERTEX
  8
0
  6
CONTINUOUS
 10
3.514280
 20
6.018760
  0
VERTEX
  8
0
  6
CONTINUOUS
 10
3.453560
 20
6.025360
  0
SEQEND
  8
0
  0
POLYLINE
  8
0
  6
CONTINUOUS
 66
     1
 40
0.000000
 41
0.000000
  0
VERTEX
  8
0
  6
CONTINUOUS
 10
2.728440
 20
4.797320
  0
VERTEX
  8
0
  6
CONTINUOUS
 10
1.426480
 20
4.797320
  0
VERTEX
  8
0
  6
CONTINUOUS
 10
1.426480
 20
6.818240
  0
VERTEX
  8
0
  6
CONTINUOUS
 10
1.945240
 20
6.818240
  0
VERTEX
  8
0
  6
CONTINUOUS
 10
1.943920
 20
6.816920
  0
VERTEX
  8
0
  6
CONTINUOUS
 10
1.943920
 20
6.659840
  0
VERTEX
  8
0
  6
CONTINUOUS
 10
2.064480
 20
6.659840
  0
VERTEX
  8
0
  6
CONTINUOUS
 10
2.093520
 20
6.709560
  0
VERTEX
  8
0
  6
CONTINUOUS
 10
2.133560
 20
6.745200
  0
VERTEX
  8
0
  6
CONTINUOUS
 10
2.180640
 20
6.766760
  0
VERTEX
  8
0
  6
CONTINUOUS
 10
2.232560
 20
6.776440
  0
VERTEX
  8
0
  6
CONTINUOUS
 10
2.285800
 20
6.774680
  0
VERTEX
  8
0
  6
CONTINUOUS
 10
2.338600
 20
6.763240
  0
VERTEX
  8
0
  6
CONTINUOUS
 10
2.386560
 20
6.743000
  0
VERTEX
  8
0
  6
CONTINUOUS
 10
2.428360
 20
6.715280
  0
VERTEX
  8
0
  6
CONTINUOUS
 10
2.464440
 20
6.680520
  0
VERTEX
  8
0
  6
CONTINUOUS
 10
2.482480
 20
6.660720
  0
VERTEX
  8
0
  6
CONTINUOUS
 10
2.500520
 20
6.640480
  0
VERTEX
  8
0
  6
CONTINUOUS
 10
2.585000
 20
6.557320
  0
VERTEX
  8
0
  6
CONTINUOUS
 10
2.638680
 20
6.519920
  0
VERTEX
  8
0
  6
CONTINUOUS
 10
2.703800
 20
6.489560
  0
VERTEX
  8
0
  6
CONTINUOUS
 10
2.783000
 20
6.469320
  0
VERTEX
  8
0
  6
CONTINUOUS
 10
2.879360
 20
6.461840
  0
VERTEX
  8
0
  6
CONTINUOUS
 10
2.913240
 20
6.461840
  0
VERTEX
  8
0
  6
CONTINUOUS
 10
2.932160
 20
6.455680
  0
VERTEX
  8
0
  6
CONTINUOUS
 10
2.938760
 20
6.435000
  0
VERTEX
  8
0
  6
CONTINUOUS
 10
2.948880
 20
6.353600
  0
VERTEX
  8
0
  6
CONTINUOUS
 10
2.984080
 20
6.353600
  0
VERTEX
  8
0
  6
CONTINUOUS
 10
2.994200
 20
6.391880
  0
VERTEX
  8
0
  6
CONTINUOUS
 10
3.019280
 20
6.419600
  0
VERTEX
  8
0
  6
CONTINUOUS
 10
3.054040
 20
6.436320
  0
VERTEX
  8
0
  6
CONTINUOUS
 10
3.094080
 20
6.440720
  0
VERTEX
  8
0
  6
CONTINUOUS
 10
3.133680
 20
6.431480
  0
VERTEX
  8
0
  6
CONTINUOUS
 10
3.168440
 20
6.409040
  0
VERTEX
  8
0
  6
CONTINUOUS
 10
3.193080
 20
6.371200
  0
VERTEX
  8
0
  6
CONTINUOUS
 10
3.202320
 20
6.317960
  0
VERTEX
  8
0
  6
CONTINUOUS
 10
3.202320
 20
6.225560
  0
VERTEX
  8
0
  6
CONTINUOUS
 10
3.285040
 20
6.225560
  0
VERTEX
  8
0
  6
CONTINUOUS
 10
3.296040
 20
6.168360
  0
VERTEX
  8
0
  6
CONTINUOUS
 10
3.333440
 20
6.100160
  0
VERTEX
  8
0
  6
CONTINUOUS
 10
3.364240
 20
6.068920
  0
VERTEX
  8
0
  6
CONTINUOUS
 10
3.403840
 20
6.042960
  0
VERTEX
  8
0
  6
CONTINUOUS
 10
3.453560
 20
6.025360
  0
VERTEX
  8
0
  6
CONTINUOUS
 10
3.514280
 20
6.018760
  0
VERTEX
  8
0
  6
CONTINUOUS
 10
3.514280
 20
5.912720
  0
VERTEX
  8
0
  6
CONTINUOUS
 10
2.730200
 20
5.912720
  0
VERTEX
  8
0
  6
CONTINUOUS
 10
2.730200
 20
4.797320
  0
VERTEX
  8
0
  6
CONTINUOUS
 10
2.728440
 20
4.797320
  0
SEQEND
  8
0
  0
POLYLINE
  8
0
  6
CONTINUOUS
 66
     1
 40
0.014080
 41
0.014080
  0
VERTEX
  8
0
  6
CONTINUOUS
 10
2.755280
 20
1.980000
  0
VERTEX
  8
0
  6
CONTINUOUS
 10
2.755280
 20
3.095400
  0
VERTEX
  8
0
  6
CONTINUOUS
 10
3.539360
 20
3.095400
  0
VERTEX
  8
0
  6
CONTINUOUS
 10
3.539360
 20
3.201440
  0
VERTEX
  8
0
  6
CONTINUOUS
 10
3.507680
 20
3.203200
  0
VERTEX
  8
0
  6
CONTINUOUS
 10
3.478640
 20
3.208040
  0
VERTEX
  8
0
  6
CONTINUOUS
 10
3.452680
 20
3.215520
  0
VERTEX
  8
0
  6
CONTINUOUS
 10
3.418360
 20
3.231360
  0
VERTEX
  8
0
  6
CONTINUOUS
 10
3.389320
 20
3.251160
  0
VERTEX
  8
0
  6
CONTINUOUS
 10
3.372600
 20
3.266560
  0
VERTEX
  8
0
  6
CONTINUOUS
 10
3.346200
 20
3.299560
  0
VERTEX
  8
0
  6
CONTINUOUS
 10
3.327720
 20
3.334320
  0
VERTEX
  8
0
  6
CONTINUOUS
 10
3.315840
 20
3.367320
  0
VERTEX
  8
0
  6
CONTINUOUS
 10
3.312320
 20
3.382280
  0
VERTEX
  8
0
  6
CONTINUOUS
 10
3.309680
 20
3.408240
  0
VERTEX
  8
0
  6
CONTINUOUS
 10
3.227400
 20
3.408240
  0
VERTEX
  8
0
  6
CONTINUOUS
 10
3.226960
 20
3.515600
  0
VERTEX
  8
0
  6
CONTINUOUS
 10
3.222120
 20
3.542000
  0
VERTEX
  8
0
  6
CONTINUOUS
 10
3.213320
 20
3.564880
  0
VERTEX
  8
0
  6
CONTINUOUS
 10
3.201000
 20
3.583360
  0
VERTEX
  8
0
  6
CONTINUOUS
 10
3.185600
 20
3.598320
  0
VERTEX
  8
0
  6
CONTINUOUS
 10
3.168000
 20
3.609760
  0
VERTEX
  8
0
  6
CONTINUOUS
 10
3.149080
 20
3.617680
  0
VERTEX
  8
0
  6
CONTINUOUS
 10
3.129280
 20
3.622080
  0
VERTEX
  8
0
  6
CONTINUOUS
 10
3.108600
 20
3.623400
  0
VERTEX
  8
0
  6
CONTINUOUS
 10
3.079120
 20
3.619000
  0
VERTEX
  8
0
  6
CONTINUOUS
 10
3.060640
 20
3.611960
  0
VERTEX
  8
0
  6
CONTINUOUS
 10
3.043920
 20
3.602280
  0
VERTEX
  8
0
  6
CONTINUOUS
 10
3.029840
 20
3.589960
  0
VERTEX
  8
0
  6
CONTINUOUS
 10
3.018840
 20
3.574560
  0
VERTEX
  8
0
  6
CONTINUOUS
 10
3.011800
 20
3.556520
  0
VERTEX
  8
0
  6
CONTINUOUS
 10
3.009160
 20
3.536280
  0
VERTEX
  8
0
  6
CONTINUOUS
 10
2.973520
 20
3.536280
  0
VERTEX
  8
0
  6
CONTINUOUS
 10
2.962080
 20
3.630000
  0
VERTEX
  8
0
  6
CONTINUOUS
 10
2.957240
 20
3.638360
  0
VERTEX
  8
0
  6
CONTINUOUS
 10
2.949320
 20
3.643200
  0
VERTEX
  8
0
  6
CONTINUOUS
 10
2.937880
 20
3.644520
  0
VERTEX
  8
0
  6
CONTINUOUS
 10
2.878040
 20
3.644960
  0
VERTEX
  8
0
  6
CONTINUOUS
 10
2.853400
 20
3.646280
  0
VERTEX
  8
0
  6
CONTINUOUS
 10
2.807640
 20
3.652000
  0
VERTEX
  8
0
  6
CONTINUOUS
 10
2.766280
 20
3.660800
  0
VERTEX
  8
0
  6
CONTINUOUS
 10
2.728440
 20
3.672240
  0
VERTEX
  8
0
  6
CONTINUOUS
 10
2.694120
 20
3.686320
  0
VERTEX
  8
0
  6
CONTINUOUS
 10
2.648800
 20
3.711400
  0
VERTEX
  8
0
  6
CONTINUOUS
 10
2.609640
 20
3.740000
  0
VERTEX
  8
0
  6
CONTINUOUS
 10
2.564760
 20
3.780920
  0
VERTEX
  8
0
  6
CONTINUOUS
 10
2.471040
 20
3.880800
  0
VERTEX
  8
0
  6
CONTINUOUS
 10
2.443320
 20
3.905000
  0
VERTEX
  8
0
  6
CONTINUOUS
 10
2.411640
 20
3.925680
  0
VERTEX
  8
0
  6
CONTINUOUS
 10
2.376000
 20
3.941520
  0
VERTEX
  8
0
  6
CONTINUOUS
 10
2.337280
 20
3.952960
  0
VERTEX
  8
0
  6
CONTINUOUS
 10
2.310880
 20
3.957360
  0
VERTEX
  8
0
  6
CONTINUOUS
 10
2.284040
 20
3.959560
  0
VERTEX
  8
0
  6
CONTINUOUS
 10
2.257200
 20
3.959120
  0
VERTEX
  8
0
  6
CONTINUOUS
 10
2.218040
 20
3.952960
  0
VERTEX
  8
0
  6
CONTINUOUS
 10
2.192960
 20
3.945480
  0
VERTEX
  8
0
  6
CONTINUOUS
 10
2.169640
 20
3.934480
  0
VERTEX
  8
0
  6
CONTINUOUS
 10
2.137080
 20
3.911600
  0
VERTEX
  8
0
  6
CONTINUOUS
 10
2.118600
 20
3.892240
  0
VERTEX
  8
0
  6
CONTINUOUS
 10
2.102320
 20
3.868920
  0
VERTEX
  8
0
  6
CONTINUOUS
 10
2.089120
 20
3.842080
  0
VERTEX
  8
0
  6
CONTINUOUS
 10
1.969000
 20
3.842080
  0
VERTEX
  8
0
  6
CONTINUOUS
 10
1.969000
 20
3.999600
  0
VERTEX
  8
0
  6
CONTINUOUS
 10
1.969880
 20
4.000480
  0
VERTEX
  8
0
  6
CONTINUOUS
 10
1.451120
 20
4.000480
  0
VERTEX
  8
0
  6
CONTINUOUS
 10
1.451120
 20
1.980000
  0
VERTEX
  8
0
  6
CONTINUOUS
 10
2.755280
 20
1.980000
  0
SEQEND
  8
0
  0
POLYLINE
  8
0
  6
CONTINUOUS
 66
     1
 40
0.014080
 41
0.014080
  0
VERTEX
  8
0
  6
CONTINUOUS
 10
2.757040
 20
1.995400
  0
VERTEX
  8
0
  6
CONTINUOUS
 10
2.757040
 20
3.097600
  0
VERTEX
  8
0
  6
CONTINUOUS
 10
3.807760
 20
3.097600
  0
VERTEX
  8
0
  6
CONTINUOUS
 10
3.807760
 20
2.917200
  0
VERTEX
  8
0
  6
CONTINUOUS
 10
4.022040
 20
2.917200
  0
VERTEX
  8
0
  6
CONTINUOUS
 10
4.023360
 20
2.885960
  0
VERTEX
  8
0
  6
CONTINUOUS
 10
4.027760
 20
2.857800
  0
VERTEX
  8
0
  6
CONTINUOUS
 10
4.034800
 20
2.833160
  0
VERTEX
  8
0
  6
CONTINUOUS
 10
4.050200
 20
2.801040
  0
VERTEX
  8
0
  6
CONTINUOUS
 10
4.070440
 20
2.775080
  0
VERTEX
  8
0
  6
CONTINUOUS
 10
4.095080
 20
2.754400
  0
VERTEX
  8
0
  6
CONTINUOUS
 10
4.123680
 20
2.738120
  0
VERTEX
  8
0
  6
CONTINUOUS
 10
4.166360
 20
2.723600
  0
VERTEX
  8
0
  6
CONTINUOUS
 10
4.213440
 20
2.715240
  0
VERTEX
  8
0
  6
CONTINUOUS
 10
4.262720
 20
2.711720
  0
VERTEX
  8
0
  6
CONTINUOUS
 10
4.839560
 20
2.713480
  0
VERTEX
  8
0
  6
CONTINUOUS
 10
5.843200
 20
2.713480
  0
VERTEX
  8
0
  6
CONTINUOUS
 10
5.862560
 20
2.714800
  0
VERTEX
  8
0
  6
CONTINUOUS
 10
5.881040
 20
2.718320
  0
VERTEX
  8
0
  6
CONTINUOUS
 10
5.898640
 20
2.723600
  0
VERTEX
  8
0
  6
CONTINUOUS
 10
5.915360
 20
2.731080
  0
VERTEX
  8
0
  6
CONTINUOUS
 10
5.931200
 20
2.740320
  0
VERTEX
  8
0
  6
CONTINUOUS
 10
5.946160
 20
2.751320
  0
VERTEX
  8
0
  6
CONTINUOUS
 10
5.973000
 20
2.777720
  0
VERTEX
  8
0
  6
CONTINUOUS
 10
5.995000
 20
2.808960
  0
VERTEX
  8
0
  6
CONTINUOUS
 10
6.011280
 20
2.843280
  0
VERTEX
  8
0
  6
CONTINUOUS
 10
6.021400
 20
2.879800
  0
VERTEX
  8
0
  6
CONTINUOUS
 10
6.024040
 20
2.898720
  0
VERTEX
  8
0
  6
CONTINUOUS
 10
6.024920
 20
2.917640
  0
VERTEX
  8
0
  6
CONTINUOUS
 10
6.200480
 20
2.917640
  0
VERTEX
  8
0
  6
CONTINUOUS
 10
6.201360
 20
2.939640
  0
VERTEX
  8
0
  6
CONTINUOUS
 10
6.204440
 20
2.960760
  0
VERTEX
  8
0
  6
CONTINUOUS
 10
6.208840
 20
2.979680
  0
VERTEX
  8
0
  6
CONTINUOUS
 10
6.215000
 20
2.997720
  0
VERTEX
  8
0
  6
CONTINUOUS
 10
6.222480
 20
3.014440
  0
VERTEX
  8
0
  6
CONTINUOUS
 10
6.231280
 20
3.029400
  0
VERTEX
  8
0
  6
CONTINUOUS
 10
6.241400
 20
3.043040
  0
VERTEX
  8
0
  6
CONTINUOUS
 10
6.265160
 20
3.065920
  0
VERTEX
  8
0
  6
CONTINUOUS
 10
6.277920
 20
3.075160
  0
VERTEX
  8
0
  6
CONTINUOUS
 10
6.292000
 20
3.083080
  0
VERTEX
  8
0
  6
CONTINUOUS
 10
6.321040
 20
3.094520
  0
VERTEX
  8
0
  6
CONTINUOUS
 10
6.351840
 20
3.100240
  0
VERTEX
  8
0
  6
CONTINUOUS
 10
6.383080
 20
3.100240
  0
VERTEX
  8
0
  6
CONTINUOUS
 10
6.413880
 20
3.094520
  0
VERTEX
  8
0
  6
CONTINUOUS
 10
6.443360
 20
3.083080
  0
VERTEX
  8
0
  6
CONTINUOUS
 10
6.470200
 20
3.065920
  0
VERTEX
  8
0
  6
CONTINUOUS
 10
6.493520
 20
3.043040
  0
VERTEX
  8
0
  6
CONTINUOUS
 10
6.503640
 20
3.029400
  0
VERTEX
  8
0
  6
CONTINUOUS
 10
6.512440
 20
3.014440
  0
VERTEX
  8
0
  6
CONTINUOUS
 10
6.519920
 20
2.997720
  0
VERTEX
  8
0
  6
CONTINUOUS
 10
6.526080
 20
2.979680
  0
VERTEX
  8
0
  6
CONTINUOUS
 10
6.530480
 20
2.960760
  0
VERTEX
  8
0
  6
CONTINUOUS
 10
6.533560
 20
2.939640
  0
VERTEX
  8
0
  6
CONTINUOUS
 10
6.534440
 20
2.917640
  0
VERTEX
  8
0
  6
CONTINUOUS
 10
6.695040
 20
2.917640
  0
VERTEX
  8
0
  6
CONTINUOUS
 10
6.695040
 20
2.704240
  0
VERTEX
  8
0
  6
CONTINUOUS
 10
6.742560
 20
2.702040
  0
VERTEX
  8
0
  6
CONTINUOUS
 10
6.785680
 20
2.695440
  0
VERTEX
  8
0
  6
CONTINUOUS
 10
6.825280
 20
2.685320
  0
VERTEX
  8
0
  6
CONTINUOUS
 10
6.860480
 20
2.672120
  0
VERTEX
  8
0
  6
CONTINUOUS
 10
6.892160
 20
2.655400
  0
VERTEX
  8
0
  6
CONTINUOUS
 10
6.920320
 20
2.636920
  0
VERTEX
  8
0
  6
CONTINUOUS
 10
6.955960
 20
2.605680
  0
VERTEX
  8
0
  6
CONTINUOUS
 10
6.984560
 20
2.571800
  0
VERTEX
  8
0
  6
CONTINUOUS
 10
7.006560
 20
2.536600
  0
VERTEX
  8
0
  6
CONTINUOUS
 10
7.022400
 20
2.502280
  0
VERTEX
  8
0
  6
CONTINUOUS
 10
7.032520
 20
2.470160
  0
VERTEX
  8
0
  6
CONTINUOUS
 10
7.037800
 20
2.441560
  0
VERTEX
  8
0
  6
CONTINUOUS
 10
7.039560
 20
2.410760
  0
VERTEX
  8
0
  6
CONTINUOUS
 10
7.042200
 20
2.394920
  0
VERTEX
  8
0
  6
CONTINUOUS
 10
7.047040
 20
2.378640
  0
VERTEX
  8
0
  6
CONTINUOUS
 10
7.058920
 20
2.353560
  0
VERTEX
  8
0
  6
CONTINUOUS
 10
7.076960
 20
2.329360
  0
VERTEX
  8
0
  6
CONTINUOUS
 10
7.102040
 20
2.305600
  0
VERTEX
  8
0
  6
CONTINUOUS
 10
7.134600
 20
2.284040
  0
VERTEX
  8
0
  6
CONTINUOUS
 10
7.175960
 20
2.264680
  0
VERTEX
  8
0
  6
CONTINUOUS
 10
7.227000
 20
2.249280
  0
VERTEX
  8
0
  6
CONTINUOUS
 10
7.288160
 20
2.237400
  0
VERTEX
  8
0
  6
CONTINUOUS
 10
7.360320
 20
2.230800
  0
VERTEX
  8
0
  6
CONTINUOUS
 10
7.414880
 20
2.229480
  0
VERTEX
  8
0
  6
CONTINUOUS
 10
7.415760
 20
1.980000
  0
VERTEX
  8
0
  6
CONTINUOUS
 10
2.756600
 20
1.980000
  0
SEQEND
  8
0
  0
TEXT
  8
0
 10
3.776520
 20
2.295040
 40
0.138140
  1
BA  1020 2" x 2-1/8"
 41
1.000000
  7
SN0
 71
     0
 72
     5
 11
5.266350
 21
2.295040
  0
TEXT
  8
0
 10
3.776520
 20
2.103200
 40
0.138140
  1
BA  1021 1-1/8" x 4-5/8"
 41
1.000000
  7
SN0
 71
     0
 72
     5
 11
5.551831
 21
2.103200
  0
POLYLINE
  8
0
  6
CONTINUOUS
 66
     1
 40
0.014080
 41
0.014080
  0
VERTEX
  8
0
  6
CONTINUOUS
 10
4.923600
 20
7.896240
  0
VERTEX
  8
0
  6
CONTINUOUS
 10
4.923600
 20
9.011640
  0
VERTEX
  8
0
  6
CONTINUOUS
 10
5.707680
 20
9.011640
  0
VERTEX
  8
0
  6
CONTINUOUS
 10
5.707680
 20
9.117680
  0
VERTEX
  8
0
  6
CONTINUOUS
 10
5.676000
 20
9.119440
  0
VERTEX
  8
0
  6
CONTINUOUS
 10
5.646960
 20
9.124280
  0
VERTEX
  8
0
  6
CONTINUOUS
 10
5.621000
 20
9.131760
  0
VERTEX
  8
0
  6
CONTINUOUS
 10
5.586680
 20
9.147600
  0
VERTEX
  8
0
  6
CONTINUOUS
 10
5.566880
 20
9.160360
  0
VERTEX
  8
0
  6
CONTINUOUS
 10
5.541360
 20
9.182800
  0
VERTEX
  8
0
  6
CONTINUOUS
 10
5.526840
 20
9.199080
  0
VERTEX
  8
0
  6
CONTINUOUS
 10
5.514520
 20
9.216240
  0
VERTEX
  8
0
  6
CONTINUOUS
 10
5.496040
 20
9.250560
  0
VERTEX
  8
0
  6
CONTINUOUS
 10
5.484600
 20
9.283560
  0
VERTEX
  8
0
  6
CONTINUOUS
 10
5.478880
 20
9.312600
  0
VERTEX
  8
0
  6
CONTINUOUS
 10
5.478440
 20
9.324480
  0
VERTEX
  8
0
  6
CONTINUOUS
 10
5.395720
 20
9.324480
  0
VERTEX
  8
0
  6
CONTINUOUS
 10
5.395280
 20
9.431840
  0
VERTEX
  8
0
  6
CONTINUOUS
 10
5.390440
 20
9.458240
  0
VERTEX
  8
0
  6
CONTINUOUS
 10
5.381640
 20
9.481120
  0
VERTEX
  8
0
  6
CONTINUOUS
 10
5.369320
 20
9.499600
  0
VERTEX
  8
0
  6
CONTINUOUS
 10
5.353920
 20
9.514560
  0
VERTEX
  8
0
  6
CONTINUOUS
 10
5.336320
 20
9.526000
  0
VERTEX
  8
0
  6
CONTINUOUS
 10
5.317400
 20
9.533920
  0
VERTEX
  8
0
  6
CONTINUOUS
 10
5.297600
 20
9.538320
  0
VERTEX
  8
0
  6
CONTINUOUS
 10
5.276920
 20
9.539640
  0
VERTEX
  8
0
  6
CONTINUOUS
 10
5.247440
 20
9.535240
  0
VERTEX
  8
0
  6
CONTINUOUS
 10
5.228960
 20
9.528200
  0
VERTEX
  8
0
  6
CONTINUOUS
 10
5.212240
 20
9.518520
  0
VERTEX
  8
0
  6
CONTINUOUS
 10
5.198160
 20
9.506200
  0
VERTEX
  8
0
  6
CONTINUOUS
 10
5.187160
 20
9.490800
  0
VERTEX
  8
0
  6
CONTINUOUS
 10
5.180120
 20
9.472760
  0
VERTEX
  8
0
  6
CONTINUOUS
 10
5.177480
 20
9.452520
  0
VERTEX
  8
0
  6
CONTINUOUS
 10
5.142280
 20
9.452520
  0
VERTEX
  8
0
  6
CONTINUOUS
 10
5.130400
 20
9.546680
  0
VERTEX
  8
0
  6
CONTINUOUS
 10
5.126000
 20
9.554600
  0
VERTEX
  8
0
  6
CONTINUOUS
 10
5.118080
 20
9.559440
  0
VERTEX
  8
0
  6
CONTINUOUS
 10
5.106640
 20
9.560760
  0
VERTEX
  8
0
  6
CONTINUOUS
 10
5.046800
 20
9.561200
  0
VERTEX
  8
0
  6
CONTINUOUS
 10
5.022160
 20
9.562520
  0
VERTEX
  8
0
  6
CONTINUOUS
 10
4.976400
 20
9.568240
  0
VERTEX
  8
0
  6
CONTINUOUS
 10
4.935040
 20
9.577040
  0
VERTEX
  8
0
  6
CONTINUOUS
 10
4.897200
 20
9.588480
  0
VERTEX
  8
0
  6
CONTINUOUS
 10
4.862880
 20
9.602560
  0
VERTEX
  8
0
  6
CONTINUOUS
 10
4.817560
 20
9.627640
  0
VERTEX
  8
0
  6
CONTINUOUS
 10
4.778400
 20
9.656240
  0
VERTEX
  8
0
  6
CONTINUOUS
 10
4.733080
 20
9.697160
  0
VERTEX
  8
0
  6
CONTINUOUS
 10
4.639800
 20
9.797480
  0
VERTEX
  8
0
  6
CONTINUOUS
 10
4.611640
 20
9.821680
  0
VERTEX
  8
0
  6
CONTINUOUS
 10
4.579960
 20
9.841920
  0
VERTEX
  8
0
  6
CONTINUOUS
 10
4.556640
 20
9.853360
  0
VERTEX
  8
0
  6
CONTINUOUS
 10
4.531560
 20
9.862160
  0
VERTEX
  8
0
  6
CONTINUOUS
 10
4.505600
 20
9.869200
  0
VERTEX
  8
0
  6
CONTINUOUS
 10
4.479200
 20
9.873600
  0
VERTEX
  8
0
  6
CONTINUOUS
 10
4.452360
 20
9.875800
  0
VERTEX
  8
0
  6
CONTINUOUS
 10
4.425960
 20
9.875360
  0
VERTEX
  8
0
  6
CONTINUOUS
 10
4.399560
 20
9.872280
  0
VERTEX
  8
0
  6
CONTINUOUS
 10
4.374040
 20
9.866120
  0
VERTEX
  8
0
  6
CONTINUOUS
 10
4.337960
 20
9.850720
  0
VERTEX
  8
0
  6
CONTINUOUS
 10
4.315960
 20
9.836640
  0
VERTEX
  8
0
  6
CONTINUOUS
 10
4.296160
 20
9.819040
  0
VERTEX
  8
0
  6
CONTINUOUS
 10
4.278560
 20
9.797480
  0
VERTEX
  8
0
  6
CONTINUOUS
 10
4.264040
 20
9.772840
  0
VERTEX
  8
0
  6
CONTINUOUS
 10
4.257880
 20
9.758760
  0
VERTEX
  8
0
  6
CONTINUOUS
 10
4.137320
 20
9.758760
  0
VERTEX
  8
0
  6
CONTINUOUS
 10
4.137320
 20
9.915840
  0
VERTEX
  8
0
  6
CONTINUOUS
 10
4.138640
 20
9.917160
  0
VERTEX
  8
0
  6
CONTINUOUS
 10
3.619440
 20
9.917160
  0
VERTEX
  8
0
  6
CONTINUOUS
 10
3.619440
 20
7.896240
  0
VERTEX
  8
0
  6
CONTINUOUS
 10
4.923600
 20
7.896240
  0
SEQEND
  8
0
  0
TEXT
  8
0
 10
3.806880
 20
7.648080
 40
0.138140
  1
BA  1020 2" x 2-1/8"
 41
1.000000
  7
SN0
 71
     0
 72
     5
 11
5.296710
 21
7.648080
  0
ENDSEC
  0
EOF
