  0
SECTION
  2
HEADER
  9
$ACADVER
  1
AC1006
  9
$EXTMIN
 10
1.866480
 20
2.475440
  9
$EXTMAX
 10
6.875440
 20
6.725400
  9
$LTSCALE
 40
0.044000
  9
$PDMODE
 70
    35
  9
$PDSIZE
 40
0.035200
  0
ENDSEC
  0
SECTION
  2
TABLES
  0
TABLE
  2
LTYPE
 70
     9
  0
LTYPE
  2
CONTINUOUS
 70
    64
  3
Solid line
 72
    65
 73
     0
 40
0.000000
  0
LTYPE
  2
DASHED
 70
    64
  3
__ __ __ __ __ __ __ __ __ __ __ __ __ __ __
 72
    65
 73
     2
 40
0.000330
 49
0.000220
 49
-0.000110
  0
LTYPE
  2
HIDDEN
 70
    64
  3
 _ _ _ _ _ _ _ _ _ _ _ _ _ _ _ _ _ _ _ _ _ _
 72
    65
 73
     2
 40
0.000165
 49
0.000110
 49
-0.000055
  0
LTYPE
  2
CENTER
 70
    64
  3
____ _ ____ _ ____ _ ____ _ ____ _ ____ _ ____
 72
    65
 73
     4
 40
0.000880
 49
0.000550
 49
-0.000110
 49
0.000110
 49
-0.000110
  0
LTYPE
  2
PHANTOM
 70
    64
  3
_____ _ _ _____ _ _ _____ _ _ _____ _ _ ____
 72
    65
 73
     6
 40
0.001100
 49
0.000550
 49
-0.000110
 49
0.000110
 49
-0.000110
 49
0.000110
 49
-0.000110
  0
LTYPE
  2
DOT
 70
    64
  3
...............................................
 72
    65
 73
     2
 40
0.000110
 49
0.000000
 49
-0.000110
  0
LTYPE
  2
DASHDOT
 70
    64
  3
__ . __ . __ . __ . __ . __ . __ . __ . __ . __
 72
    65
 73
     4
 40
0.000440
 49
0.000220
 49
-0.000110
 49
0.000000
 49
-0.000110
  0
LTYPE
  2
BORDER
 70
    64
  3
__ __ . __ __ . __ __ . __ __ . __ __ . __ __
 72
    65
 73
     6
 40
0.000770
 49
0.000220
 49
-0.000110
 49
0.000220
 49
-0.000110
 49
0.000000
 49
-0.000110
  0
LTYPE
  2
DIVIDE
 70
    64
  3
__ . . __ . . __ . . __ . . __ . . __ . . __
 72
    65
 73
     6
 40
0.000550
 49
0.000220
 49
-0.000110
 49
0.000000
 49
-0.000110
 49
0.000000
 49
-0.000110
  0
LTYPE
  2
DOTDOT
 70
    64
  3
 . .  . .  . .  . .  . .  . . 
 72
    65
 73
     5
 40
0.000242
 49
-0.000110
 49
0.000000
 49
-0.000110
 49
0.000000
 49
-0.000110
  0
ENDTAB
  0
TABLE
  2
STYLE
 70
     4
  0
STYLE
 70
     0
  2
SN0
 40
0.000000
 41
0.000440
 50
0.000000
 71
     0
 42
0.000000
  3
ROMAND
  0
STYLE
 70
    68
  2
SV0
 40
0.000000
 41
0.000440
 50
0.000000
 71
     0
 42
0.000000
  3
ROMAND
  0
STYLE
 70
     0
  2
SN1
 40
0.000000
 41
0.000440
 50
0.000000
 71
     0
 42
0.000000
  3
ROMAND
  0
STYLE
 70
    68
  2
SV1
 40
0.000000
 41
0.000440
 50
0.000000
 71
     0
 42
0.000000
  3
ROMAND
  0
ENDTAB
  0
TABLE
  2
LAYER
 70
     3
  0
LAYER
  2
FOREGROUND
 70
    64
 62
     7
  6
CONTINUOUS
  0
LAYER
  2
BACKGROUND
 70
    65
 62
    -7
  6
CONTINUOUS
  0
LAYER
  2
0
 70
    64
 62
     7
  6
CONTINUOUS
  0
ENDTAB
  0
ENDSEC
  0
SECTION
  2
ENTITIES
  0
POLYLINE
  8
FOREGROUND
  6
CONTINUOUS
 66
     1
 40
0.000000
 41
0.000000
  0
VERTEX
  8
FOREGROUND
  6
CONTINUOUS
 10
0.000000
 20
9.200840
  0
VERTEX
  8
FOREGROUND
  6
CONTINUOUS
 10
8.499920
 20
9.200840
  0
VERTEX
  8
FOREGROUND
  6
CONTINUOUS
 10
8.499920
 20
-1.799160
  0
VERTEX
  8
FOREGROUND
  6
CONTINUOUS
 10
0.000000
 20
-1.799160
  0
VERTEX
  8
FOREGROUND
  6
CONTINUOUS
 10
0.000000
 20
9.200840
  0
SEQEND
  8
0
  0
POLYLINE
  8
FOREGROUND
  6
CONTINUOUS
 66
     1
 40
0.000000
 41
0.000000
  0
VERTEX
  8
FOREGROUND
  6
CONTINUOUS
 10
0.000000
 20
9.200840
  0
VERTEX
  8
FOREGROUND
  6
CONTINUOUS
 10
8.499920
 20
9.200840
  0
VERTEX
  8
FOREGROUND
  6
CONTINUOUS
 10
8.499920
 20
-1.799160
  0
VERTEX
  8
FOREGROUND
  6
CONTINUOUS
 10
0.000000
 20
-1.799160
  0
VERTEX
  8
FOREGROUND
  6
CONTINUOUS
 10
0.000000
 20
9.200840
  0
SEQEND
  8
0
  0
SOLID
  8
0
 62
    15
 10
3.346200
 20
4.326080
 11
3.339160
 21
5.075400
 12
3.381840
 22
4.318600
 13
3.374360
 23
5.067920
  0
POLYLINE
  8
0
  6
CONTINUOUS
 66
     1
 40
0.000000
 41
0.000000
  0
VERTEX
  8
0
  6
CONTINUOUS
 10
3.346200
 20
4.326080
  0
VERTEX
  8
0
  6
CONTINUOUS
 10
3.339160
 20
5.075400
  0
VERTEX
  8
0
  6
CONTINUOUS
 10
3.374360
 20
5.067920
  0
VERTEX
  8
0
  6
CONTINUOUS
 10
3.381840
 20
4.318600
  0
VERTEX
  8
0
  6
CONTINUOUS
 10
3.346200
 20
4.326080
  0
SEQEND
  8
0
  0
SOLID
  8
0
 62
    15
 10
2.334640
 20
4.411000
 11
2.327160
 21
5.160320
 12
2.440240
 22
4.411000
 13
2.433200
 23
5.160320
  0
POLYLINE
  8
0
  6
CONTINUOUS
 66
     1
 40
0.000000
 41
0.000000
  0
VERTEX
  8
0
  6
CONTINUOUS
 10
2.334640
 20
4.411000
  0
VERTEX
  8
0
  6
CONTINUOUS
 10
2.327160
 20
5.160320
  0
VERTEX
  8
0
  6
CONTINUOUS
 10
2.433200
 20
5.160320
  0
VERTEX
  8
0
  6
CONTINUOUS
 10
2.440240
 20
4.411000
  0
VERTEX
  8
0
  6
CONTINUOUS
 10
2.334640
 20
4.411000
  0
SEQEND
  8
0
  0
SOLID
  8
0
 62
    15
 10
1.877920
 20
3.274480
 11
1.870440
 21
4.023800
 12
1.877920
 22
4.513080
 13
1.870440
 23
5.262400
  0
POLYLINE
  8
0
  6
CONTINUOUS
 66
     1
 40
0.000000
 41
0.000000
  0
VERTEX
  8
0
  6
CONTINUOUS
 10
1.877920
 20
3.274480
  0
VERTEX
  8
0
  6
CONTINUOUS
 10
1.870440
 20
4.023800
  0
VERTEX
  8
0
  6
CONTINUOUS
 10
1.870440
 20
5.262400
  0
VERTEX
  8
0
  6
CONTINUOUS
 10
1.877920
 20
4.513080
  0
VERTEX
  8
0
  6
CONTINUOUS
 10
1.877920
 20
3.274480
  0
SEQEND
  8
0
  0
SOLID
  8
0
 62
    15
 10
2.440240
 20
4.411000
 11
2.433200
 21
5.160320
 12
2.459600
 22
4.447960
 13
2.452120
 23
5.196840
  0
POLYLINE
  8
0
  6
CONTINUOUS
 66
     1
 40
0.000000
 41
0.000000
  0
VERTEX
  8
0
  6
CONTINUOUS
 10
2.440240
 20
4.411000
  0
VERTEX
  8
0
  6
CONTINUOUS
 10
2.433200
 20
5.160320
  0
VERTEX
  8
0
  6
CONTINUOUS
 10
2.452120
 20
5.196840
  0
VERTEX
  8
0
  6
CONTINUOUS
 10
2.459600
 20
4.447960
  0
VERTEX
  8
0
  6
CONTINUOUS
 10
2.440240
 20
4.411000
  0
SEQEND
  8
0
  0
SOLID
  8
0
 62
    15
 10
2.459600
 20
4.447960
 11
2.452120
 21
5.196840
 12
2.485120
 22
4.477000
 13
2.478080
 23
5.226320
  0
POLYLINE
  8
0
  6
CONTINUOUS
 66
     1
 40
0.000000
 41
0.000000
  0
VERTEX
  8
0
  6
CONTINUOUS
 10
2.459600
 20
4.447960
  0
VERTEX
  8
0
  6
CONTINUOUS
 10
2.452120
 20
5.196840
  0
VERTEX
  8
0
  6
CONTINUOUS
 10
2.478080
 20
5.226320
  0
VERTEX
  8
0
  6
CONTINUOUS
 10
2.485120
 20
4.477000
  0
VERTEX
  8
0
  6
CONTINUOUS
 10
2.459600
 20
4.447960
  0
SEQEND
  8
0
  0
SOLID
  8
0
 62
    15
 10
2.485120
 20
4.477000
 11
2.478080
 21
5.226320
 12
2.517680
 22
4.497680
 13
2.510640
 23
5.246560
  0
POLYLINE
  8
0
  6
CONTINUOUS
 66
     1
 40
0.000000
 41
0.000000
  0
VERTEX
  8
0
  6
CONTINUOUS
 10
2.485120
 20
4.477000
  0
VERTEX
  8
0
  6
CONTINUOUS
 10
2.478080
 20
5.226320
  0
VERTEX
  8
0
  6
CONTINUOUS
 10
2.510640
 20
5.246560
  0
VERTEX
  8
0
  6
CONTINUOUS
 10
2.517680
 20
4.497680
  0
VERTEX
  8
0
  6
CONTINUOUS
 10
2.485120
 20
4.477000
  0
SEQEND
  8
0
  0
SOLID
  8
0
 62
    15
 10
2.517680
 20
4.497680
 11
2.510640
 21
5.246560
 12
2.557720
 22
4.507800
 13
2.550240
 23
5.257120
  0
POLYLINE
  8
0
  6
CONTINUOUS
 66
     1
 40
0.000000
 41
0.000000
  0
VERTEX
  8
0
  6
CONTINUOUS
 10
2.517680
 20
4.497680
  0
VERTEX
  8
0
  6
CONTINUOUS
 10
2.510640
 20
5.246560
  0
VERTEX
  8
0
  6
CONTINUOUS
 10
2.550240
 20
5.257120
  0
VERTEX
  8
0
  6
CONTINUOUS
 10
2.557720
 20
4.507800
  0
VERTEX
  8
0
  6
CONTINUOUS
 10
2.517680
 20
4.497680
  0
SEQEND
  8
0
  0
SOLID
  8
0
 62
    15
 10
2.557720
 20
4.507800
 11
2.550240
 21
5.257120
 12
2.604800
 22
4.506480
 13
2.597760
 23
5.255800
  0
POLYLINE
  8
0
  6
CONTINUOUS
 66
     1
 40
0.000000
 41
0.000000
  0
VERTEX
  8
0
  6
CONTINUOUS
 10
2.557720
 20
4.507800
  0
VERTEX
  8
0
  6
CONTINUOUS
 10
2.550240
 20
5.257120
  0
VERTEX
  8
0
  6
CONTINUOUS
 10
2.597760
 20
5.255800
  0
VERTEX
  8
0
  6
CONTINUOUS
 10
2.604800
 20
4.506480
  0
VERTEX
  8
0
  6
CONTINUOUS
 10
2.557720
 20
4.507800
  0
SEQEND
  8
0
  0
SOLID
  8
0
 62
    15
 10
2.604800
 20
4.506480
 11
2.597760
 21
5.255800
 12
2.660680
 22
4.491960
 13
2.653200
 23
5.241280
  0
POLYLINE
  8
0
  6
CONTINUOUS
 66
     1
 40
0.000000
 41
0.000000
  0
VERTEX
  8
0
  6
CONTINUOUS
 10
2.604800
 20
4.506480
  0
VERTEX
  8
0
  6
CONTINUOUS
 10
2.597760
 20
5.255800
  0
VERTEX
  8
0
  6
CONTINUOUS
 10
2.653200
 20
5.241280
  0
VERTEX
  8
0
  6
CONTINUOUS
 10
2.660680
 20
4.491960
  0
VERTEX
  8
0
  6
CONTINUOUS
 10
2.604800
 20
4.506480
  0
SEQEND
  8
0
  0
SOLID
  8
0
 62
    15
 10
2.660680
 20
4.491960
 11
2.653200
 21
5.241280
 12
2.724480
 22
4.463360
 13
2.717440
 23
5.212680
  0
POLYLINE
  8
0
  6
CONTINUOUS
 66
     1
 40
0.000000
 41
0.000000
  0
VERTEX
  8
0
  6
CONTINUOUS
 10
2.660680
 20
4.491960
  0
VERTEX
  8
0
  6
CONTINUOUS
 10
2.653200
 20
5.241280
  0
VERTEX
  8
0
  6
CONTINUOUS
 10
2.717440
 20
5.212680
  0
VERTEX
  8
0
  6
CONTINUOUS
 10
2.724480
 20
4.463360
  0
VERTEX
  8
0
  6
CONTINUOUS
 10
2.660680
 20
4.491960
  0
SEQEND
  8
0
  0
SOLID
  8
0
 62
    15
 10
2.724480
 20
4.463360
 11
2.717440
 21
5.212680
 12
2.871880
 22
4.373600
 13
2.864400
 23
5.122920
  0
POLYLINE
  8
0
  6
CONTINUOUS
 66
     1
 40
0.000000
 41
0.000000
  0
VERTEX
  8
0
  6
CONTINUOUS
 10
2.724480
 20
4.463360
  0
VERTEX
  8
0
  6
CONTINUOUS
 10
2.717440
 20
5.212680
  0
VERTEX
  8
0
  6
CONTINUOUS
 10
2.864400
 20
5.122920
  0
VERTEX
  8
0
  6
CONTINUOUS
 10
2.871880
 20
4.373600
  0
VERTEX
  8
0
  6
CONTINUOUS
 10
2.724480
 20
4.463360
  0
SEQEND
  8
0
  0
SOLID
  8
0
 62
    15
 10
2.871880
 20
4.373600
 11
2.864400
 21
5.122920
 12
2.940080
 22
4.341480
 13
2.932600
 23
5.090800
  0
POLYLINE
  8
0
  6
CONTINUOUS
 66
     1
 40
0.000000
 41
0.000000
  0
VERTEX
  8
0
  6
CONTINUOUS
 10
2.871880
 20
4.373600
  0
VERTEX
  8
0
  6
CONTINUOUS
 10
2.864400
 20
5.122920
  0
VERTEX
  8
0
  6
CONTINUOUS
 10
2.932600
 20
5.090800
  0
VERTEX
  8
0
  6
CONTINUOUS
 10
2.940080
 20
4.341480
  0
VERTEX
  8
0
  6
CONTINUOUS
 10
2.871880
 20
4.373600
  0
SEQEND
  8
0
  0
SOLID
  8
0
 62
    15
 10
2.940080
 20
4.341480
 11
2.932600
 21
5.090800
 12
3.001240
 22
4.320360
 13
2.994200
 23
5.069680
  0
POLYLINE
  8
0
  6
CONTINUOUS
 66
     1
 40
0.000000
 41
0.000000
  0
VERTEX
  8
0
  6
CONTINUOUS
 10
2.940080
 20
4.341480
  0
VERTEX
  8
0
  6
CONTINUOUS
 10
2.932600
 20
5.090800
  0
VERTEX
  8
0
  6
CONTINUOUS
 10
2.994200
 20
5.069680
  0
VERTEX
  8
0
  6
CONTINUOUS
 10
3.001240
 20
4.320360
  0
VERTEX
  8
0
  6
CONTINUOUS
 10
2.940080
 20
4.341480
  0
SEQEND
  8
0
  0
SOLID
  8
0
 62
    15
 10
3.001240
 20
4.320360
 11
2.994200
 21
5.069680
 12
3.055360
 22
4.308040
 13
3.048320
 23
5.056920
  0
POLYLINE
  8
0
  6
CONTINUOUS
 66
     1
 40
0.000000
 41
0.000000
  0
VERTEX
  8
0
  6
CONTINUOUS
 10
3.001240
 20
4.320360
  0
VERTEX
  8
0
  6
CONTINUOUS
 10
2.994200
 20
5.069680
  0
VERTEX
  8
0
  6
CONTINUOUS
 10
3.048320
 20
5.056920
  0
VERTEX
  8
0
  6
CONTINUOUS
 10
3.055360
 20
4.308040
  0
VERTEX
  8
0
  6
CONTINUOUS
 10
3.001240
 20
4.320360
  0
SEQEND
  8
0
  0
SOLID
  8
0
 62
    15
 10
3.055360
 20
4.308040
 11
3.048320
 21
5.056920
 12
3.101560
 22
4.302320
 13
3.094520
 23
5.051640
  0
POLYLINE
  8
0
  6
CONTINUOUS
 66
     1
 40
0.000000
 41
0.000000
  0
VERTEX
  8
0
  6
CONTINUOUS
 10
3.055360
 20
4.308040
  0
VERTEX
  8
0
  6
CONTINUOUS
 10
3.048320
 20
5.056920
  0
VERTEX
  8
0
  6
CONTINUOUS
 10
3.094520
 20
5.051640
  0
VERTEX
  8
0
  6
CONTINUOUS
 10
3.101560
 20
4.302320
  0
VERTEX
  8
0
  6
CONTINUOUS
 10
3.055360
 20
4.308040
  0
SEQEND
  8
0
  0
SOLID
  8
0
 62
    15
 10
3.101560
 20
4.302320
 11
3.094520
 21
5.051640
 12
3.139400
 22
4.301000
 13
3.131920
 23
5.050320
  0
POLYLINE
  8
0
  6
CONTINUOUS
 66
     1
 40
0.000000
 41
0.000000
  0
VERTEX
  8
0
  6
CONTINUOUS
 10
3.101560
 20
4.302320
  0
VERTEX
  8
0
  6
CONTINUOUS
 10
3.094520
 20
5.051640
  0
VERTEX
  8
0
  6
CONTINUOUS
 10
3.131920
 20
5.050320
  0
VERTEX
  8
0
  6
CONTINUOUS
 10
3.139400
 20
4.301000
  0
VERTEX
  8
0
  6
CONTINUOUS
 10
3.101560
 20
4.302320
  0
SEQEND
  8
0
  0
SOLID
  8
0
 62
    15
 10
3.139400
 20
4.301000
 11
3.131920
 21
5.050320
 12
3.168000
 22
4.302320
 13
3.160960
 23
5.051640
  0
POLYLINE
  8
0
  6
CONTINUOUS
 66
     1
 40
0.000000
 41
0.000000
  0
VERTEX
  8
0
  6
CONTINUOUS
 10
3.139400
 20
4.301000
  0
VERTEX
  8
0
  6
CONTINUOUS
 10
3.131920
 20
5.050320
  0
VERTEX
  8
0
  6
CONTINUOUS
 10
3.160960
 20
5.051640
  0
VERTEX
  8
0
  6
CONTINUOUS
 10
3.168000
 20
4.302320
  0
VERTEX
  8
0
  6
CONTINUOUS
 10
3.139400
 20
4.301000
  0
SEQEND
  8
0
  0
SOLID
  8
0
 62
    15
 10
3.168000
 20
4.302320
 11
3.160960
 21
5.051640
 12
3.187360
 22
4.303640
 13
3.180320
 23
5.052520
  0
POLYLINE
  8
0
  6
CONTINUOUS
 66
     1
 40
0.000000
 41
0.000000
  0
VERTEX
  8
0
  6
CONTINUOUS
 10
3.168000
 20
4.302320
  0
VERTEX
  8
0
  6
CONTINUOUS
 10
3.160960
 20
5.051640
  0
VERTEX
  8
0
  6
CONTINUOUS
 10
3.180320
 20
5.052520
  0
VERTEX
  8
0
  6
CONTINUOUS
 10
3.187360
 20
4.303640
  0
VERTEX
  8
0
  6
CONTINUOUS
 10
3.168000
 20
4.302320
  0
SEQEND
  8
0
  0
SOLID
  8
0
 62
    15
 10
3.187360
 20
4.303640
 11
3.180320
 21
5.052520
 12
3.204520
 22
4.300120
 13
3.197040
 23
5.049440
  0
POLYLINE
  8
0
  6
CONTINUOUS
 66
     1
 40
0.000000
 41
0.000000
  0
VERTEX
  8
0
  6
CONTINUOUS
 10
3.187360
 20
4.303640
  0
VERTEX
  8
0
  6
CONTINUOUS
 10
3.180320
 20
5.052520
  0
VERTEX
  8
0
  6
CONTINUOUS
 10
3.197040
 20
5.049440
  0
VERTEX
  8
0
  6
CONTINUOUS
 10
3.204520
 20
4.300120
  0
VERTEX
  8
0
  6
CONTINUOUS
 10
3.187360
 20
4.303640
  0
SEQEND
  8
0
  0
SOLID
  8
0
 62
    15
 10
3.204520
 20
4.300120
 11
3.197040
 21
5.049440
 12
3.209800
 22
4.288680
 13
3.202760
 23
5.038000
  0
POLYLINE
  8
0
  6
CONTINUOUS
 66
     1
 40
0.000000
 41
0.000000
  0
VERTEX
  8
0
  6
CONTINUOUS
 10
3.204520
 20
4.300120
  0
VERTEX
  8
0
  6
CONTINUOUS
 10
3.197040
 20
5.049440
  0
VERTEX
  8
0
  6
CONTINUOUS
 10
3.202760
 20
5.038000
  0
VERTEX
  8
0
  6
CONTINUOUS
 10
3.209800
 20
4.288680
  0
VERTEX
  8
0
  6
CONTINUOUS
 10
3.204520
 20
4.300120
  0
SEQEND
  8
0
  0
SOLID
  8
0
 62
    15
 10
3.209800
 20
4.288680
 11
3.202760
 21
5.038000
 12
3.218600
 22
4.244680
 13
3.211560
 23
4.994000
  0
POLYLINE
  8
0
  6
CONTINUOUS
 66
     1
 40
0.000000
 41
0.000000
  0
VERTEX
  8
0
  6
CONTINUOUS
 10
3.209800
 20
4.288680
  0
VERTEX
  8
0
  6
CONTINUOUS
 10
3.202760
 20
5.038000
  0
VERTEX
  8
0
  6
CONTINUOUS
 10
3.211560
 20
4.994000
  0
VERTEX
  8
0
  6
CONTINUOUS
 10
3.218600
 20
4.244680
  0
VERTEX
  8
0
  6
CONTINUOUS
 10
3.209800
 20
4.288680
  0
SEQEND
  8
0
  0
SOLID
  8
0
 62
    15
 10
3.218600
 20
4.244680
 11
3.211560
 21
4.994000
 12
3.249840
 22
4.244680
 13
3.242800
 23
4.994000
  0
POLYLINE
  8
0
  6
CONTINUOUS
 66
     1
 40
0.000000
 41
0.000000
  0
VERTEX
  8
0
  6
CONTINUOUS
 10
3.218600
 20
4.244680
  0
VERTEX
  8
0
  6
CONTINUOUS
 10
3.211560
 20
4.994000
  0
VERTEX
  8
0
  6
CONTINUOUS
 10
3.242800
 20
4.994000
  0
VERTEX
  8
0
  6
CONTINUOUS
 10
3.249840
 20
4.244680
  0
VERTEX
  8
0
  6
CONTINUOUS
 10
3.218600
 20
4.244680
  0
SEQEND
  8
0
  0
SOLID
  8
0
 62
    15
 10
3.249840
 20
4.244680
 11
3.242800
 21
4.994000
 12
3.258200
 22
4.281200
 13
3.251160
 23
5.030520
  0
POLYLINE
  8
0
  6
CONTINUOUS
 66
     1
 40
0.000000
 41
0.000000
  0
VERTEX
  8
0
  6
CONTINUOUS
 10
3.249840
 20
4.244680
  0
VERTEX
  8
0
  6
CONTINUOUS
 10
3.242800
 20
4.994000
  0
VERTEX
  8
0
  6
CONTINUOUS
 10
3.251160
 20
5.030520
  0
VERTEX
  8
0
  6
CONTINUOUS
 10
3.258200
 20
4.281200
  0
VERTEX
  8
0
  6
CONTINUOUS
 10
3.249840
 20
4.244680
  0
SEQEND
  8
0
  0
SOLID
  8
0
 62
    15
 10
3.258200
 20
4.281200
 11
3.251160
 21
5.030520
 12
3.280200
 22
4.307160
 13
3.273160
 23
5.056480
  0
POLYLINE
  8
0
  6
CONTINUOUS
 66
     1
 40
0.000000
 41
0.000000
  0
VERTEX
  8
0
  6
CONTINUOUS
 10
3.258200
 20
4.281200
  0
VERTEX
  8
0
  6
CONTINUOUS
 10
3.251160
 20
5.030520
  0
VERTEX
  8
0
  6
CONTINUOUS
 10
3.273160
 20
5.056480
  0
VERTEX
  8
0
  6
CONTINUOUS
 10
3.280200
 20
4.307160
  0
VERTEX
  8
0
  6
CONTINUOUS
 10
3.258200
 20
4.281200
  0
SEQEND
  8
0
  0
SOLID
  8
0
 62
    15
 10
3.280200
 20
4.307160
 11
3.273160
 21
5.056480
 12
3.311000
 22
4.322120
 13
3.303960
 23
5.071440
  0
POLYLINE
  8
0
  6
CONTINUOUS
 66
     1
 40
0.000000
 41
0.000000
  0
VERTEX
  8
0
  6
CONTINUOUS
 10
3.280200
 20
4.307160
  0
VERTEX
  8
0
  6
CONTINUOUS
 10
3.273160
 20
5.056480
  0
VERTEX
  8
0
  6
CONTINUOUS
 10
3.303960
 20
5.071440
  0
VERTEX
  8
0
  6
CONTINUOUS
 10
3.311000
 20
4.322120
  0
VERTEX
  8
0
  6
CONTINUOUS
 10
3.280200
 20
4.307160
  0
SEQEND
  8
0
  0
SOLID
  8
0
 62
    15
 10
3.311000
 20
4.322120
 11
3.303960
 21
5.071440
 12
3.346200
 22
4.326080
 13
3.339160
 23
5.075400
  0
POLYLINE
  8
0
  6
CONTINUOUS
 66
     1
 40
0.000000
 41
0.000000
  0
VERTEX
  8
0
  6
CONTINUOUS
 10
3.311000
 20
4.322120
  0
VERTEX
  8
0
  6
CONTINUOUS
 10
3.303960
 20
5.071440
  0
VERTEX
  8
0
  6
CONTINUOUS
 10
3.339160
 20
5.075400
  0
VERTEX
  8
0
  6
CONTINUOUS
 10
3.346200
 20
4.326080
  0
VERTEX
  8
0
  6
CONTINUOUS
 10
3.311000
 20
4.322120
  0
SEQEND
  8
0
  0
SOLID
  8
0
 62
    15
 10
1.877920
 20
4.513080
 11
1.870440
 21
5.262400
 12
2.334640
 22
4.513080
 13
2.327160
 23
5.262400
  0
POLYLINE
  8
0
  6
CONTINUOUS
 66
     1
 40
0.000000
 41
0.000000
  0
VERTEX
  8
0
  6
CONTINUOUS
 10
1.877920
 20
4.513080
  0
VERTEX
  8
0
  6
CONTINUOUS
 10
1.870440
 20
5.262400
  0
VERTEX
  8
0
  6
CONTINUOUS
 10
2.327160
 20
5.262400
  0
VERTEX
  8
0
  6
CONTINUOUS
 10
2.334640
 20
4.513080
  0
VERTEX
  8
0
  6
CONTINUOUS
 10
1.877920
 20
4.513080
  0
SEQEND
  8
0
  0
SOLID
  8
0
 62
    15
 10
3.381840
 20
4.318600
 11
3.374360
 21
5.067920
 12
3.412640
 22
4.299240
 13
3.405160
 23
5.048560
  0
POLYLINE
  8
0
  6
CONTINUOUS
 66
     1
 40
0.000000
 41
0.000000
  0
VERTEX
  8
0
  6
CONTINUOUS
 10
3.381840
 20
4.318600
  0
VERTEX
  8
0
  6
CONTINUOUS
 10
3.374360
 20
5.067920
  0
VERTEX
  8
0
  6
CONTINUOUS
 10
3.405160
 20
5.048560
  0
VERTEX
  8
0
  6
CONTINUOUS
 10
3.412640
 20
4.299240
  0
VERTEX
  8
0
  6
CONTINUOUS
 10
3.381840
 20
4.318600
  0
SEQEND
  8
0
  0
SOLID
  8
0
 62
    15
 10
3.412640
 20
4.299240
 11
3.405160
 21
5.048560
 12
3.434200
 22
4.268440
 13
3.426720
 23
5.017760
  0
POLYLINE
  8
0
  6
CONTINUOUS
 66
     1
 40
0.000000
 41
0.000000
  0
VERTEX
  8
0
  6
CONTINUOUS
 10
3.412640
 20
4.299240
  0
VERTEX
  8
0
  6
CONTINUOUS
 10
3.405160
 20
5.048560
  0
VERTEX
  8
0
  6
CONTINUOUS
 10
3.426720
 20
5.017760
  0
VERTEX
  8
0
  6
CONTINUOUS
 10
3.434200
 20
4.268440
  0
VERTEX
  8
0
  6
CONTINUOUS
 10
3.412640
 20
4.299240
  0
SEQEND
  8
0
  0
SOLID
  8
0
 62
    15
 10
3.442120
 20
4.175160
 11
3.434640
 21
4.924040
 12
3.514720
 22
4.175160
 13
3.507680
 23
4.924040
  0
POLYLINE
  8
0
  6
CONTINUOUS
 66
     1
 40
0.000000
 41
0.000000
  0
VERTEX
  8
0
  6
CONTINUOUS
 10
3.442120
 20
4.175160
  0
VERTEX
  8
0
  6
CONTINUOUS
 10
3.434640
 20
4.924040
  0
VERTEX
  8
0
  6
CONTINUOUS
 10
3.507680
 20
4.924040
  0
VERTEX
  8
0
  6
CONTINUOUS
 10
3.514720
 20
4.175160
  0
VERTEX
  8
0
  6
CONTINUOUS
 10
3.442120
 20
4.175160
  0
SEQEND
  8
0
  0
SOLID
  8
0
 62
    15
 10
3.434200
 20
4.268440
 11
3.426720
 21
5.017760
 12
3.442120
 22
4.225320
 13
3.434640
 23
4.974640
  0
POLYLINE
  8
0
  6
CONTINUOUS
 66
     1
 40
0.000000
 41
0.000000
  0
VERTEX
  8
0
  6
CONTINUOUS
 10
3.434200
 20
4.268440
  0
VERTEX
  8
0
  6
CONTINUOUS
 10
3.426720
 20
5.017760
  0
VERTEX
  8
0
  6
CONTINUOUS
 10
3.434640
 20
4.974640
  0
VERTEX
  8
0
  6
CONTINUOUS
 10
3.442120
 20
4.225320
  0
VERTEX
  8
0
  6
CONTINUOUS
 10
3.434200
 20
4.268440
  0
SEQEND
  8
0
  0
SOLID
  8
0
 62
    15
 10
3.514720
 20
4.175160
 11
3.507680
 21
4.924040
 12
3.516920
 22
4.161080
 13
3.509880
 23
4.910400
  0
POLYLINE
  8
0
  6
CONTINUOUS
 66
     1
 40
0.000000
 41
0.000000
  0
VERTEX
  8
0
  6
CONTINUOUS
 10
3.514720
 20
4.175160
  0
VERTEX
  8
0
  6
CONTINUOUS
 10
3.507680
 20
4.924040
  0
VERTEX
  8
0
  6
CONTINUOUS
 10
3.509880
 20
4.910400
  0
VERTEX
  8
0
  6
CONTINUOUS
 10
3.516920
 20
4.161080
  0
VERTEX
  8
0
  6
CONTINUOUS
 10
3.514720
 20
4.175160
  0
SEQEND
  8
0
  0
SOLID
  8
0
 62
    15
 10
3.516920
 20
4.161080
 11
3.509880
 21
4.910400
 12
3.524400
 22
4.143920
 13
3.517360
 23
4.893240
  0
POLYLINE
  8
0
  6
CONTINUOUS
 66
     1
 40
0.000000
 41
0.000000
  0
VERTEX
  8
0
  6
CONTINUOUS
 10
3.516920
 20
4.161080
  0
VERTEX
  8
0
  6
CONTINUOUS
 10
3.509880
 20
4.910400
  0
VERTEX
  8
0
  6
CONTINUOUS
 10
3.517360
 20
4.893240
  0
VERTEX
  8
0
  6
CONTINUOUS
 10
3.524400
 20
4.143920
  0
VERTEX
  8
0
  6
CONTINUOUS
 10
3.516920
 20
4.161080
  0
SEQEND
  8
0
  0
SOLID
  8
0
 62
    15
 10
3.524400
 20
4.143920
 11
3.517360
 21
4.893240
 12
3.537600
 22
4.125440
 13
3.530560
 23
4.874760
  0
POLYLINE
  8
0
  6
CONTINUOUS
 66
     1
 40
0.000000
 41
0.000000
  0
VERTEX
  8
0
  6
CONTINUOUS
 10
3.524400
 20
4.143920
  0
VERTEX
  8
0
  6
CONTINUOUS
 10
3.517360
 20
4.893240
  0
VERTEX
  8
0
  6
CONTINUOUS
 10
3.530560
 20
4.874760
  0
VERTEX
  8
0
  6
CONTINUOUS
 10
3.537600
 20
4.125440
  0
VERTEX
  8
0
  6
CONTINUOUS
 10
3.524400
 20
4.143920
  0
SEQEND
  8
0
  0
SOLID
  8
0
 62
    15
 10
3.537600
 20
4.125440
 11
3.530560
 21
4.874760
 12
3.557400
 22
4.106960
 13
3.550360
 23
4.855840
  0
POLYLINE
  8
0
  6
CONTINUOUS
 66
     1
 40
0.000000
 41
0.000000
  0
VERTEX
  8
0
  6
CONTINUOUS
 10
3.537600
 20
4.125440
  0
VERTEX
  8
0
  6
CONTINUOUS
 10
3.530560
 20
4.874760
  0
VERTEX
  8
0
  6
CONTINUOUS
 10
3.550360
 20
4.855840
  0
VERTEX
  8
0
  6
CONTINUOUS
 10
3.557400
 20
4.106960
  0
VERTEX
  8
0
  6
CONTINUOUS
 10
3.537600
 20
4.125440
  0
SEQEND
  8
0
  0
SOLID
  8
0
 62
    15
 10
3.557400
 20
4.106960
 11
3.550360
 21
4.855840
 12
3.584680
 22
4.089800
 13
3.577200
 23
4.839120
  0
POLYLINE
  8
0
  6
CONTINUOUS
 66
     1
 40
0.000000
 41
0.000000
  0
VERTEX
  8
0
  6
CONTINUOUS
 10
3.557400
 20
4.106960
  0
VERTEX
  8
0
  6
CONTINUOUS
 10
3.550360
 20
4.855840
  0
VERTEX
  8
0
  6
CONTINUOUS
 10
3.577200
 20
4.839120
  0
VERTEX
  8
0
  6
CONTINUOUS
 10
3.584680
 20
4.089800
  0
VERTEX
  8
0
  6
CONTINUOUS
 10
3.557400
 20
4.106960
  0
SEQEND
  8
0
  0
SOLID
  8
0
 62
    15
 10
3.584680
 20
4.089800
 11
3.577200
 21
4.839120
 12
3.619440
 22
4.075720
 13
3.612400
 23
4.825040
  0
POLYLINE
  8
0
  6
CONTINUOUS
 66
     1
 40
0.000000
 41
0.000000
  0
VERTEX
  8
0
  6
CONTINUOUS
 10
3.584680
 20
4.089800
  0
VERTEX
  8
0
  6
CONTINUOUS
 10
3.577200
 20
4.839120
  0
VERTEX
  8
0
  6
CONTINUOUS
 10
3.612400
 20
4.825040
  0
VERTEX
  8
0
  6
CONTINUOUS
 10
3.619440
 20
4.075720
  0
VERTEX
  8
0
  6
CONTINUOUS
 10
3.584680
 20
4.089800
  0
SEQEND
  8
0
  0
SOLID
  8
0
 62
    15
 10
3.619440
 20
4.075720
 11
3.612400
 21
4.825040
 12
3.663440
 22
4.066040
 13
3.655960
 23
4.815360
  0
POLYLINE
  8
0
  6
CONTINUOUS
 66
     1
 40
0.000000
 41
0.000000
  0
VERTEX
  8
0
  6
CONTINUOUS
 10
3.619440
 20
4.075720
  0
VERTEX
  8
0
  6
CONTINUOUS
 10
3.612400
 20
4.825040
  0
VERTEX
  8
0
  6
CONTINUOUS
 10
3.655960
 20
4.815360
  0
VERTEX
  8
0
  6
CONTINUOUS
 10
3.663440
 20
4.066040
  0
VERTEX
  8
0
  6
CONTINUOUS
 10
3.619440
 20
4.075720
  0
SEQEND
  8
0
  0
SOLID
  8
0
 62
    15
 10
6.281880
 20
3.780040
 11
6.274840
 21
4.529360
 12
6.334240
 22
3.776080
 13
6.326760
 23
4.525400
  0
POLYLINE
  8
0
  6
CONTINUOUS
 66
     1
 40
0.000000
 41
0.000000
  0
VERTEX
  8
0
  6
CONTINUOUS
 10
6.281880
 20
3.780040
  0
VERTEX
  8
0
  6
CONTINUOUS
 10
6.274840
 20
4.529360
  0
VERTEX
  8
0
  6
CONTINUOUS
 10
6.326760
 20
4.525400
  0
VERTEX
  8
0
  6
CONTINUOUS
 10
6.334240
 20
3.776080
  0
VERTEX
  8
0
  6
CONTINUOUS
 10
6.281880
 20
3.780040
  0
SEQEND
  8
0
  0
SOLID
  8
0
 62
    15
 10
5.127760
 20
3.863200
 11
5.120720
 21
4.612520
 12
6.281880
 22
3.863200
 13
6.274840
 23
4.612520
  0
POLYLINE
  8
0
  6
CONTINUOUS
 66
     1
 40
0.000000
 41
0.000000
  0
VERTEX
  8
0
  6
CONTINUOUS
 10
5.127760
 20
3.863200
  0
VERTEX
  8
0
  6
CONTINUOUS
 10
5.120720
 20
4.612520
  0
VERTEX
  8
0
  6
CONTINUOUS
 10
6.274840
 20
4.612520
  0
VERTEX
  8
0
  6
CONTINUOUS
 10
6.281880
 20
3.863200
  0
VERTEX
  8
0
  6
CONTINUOUS
 10
5.127760
 20
3.863200
  0
SEQEND
  8
0
  0
SOLID
  8
0
 62
    15
 10
3.716680
 20
3.952520
 11
3.709200
 21
4.701840
 12
5.127760
 22
3.952520
 13
5.120720
 23
4.701840
  0
POLYLINE
  8
0
  6
CONTINUOUS
 66
     1
 40
0.000000
 41
0.000000
  0
VERTEX
  8
0
  6
CONTINUOUS
 10
3.716680
 20
3.952520
  0
VERTEX
  8
0
  6
CONTINUOUS
 10
3.709200
 20
4.701840
  0
VERTEX
  8
0
  6
CONTINUOUS
 10
5.120720
 20
4.701840
  0
VERTEX
  8
0
  6
CONTINUOUS
 10
5.127760
 20
3.952520
  0
VERTEX
  8
0
  6
CONTINUOUS
 10
3.716680
 20
3.952520
  0
SEQEND
  8
0
  0
SOLID
  8
0
 62
    15
 10
3.663440
 20
4.066040
 11
3.655960
 21
4.815360
 12
3.716680
 22
4.062520
 13
3.709200
 23
4.811840
  0
POLYLINE
  8
0
  6
CONTINUOUS
 66
     1
 40
0.000000
 41
0.000000
  0
VERTEX
  8
0
  6
CONTINUOUS
 10
3.663440
 20
4.066040
  0
VERTEX
  8
0
  6
CONTINUOUS
 10
3.655960
 20
4.815360
  0
VERTEX
  8
0
  6
CONTINUOUS
 10
3.709200
 20
4.811840
  0
VERTEX
  8
0
  6
CONTINUOUS
 10
3.716680
 20
4.062520
  0
VERTEX
  8
0
  6
CONTINUOUS
 10
3.663440
 20
4.066040
  0
SEQEND
  8
0
  0
SOLID
  8
0
 62
    15
 10
6.334240
 20
3.776080
 11
6.326760
 21
4.525400
 12
6.379560
 22
3.765080
 13
6.372520
 23
4.514400
  0
POLYLINE
  8
0
  6
CONTINUOUS
 66
     1
 40
0.000000
 41
0.000000
  0
VERTEX
  8
0
  6
CONTINUOUS
 10
6.334240
 20
3.776080
  0
VERTEX
  8
0
  6
CONTINUOUS
 10
6.326760
 20
4.525400
  0
VERTEX
  8
0
  6
CONTINUOUS
 10
6.372520
 20
4.514400
  0
VERTEX
  8
0
  6
CONTINUOUS
 10
6.379560
 20
3.765080
  0
VERTEX
  8
0
  6
CONTINUOUS
 10
6.334240
 20
3.776080
  0
SEQEND
  8
0
  0
SOLID
  8
0
 62
    15
 10
6.379560
 20
3.765080
 11
6.372520
 21
4.514400
 12
6.419600
 22
3.748360
 13
6.412560
 23
4.497240
  0
POLYLINE
  8
0
  6
CONTINUOUS
 66
     1
 40
0.000000
 41
0.000000
  0
VERTEX
  8
0
  6
CONTINUOUS
 10
6.379560
 20
3.765080
  0
VERTEX
  8
0
  6
CONTINUOUS
 10
6.372520
 20
4.514400
  0
VERTEX
  8
0
  6
CONTINUOUS
 10
6.412560
 20
4.497240
  0
VERTEX
  8
0
  6
CONTINUOUS
 10
6.419600
 20
3.748360
  0
VERTEX
  8
0
  6
CONTINUOUS
 10
6.379560
 20
3.765080
  0
SEQEND
  8
0
  0
SOLID
  8
0
 62
    15
 10
6.419600
 20
3.748360
 11
6.412560
 21
4.497240
 12
6.455240
 22
3.725920
 13
6.448200
 23
4.475240
  0
POLYLINE
  8
0
  6
CONTINUOUS
 66
     1
 40
0.000000
 41
0.000000
  0
VERTEX
  8
0
  6
CONTINUOUS
 10
6.419600
 20
3.748360
  0
VERTEX
  8
0
  6
CONTINUOUS
 10
6.412560
 20
4.497240
  0
VERTEX
  8
0
  6
CONTINUOUS
 10
6.448200
 20
4.475240
  0
VERTEX
  8
0
  6
CONTINUOUS
 10
6.455240
 20
3.725920
  0
VERTEX
  8
0
  6
CONTINUOUS
 10
6.419600
 20
3.748360
  0
SEQEND
  8
0
  0
SOLID
  8
0
 62
    15
 10
6.455240
 20
3.725920
 11
6.448200
 21
4.475240
 12
6.515960
 22
3.670480
 13
6.508920
 23
4.419800
  0
POLYLINE
  8
0
  6
CONTINUOUS
 66
     1
 40
0.000000
 41
0.000000
  0
VERTEX
  8
0
  6
CONTINUOUS
 10
6.455240
 20
3.725920
  0
VERTEX
  8
0
  6
CONTINUOUS
 10
6.448200
 20
4.475240
  0
VERTEX
  8
0
  6
CONTINUOUS
 10
6.508920
 20
4.419800
  0
VERTEX
  8
0
  6
CONTINUOUS
 10
6.515960
 20
3.670480
  0
VERTEX
  8
0
  6
CONTINUOUS
 10
6.455240
 20
3.725920
  0
SEQEND
  8
0
  0
SOLID
  8
0
 62
    15
 10
6.515960
 20
3.670480
 11
6.508920
 21
4.419800
 12
6.570080
 22
3.607120
 13
6.563040
 23
4.356440
  0
POLYLINE
  8
0
  6
CONTINUOUS
 66
     1
 40
0.000000
 41
0.000000
  0
VERTEX
  8
0
  6
CONTINUOUS
 10
6.515960
 20
3.670480
  0
VERTEX
  8
0
  6
CONTINUOUS
 10
6.508920
 20
4.419800
  0
VERTEX
  8
0
  6
CONTINUOUS
 10
6.563040
 20
4.356440
  0
VERTEX
  8
0
  6
CONTINUOUS
 10
6.570080
 20
3.607120
  0
VERTEX
  8
0
  6
CONTINUOUS
 10
6.515960
 20
3.670480
  0
SEQEND
  8
0
  0
SOLID
  8
0
 62
    15
 10
6.570080
 20
3.607120
 11
6.563040
 21
4.356440
 12
6.624640
 22
3.543760
 13
6.617600
 23
4.293080
  0
POLYLINE
  8
0
  6
CONTINUOUS
 66
     1
 40
0.000000
 41
0.000000
  0
VERTEX
  8
0
  6
CONTINUOUS
 10
6.570080
 20
3.607120
  0
VERTEX
  8
0
  6
CONTINUOUS
 10
6.563040
 20
4.356440
  0
VERTEX
  8
0
  6
CONTINUOUS
 10
6.617600
 20
4.293080
  0
VERTEX
  8
0
  6
CONTINUOUS
 10
6.624640
 20
3.543760
  0
VERTEX
  8
0
  6
CONTINUOUS
 10
6.570080
 20
3.607120
  0
SEQEND
  8
0
  0
SOLID
  8
0
 62
    15
 10
6.624640
 20
3.543760
 11
6.617600
 21
4.293080
 12
6.688000
 22
3.488320
 13
6.680520
 23
4.237640
  0
POLYLINE
  8
0
  6
CONTINUOUS
 66
     1
 40
0.000000
 41
0.000000
  0
VERTEX
  8
0
  6
CONTINUOUS
 10
6.624640
 20
3.543760
  0
VERTEX
  8
0
  6
CONTINUOUS
 10
6.617600
 20
4.293080
  0
VERTEX
  8
0
  6
CONTINUOUS
 10
6.680520
 20
4.237640
  0
VERTEX
  8
0
  6
CONTINUOUS
 10
6.688000
 20
3.488320
  0
VERTEX
  8
0
  6
CONTINUOUS
 10
6.624640
 20
3.543760
  0
SEQEND
  8
0
  0
SOLID
  8
0
 62
    15
 10
6.688000
 20
3.488320
 11
6.680520
 21
4.237640
 12
6.724960
 22
3.466320
 13
6.717920
 23
4.215200
  0
POLYLINE
  8
0
  6
CONTINUOUS
 66
     1
 40
0.000000
 41
0.000000
  0
VERTEX
  8
0
  6
CONTINUOUS
 10
6.688000
 20
3.488320
  0
VERTEX
  8
0
  6
CONTINUOUS
 10
6.680520
 20
4.237640
  0
VERTEX
  8
0
  6
CONTINUOUS
 10
6.717920
 20
4.215200
  0
VERTEX
  8
0
  6
CONTINUOUS
 10
6.724960
 20
3.466320
  0
VERTEX
  8
0
  6
CONTINUOUS
 10
6.688000
 20
3.488320
  0
SEQEND
  8
0
  0
SOLID
  8
0
 62
    15
 10
6.724960
 20
3.466320
 11
6.717920
 21
4.215200
 12
6.767200
 22
3.449160
 13
6.760160
 23
4.198480
  0
POLYLINE
  8
0
  6
CONTINUOUS
 66
     1
 40
0.000000
 41
0.000000
  0
VERTEX
  8
0
  6
CONTINUOUS
 10
6.724960
 20
3.466320
  0
VERTEX
  8
0
  6
CONTINUOUS
 10
6.717920
 20
4.215200
  0
VERTEX
  8
0
  6
CONTINUOUS
 10
6.760160
 20
4.198480
  0
VERTEX
  8
0
  6
CONTINUOUS
 10
6.767200
 20
3.449160
  0
VERTEX
  8
0
  6
CONTINUOUS
 10
6.724960
 20
3.466320
  0
SEQEND
  8
0
  0
SOLID
  8
0
 62
    15
 10
6.767200
 20
3.449160
 11
6.760160
 21
4.198480
 12
6.815160
 22
3.438160
 13
6.808120
 23
4.187480
  0
POLYLINE
  8
0
  6
CONTINUOUS
 66
     1
 40
0.000000
 41
0.000000
  0
VERTEX
  8
0
  6
CONTINUOUS
 10
6.767200
 20
3.449160
  0
VERTEX
  8
0
  6
CONTINUOUS
 10
6.760160
 20
4.198480
  0
VERTEX
  8
0
  6
CONTINUOUS
 10
6.808120
 20
4.187480
  0
VERTEX
  8
0
  6
CONTINUOUS
 10
6.815160
 20
3.438160
  0
VERTEX
  8
0
  6
CONTINUOUS
 10
6.767200
 20
3.449160
  0
SEQEND
  8
0
  0
SOLID
  8
0
 62
    15
 10
6.815160
 20
3.438160
 11
6.808120
 21
4.187480
 12
6.870600
 22
3.434200
 13
6.863120
 23
4.183520
  0
POLYLINE
  8
0
  6
CONTINUOUS
 66
     1
 40
0.000000
 41
0.000000
  0
VERTEX
  8
0
  6
CONTINUOUS
 10
6.815160
 20
3.438160
  0
VERTEX
  8
0
  6
CONTINUOUS
 10
6.808120
 20
4.187480
  0
VERTEX
  8
0
  6
CONTINUOUS
 10
6.863120
 20
4.183520
  0
VERTEX
  8
0
  6
CONTINUOUS
 10
6.870600
 20
3.434200
  0
VERTEX
  8
0
  6
CONTINUOUS
 10
6.815160
 20
3.438160
  0
SEQEND
  8
0
  0
POLYLINE
  8
0
  6
CONTINUOUS
 66
     1
 40
0.000000
 41
0.000000
  0
VERTEX
  8
0
  6
CONTINUOUS
 10
6.870600
 20
3.274480
  0
VERTEX
  8
0
  6
CONTINUOUS
 10
1.877920
 20
3.274480
  0
VERTEX
  8
0
  6
CONTINUOUS
 10
1.877920
 20
4.513080
  0
VERTEX
  8
0
  6
CONTINUOUS
 10
2.334640
 20
4.513080
  0
VERTEX
  8
0
  6
CONTINUOUS
 10
2.333760
 20
4.512640
  0
VERTEX
  8
0
  6
CONTINUOUS
 10
2.334640
 20
4.411000
  0
VERTEX
  8
0
  6
CONTINUOUS
 10
2.440240
 20
4.411000
  0
VERTEX
  8
0
  6
CONTINUOUS
 10
2.459600
 20
4.447960
  0
VERTEX
  8
0
  6
CONTINUOUS
 10
2.485120
 20
4.477000
  0
VERTEX
  8
0
  6
CONTINUOUS
 10
2.517680
 20
4.497680
  0
VERTEX
  8
0
  6
CONTINUOUS
 10
2.557720
 20
4.507800
  0
VERTEX
  8
0
  6
CONTINUOUS
 10
2.604800
 20
4.506480
  0
VERTEX
  8
0
  6
CONTINUOUS
 10
2.660680
 20
4.491960
  0
VERTEX
  8
0
  6
CONTINUOUS
 10
2.724480
 20
4.463360
  0
VERTEX
  8
0
  6
CONTINUOUS
 10
2.871880
 20
4.373600
  0
VERTEX
  8
0
  6
CONTINUOUS
 10
2.940080
 20
4.341480
  0
VERTEX
  8
0
  6
CONTINUOUS
 10
3.001240
 20
4.320360
  0
VERTEX
  8
0
  6
CONTINUOUS
 10
3.055360
 20
4.308040
  0
VERTEX
  8
0
  6
CONTINUOUS
 10
3.101560
 20
4.302320
  0
VERTEX
  8
0
  6
CONTINUOUS
 10
3.139400
 20
4.301000
  0
VERTEX
  8
0
  6
CONTINUOUS
 10
3.187360
 20
4.303640
  0
VERTEX
  8
0
  6
CONTINUOUS
 10
3.204520
 20
4.300120
  0
VERTEX
  8
0
  6
CONTINUOUS
 10
3.209800
 20
4.288680
  0
VERTEX
  8
0
  6
CONTINUOUS
 10
3.218600
 20
4.244680
  0
VERTEX
  8
0
  6
CONTINUOUS
 10
3.249840
 20
4.244680
  0
VERTEX
  8
0
  6
CONTINUOUS
 10
3.258200
 20
4.281200
  0
VERTEX
  8
0
  6
CONTINUOUS
 10
3.280200
 20
4.307160
  0
VERTEX
  8
0
  6
CONTINUOUS
 10
3.311000
 20
4.322120
  0
VERTEX
  8
0
  6
CONTINUOUS
 10
3.346200
 20
4.326080
  0
VERTEX
  8
0
  6
CONTINUOUS
 10
3.381840
 20
4.318600
  0
VERTEX
  8
0
  6
CONTINUOUS
 10
3.412640
 20
4.299240
  0
VERTEX
  8
0
  6
CONTINUOUS
 10
3.434200
 20
4.268440
  0
VERTEX
  8
0
  6
CONTINUOUS
 10
3.442120
 20
4.225320
  0
VERTEX
  8
0
  6
CONTINUOUS
 10
3.442120
 20
4.175160
  0
VERTEX
  8
0
  6
CONTINUOUS
 10
3.514720
 20
4.175160
  0
VERTEX
  8
0
  6
CONTINUOUS
 10
3.516920
 20
4.161080
  0
VERTEX
  8
0
  6
CONTINUOUS
 10
3.524400
 20
4.143920
  0
VERTEX
  8
0
  6
CONTINUOUS
 10
3.537600
 20
4.125440
  0
VERTEX
  8
0
  6
CONTINUOUS
 10
3.557400
 20
4.106960
  0
VERTEX
  8
0
  6
CONTINUOUS
 10
3.584680
 20
4.089800
  0
VERTEX
  8
0
  6
CONTINUOUS
 10
3.619440
 20
4.075720
  0
VERTEX
  8
0
  6
CONTINUOUS
 10
3.663440
 20
4.066040
  0
VERTEX
  8
0
  6
CONTINUOUS
 10
3.716680
 20
4.062520
  0
VERTEX
  8
0
  6
CONTINUOUS
 10
3.716680
 20
3.952520
  0
VERTEX
  8
0
  6
CONTINUOUS
 10
5.127760
 20
3.952520
  0
VERTEX
  8
0
  6
CONTINUOUS
 10
5.127760
 20
3.863200
  0
VERTEX
  8
0
  6
CONTINUOUS
 10
6.281880
 20
3.863200
  0
VERTEX
  8
0
  6
CONTINUOUS
 10
6.281880
 20
3.780040
  0
VERTEX
  8
0
  6
CONTINUOUS
 10
6.334240
 20
3.776080
  0
VERTEX
  8
0
  6
CONTINUOUS
 10
6.379560
 20
3.765080
  0
VERTEX
  8
0
  6
CONTINUOUS
 10
6.419600
 20
3.748360
  0
VERTEX
  8
0
  6
CONTINUOUS
 10
6.455240
 20
3.725920
  0
VERTEX
  8
0
  6
CONTINUOUS
 10
6.515960
 20
3.670480
  0
VERTEX
  8
0
  6
CONTINUOUS
 10
6.624640
 20
3.543760
  0
VERTEX
  8
0
  6
CONTINUOUS
 10
6.688000
 20
3.488320
  0
VERTEX
  8
0
  6
CONTINUOUS
 10
6.724960
 20
3.466320
  0
VERTEX
  8
0
  6
CONTINUOUS
 10
6.767200
 20
3.449160
  0
VERTEX
  8
0
  6
CONTINUOUS
 10
6.815160
 20
3.438160
  0
VERTEX
  8
0
  6
CONTINUOUS
 10
6.870600
 20
3.434200
  0
VERTEX
  8
0
  6
CONTINUOUS
 10
6.871480
 20
3.276680
  0
VERTEX
  8
0
  6
CONTINUOUS
 10
6.870600
 20
3.274480
  0
SEQEND
  8
0
  0
TEXT
  8
0
 10
3.918200
 20
3.003000
 40
0.138211
  1
BA  1019
 41
1.000000
  7
SN0
 71
     0
 72
     5
 11
4.602173
 21
3.003000
  0
TEXT
  8
0
 10
3.918200
 20
2.811160
 40
0.138211
  1
1-1/4" x 5"
 41
1.000000
  7
SN0
 71
     0
 72
     5
 11
4.682317
 21
2.811160
  0
POLYLINE
  8
0
  6
CONTINUOUS
 66
     1
 40
0.014080
 41
0.014080
  0
VERTEX
  8
0
  6
CONTINUOUS
 10
6.867960
 20
5.481080
  0
VERTEX
  8
0
  6
CONTINUOUS
 10
6.866640
 20
5.638600
  0
VERTEX
  8
0
  6
CONTINUOUS
 10
6.838040
 20
5.639480
  0
VERTEX
  8
0
  6
CONTINUOUS
 10
6.811640
 20
5.642560
  0
VERTEX
  8
0
  6
CONTINUOUS
 10
6.786560
 20
5.646960
  0
VERTEX
  8
0
  6
CONTINUOUS
 10
6.741680
 20
5.661480
  0
VERTEX
  8
0
  6
CONTINUOUS
 10
6.702080
 20
5.680840
  0
VERTEX
  8
0
  6
CONTINUOUS
 10
6.667320
 20
5.705480
  0
VERTEX
  8
0
  6
CONTINUOUS
 10
6.635640
 20
5.733200
  0
VERTEX
  8
0
  6
CONTINUOUS
 10
6.592960
 20
5.779400
  0
VERTEX
  8
0
  6
CONTINUOUS
 10
6.512440
 20
5.874880
  0
VERTEX
  8
0
  6
CONTINUOUS
 10
6.483400
 20
5.904360
  0
VERTEX
  8
0
  6
CONTINUOUS
 10
6.451720
 20
5.930320
  0
VERTEX
  8
0
  6
CONTINUOUS
 10
6.434560
 20
5.942200
  0
VERTEX
  8
0
  6
CONTINUOUS
 10
6.396720
 20
5.961560
  0
VERTEX
  8
0
  6
CONTINUOUS
 10
6.354040
 20
5.976080
  0
VERTEX
  8
0
  6
CONTINUOUS
 10
6.330720
 20
5.980480
  0
VERTEX
  8
0
  6
CONTINUOUS
 10
6.305200
 20
5.983560
  0
VERTEX
  8
0
  6
CONTINUOUS
 10
6.278360
 20
5.984440
  0
VERTEX
  8
0
  6
CONTINUOUS
 10
6.278360
 20
6.067600
  0
VERTEX
  8
0
  6
CONTINUOUS
 10
5.124240
 20
6.067600
  0
VERTEX
  8
0
  6
CONTINUOUS
 10
5.124240
 20
6.156920
  0
VERTEX
  8
0
  6
CONTINUOUS
 10
3.713160
 20
6.156920
  0
VERTEX
  8
0
  6
CONTINUOUS
 10
3.713160
 20
6.266920
  0
VERTEX
  8
0
  6
CONTINUOUS
 10
3.672240
 20
6.269120
  0
VERTEX
  8
0
  6
CONTINUOUS
 10
3.637040
 20
6.274400
  0
VERTEX
  8
0
  6
CONTINUOUS
 10
3.597440
 20
6.286720
  0
VERTEX
  8
0
  6
CONTINUOUS
 10
3.566640
 20
6.302560
  0
VERTEX
  8
0
  6
CONTINUOUS
 10
3.543320
 20
6.320600
  0
VERTEX
  8
0
  6
CONTINUOUS
 10
3.526600
 20
6.339080
  0
VERTEX
  8
0
  6
CONTINUOUS
 10
3.516480
 20
6.357120
  0
VERTEX
  8
0
  6
CONTINUOUS
 10
3.511640
 20
6.372960
  0
VERTEX
  8
0
  6
CONTINUOUS
 10
3.511200
 20
6.379560
  0
VERTEX
  8
0
  6
CONTINUOUS
 10
3.438600
 20
6.379560
  0
VERTEX
  8
0
  6
CONTINUOUS
 10
3.438160
 20
6.441600
  0
VERTEX
  8
0
  6
CONTINUOUS
 10
3.434200
 20
6.463160
  0
VERTEX
  8
0
  6
CONTINUOUS
 10
3.426280
 20
6.481640
  0
VERTEX
  8
0
  6
CONTINUOUS
 10
3.409120
 20
6.503640
  0
VERTEX
  8
0
  6
CONTINUOUS
 10
3.394600
 20
6.514640
  0
VERTEX
  8
0
  6
CONTINUOUS
 10
3.369520
 20
6.526080
  0
VERTEX
  8
0
  6
CONTINUOUS
 10
3.342680
 20
6.530480
  0
VERTEX
  8
0
  6
CONTINUOUS
 10
3.324640
 20
6.530040
  0
VERTEX
  8
0
  6
CONTINUOUS
 10
3.299120
 20
6.523880
  0
VERTEX
  8
0
  6
CONTINUOUS
 10
3.276680
 20
6.511560
  0
VERTEX
  8
0
  6
CONTINUOUS
 10
3.264360
 20
6.500120
  0
VERTEX
  8
0
  6
CONTINUOUS
 10
3.254680
 20
6.485600
  0
VERTEX
  8
0
  6
CONTINUOUS
 10
3.248520
 20
6.468880
  0
VERTEX
  8
0
  6
CONTINUOUS
 10
3.246320
 20
6.449080
  0
VERTEX
  8
0
  6
CONTINUOUS
 10
3.215080
 20
6.449080
  0
VERTEX
  8
0
  6
CONTINUOUS
 10
3.204960
 20
6.500120
  0
VERTEX
  8
0
  6
CONTINUOUS
 10
3.197480
 20
6.506280
  0
VERTEX
  8
0
  6
CONTINUOUS
 10
3.183840
 20
6.508040
  0
VERTEX
  8
0
  6
CONTINUOUS
 10
3.135880
 20
6.505400
  0
VERTEX
  8
0
  6
CONTINUOUS
 10
3.098040
 20
6.506720
  0
VERTEX
  8
0
  6
CONTINUOUS
 10
3.051840
 20
6.512000
  0
VERTEX
  8
0
  6
CONTINUOUS
 10
2.998160
 20
6.524320
  0
VERTEX
  8
0
  6
CONTINUOUS
 10
2.936560
 20
6.545440
  0
VERTEX
  8
0
  6
CONTINUOUS
 10
2.885960
 20
6.568760
  0
VERTEX
  8
0
  6
CONTINUOUS
 10
2.831840
 20
6.598680
  0
VERTEX
  8
0
  6
CONTINUOUS
 10
2.756600
 20
6.647520
  0
VERTEX
  8
0
  6
CONTINUOUS
 10
2.704240
 20
6.676560
  0
VERTEX
  8
0
  6
CONTINUOUS
 10
2.657160
 20
6.696360
  0
VERTEX
  8
0
  6
CONTINUOUS
 10
2.614480
 20
6.708240
  0
VERTEX
  8
0
  6
CONTINUOUS
 10
2.588960
 20
6.712200
  0
VERTEX
  8
0
  6
CONTINUOUS
 10
2.565200
 20
6.713080
  0
VERTEX
  8
0
  6
CONTINUOUS
 10
2.543200
 20
6.710440
  0
VERTEX
  8
0
  6
CONTINUOUS
 10
2.523400
 20
6.705600
  0
VERTEX
  8
0
  6
CONTINUOUS
 10
2.497000
 20
6.692840
  0
VERTEX
  8
0
  6
CONTINUOUS
 10
2.474560
 20
6.674800
  0
VERTEX
  8
0
  6
CONTINUOUS
 10
2.456080
 20
6.651920
  0
VERTEX
  8
0
  6
CONTINUOUS
 10
2.445520
 20
6.634760
  0
VERTEX
  8
0
  6
CONTINUOUS
 10
2.436720
 20
6.615400
  0
VERTEX
  8
0
  6
CONTINUOUS
 10
2.330680
 20
6.615400
  0
VERTEX
  8
0
  6
CONTINUOUS
 10
2.329800
 20
6.717040
  0
VERTEX
  8
0
  6
CONTINUOUS
 10
2.330680
 20
6.717480
  0
VERTEX
  8
0
  6
CONTINUOUS
 10
1.873960
 20
6.717480
  0
VERTEX
  8
0
  6
CONTINUOUS
 10
1.873960
 20
5.478880
  0
VERTEX
  8
0
  6
CONTINUOUS
 10
6.866640
 20
5.478880
  0
VERTEX
  8
0
  6
CONTINUOUS
 10
6.867960
 20
5.481080
  0
SEQEND
  8
0
  0
TEXT
  8
0
 10
3.918200
 20
5.755640
 40
0.138211
  1
BA  1019
 41
1.000000
  7
SN0
 71
     0
 72
     5
 11
4.602173
 21
5.755640
  0
TEXT
  8
0
 10
3.918200
 20
5.563800
 40
0.138211
  1
1-1/4" x 5"
 41
1.000000
  7
SN0
 71
     0
 72
     5
 11
4.682317
 21
5.563800
  0
TEXT
  8
0
 10
3.781360
 20
2.507560
 40
0.114563
  1
similar to 1348
 41
1.000000
  7
SN1
 71
     0
 72
     5
 11
4.674207
 21
2.507560
  0
ENDSEC
  0
EOF
