  0
SECTION
  2
HEADER
  9
$ACADVER
  1
AC1006
  9
$EXTMIN
 10
2.852960
 20
0.391600
  9
$EXTMAX
 10
8.173000
 20
3.999160
  9
$LTSCALE
 40
0.044000
  9
$PDMODE
 70
    35
  9
$PDSIZE
 40
0.035200
  0
ENDSEC
  0
SECTION
  2
TABLES
  0
TABLE
  2
LTYPE
 70
     9
  0
LTYPE
  2
CONTINUOUS
 70
    64
  3
Solid line
 72
    65
 73
     0
 40
0.000000
  0
LTYPE
  2
DASHED
 70
    64
  3
__ __ __ __ __ __ __ __ __ __ __ __ __ __ __
 72
    65
 73
     2
 40
0.000330
 49
0.000220
 49
-0.000110
  0
LTYPE
  2
HIDDEN
 70
    64
  3
 _ _ _ _ _ _ _ _ _ _ _ _ _ _ _ _ _ _ _ _ _ _
 72
    65
 73
     2
 40
0.000165
 49
0.000110
 49
-0.000055
  0
LTYPE
  2
CENTER
 70
    64
  3
____ _ ____ _ ____ _ ____ _ ____ _ ____ _ ____
 72
    65
 73
     4
 40
0.000880
 49
0.000550
 49
-0.000110
 49
0.000110
 49
-0.000110
  0
LTYPE
  2
PHANTOM
 70
    64
  3
_____ _ _ _____ _ _ _____ _ _ _____ _ _ ____
 72
    65
 73
     6
 40
0.001100
 49
0.000550
 49
-0.000110
 49
0.000110
 49
-0.000110
 49
0.000110
 49
-0.000110
  0
LTYPE
  2
DOT
 70
    64
  3
...............................................
 72
    65
 73
     2
 40
0.000110
 49
0.000000
 49
-0.000110
  0
LTYPE
  2
DASHDOT
 70
    64
  3
__ . __ . __ . __ . __ . __ . __ . __ . __ . __
 72
    65
 73
     4
 40
0.000440
 49
0.000220
 49
-0.000110
 49
0.000000
 49
-0.000110
  0
LTYPE
  2
BORDER
 70
    64
  3
__ __ . __ __ . __ __ . __ __ . __ __ . __ __
 72
    65
 73
     6
 40
0.000770
 49
0.000220
 49
-0.000110
 49
0.000220
 49
-0.000110
 49
0.000000
 49
-0.000110
  0
LTYPE
  2
DIVIDE
 70
    64
  3
__ . . __ . . __ . . __ . . __ . . __ . . __
 72
    65
 73
     6
 40
0.000550
 49
0.000220
 49
-0.000110
 49
0.000000
 49
-0.000110
 49
0.000000
 49
-0.000110
  0
LTYPE
  2
DOTDOT
 70
    64
  3
 . .  . .  . .  . .  . .  . . 
 72
    65
 73
     5
 40
0.000242
 49
-0.000110
 49
0.000000
 49
-0.000110
 49
0.000000
 49
-0.000110
  0
ENDTAB
  0
TABLE
  2
STYLE
 70
     2
  0
STYLE
 70
     0
  2
SN0
 40
0.000000
 41
0.000440
 50
0.000000
 71
     0
 42
0.000000
  3
ROMAND
  0
STYLE
 70
    68
  2
SV0
 40
0.000000
 41
0.000440
 50
0.000000
 71
     0
 42
0.000000
  3
ROMAND
  0
ENDTAB
  0
TABLE
  2
LAYER
 70
     3
  0
LAYER
  2
FOREGROUND
 70
    64
 62
     7
  6
CONTINUOUS
  0
LAYER
  2
BACKGROUND
 70
    65
 62
    -7
  6
CONTINUOUS
  0
LAYER
  2
0
 70
    64
 62
     7
  6
CONTINUOUS
  0
ENDTAB
  0
ENDSEC
  0
SECTION
  2
ENTITIES
  0
POLYLINE
  8
FOREGROUND
  6
CONTINUOUS
 66
     1
 40
0.000000
 41
0.000000
  0
VERTEX
  8
FOREGROUND
  6
CONTINUOUS
 10
0.000000
 20
4.390760
  0
VERTEX
  8
FOREGROUND
  6
CONTINUOUS
 10
8.499920
 20
4.390760
  0
VERTEX
  8
FOREGROUND
  6
CONTINUOUS
 10
8.499920
 20
-6.609240
  0
VERTEX
  8
FOREGROUND
  6
CONTINUOUS
 10
0.000000
 20
-6.609240
  0
VERTEX
  8
FOREGROUND
  6
CONTINUOUS
 10
0.000000
 20
4.390760
  0
SEQEND
  8
0
  0
POLYLINE
  8
FOREGROUND
  6
CONTINUOUS
 66
     1
 40
0.000000
 41
0.000000
  0
VERTEX
  8
FOREGROUND
  6
CONTINUOUS
 10
0.000000
 20
4.390760
  0
VERTEX
  8
FOREGROUND
  6
CONTINUOUS
 10
8.499920
 20
4.390760
  0
VERTEX
  8
FOREGROUND
  6
CONTINUOUS
 10
8.499920
 20
-6.609240
  0
VERTEX
  8
FOREGROUND
  6
CONTINUOUS
 10
0.000000
 20
-6.609240
  0
VERTEX
  8
FOREGROUND
  6
CONTINUOUS
 10
0.000000
 20
4.390760
  0
SEQEND
  8
0
  0
SOLID
  8
0
 62
    15
 10
3.223440
 20
1.484120
 11
3.975840
 21
1.485880
 12
3.255120
 22
1.457280
 13
4.007520
 23
1.459040
  0
POLYLINE
  8
0
  6
CONTINUOUS
 66
     1
 40
0.000000
 41
0.000000
  0
VERTEX
  8
0
  6
CONTINUOUS
 10
3.223440
 20
1.484120
  0
VERTEX
  8
0
  6
CONTINUOUS
 10
3.975840
 20
1.485880
  0
VERTEX
  8
0
  6
CONTINUOUS
 10
4.007520
 20
1.459040
  0
VERTEX
  8
0
  6
CONTINUOUS
 10
3.255120
 20
1.457280
  0
VERTEX
  8
0
  6
CONTINUOUS
 10
3.223440
 20
1.484120
  0
SEQEND
  8
0
  0
SOLID
  8
0
 62
    15
 10
3.506360
 20
3.619440
 11
4.258760
 21
3.621200
 12
3.560040
 22
3.611080
 13
4.312440
 23
3.613280
  0
POLYLINE
  8
0
  6
CONTINUOUS
 66
     1
 40
0.000000
 41
0.000000
  0
VERTEX
  8
0
  6
CONTINUOUS
 10
3.506360
 20
3.619440
  0
VERTEX
  8
0
  6
CONTINUOUS
 10
4.258760
 20
3.621200
  0
VERTEX
  8
0
  6
CONTINUOUS
 10
4.312440
 20
3.613280
  0
VERTEX
  8
0
  6
CONTINUOUS
 10
3.560040
 20
3.611080
  0
VERTEX
  8
0
  6
CONTINUOUS
 10
3.506360
 20
3.619440
  0
SEQEND
  8
0
  0
SOLID
  8
0
 62
    15
 10
3.609760
 20
3.599200
 11
4.362160
 21
3.601400
 12
3.655080
 22
3.584240
 13
4.407480
 23
3.586000
  0
POLYLINE
  8
0
  6
CONTINUOUS
 66
     1
 40
0.000000
 41
0.000000
  0
VERTEX
  8
0
  6
CONTINUOUS
 10
3.609760
 20
3.599200
  0
VERTEX
  8
0
  6
CONTINUOUS
 10
4.362160
 20
3.601400
  0
VERTEX
  8
0
  6
CONTINUOUS
 10
4.407480
 20
3.586000
  0
VERTEX
  8
0
  6
CONTINUOUS
 10
3.655080
 20
3.584240
  0
VERTEX
  8
0
  6
CONTINUOUS
 10
3.609760
 20
3.599200
  0
SEQEND
  8
0
  0
SOLID
  8
0
 62
    15
 10
3.655080
 20
3.584240
 11
4.407480
 21
3.586000
 12
3.696880
 22
3.565320
 13
4.449280
 23
3.567520
  0
POLYLINE
  8
0
  6
CONTINUOUS
 66
     1
 40
0.000000
 41
0.000000
  0
VERTEX
  8
0
  6
CONTINUOUS
 10
3.655080
 20
3.584240
  0
VERTEX
  8
0
  6
CONTINUOUS
 10
4.407480
 20
3.586000
  0
VERTEX
  8
0
  6
CONTINUOUS
 10
4.449280
 20
3.567520
  0
VERTEX
  8
0
  6
CONTINUOUS
 10
3.696880
 20
3.565320
  0
VERTEX
  8
0
  6
CONTINUOUS
 10
3.655080
 20
3.584240
  0
SEQEND
  8
0
  0
SOLID
  8
0
 62
    15
 10
3.696880
 20
3.565320
 11
4.449280
 21
3.567520
 12
3.768600
 22
3.519560
 13
4.521000
 23
3.521320
  0
POLYLINE
  8
0
  6
CONTINUOUS
 66
     1
 40
0.000000
 41
0.000000
  0
VERTEX
  8
0
  6
CONTINUOUS
 10
3.696880
 20
3.565320
  0
VERTEX
  8
0
  6
CONTINUOUS
 10
4.449280
 20
3.567520
  0
VERTEX
  8
0
  6
CONTINUOUS
 10
4.521000
 20
3.521320
  0
VERTEX
  8
0
  6
CONTINUOUS
 10
3.768600
 20
3.519560
  0
VERTEX
  8
0
  6
CONTINUOUS
 10
3.696880
 20
3.565320
  0
SEQEND
  8
0
  0
SOLID
  8
0
 62
    15
 10
3.768600
 20
3.519560
 11
4.521000
 21
3.521320
 12
3.825800
 22
3.463680
 13
4.578200
 23
3.465440
  0
POLYLINE
  8
0
  6
CONTINUOUS
 66
     1
 40
0.000000
 41
0.000000
  0
VERTEX
  8
0
  6
CONTINUOUS
 10
3.768600
 20
3.519560
  0
VERTEX
  8
0
  6
CONTINUOUS
 10
4.521000
 20
3.521320
  0
VERTEX
  8
0
  6
CONTINUOUS
 10
4.578200
 20
3.465440
  0
VERTEX
  8
0
  6
CONTINUOUS
 10
3.825800
 20
3.463680
  0
VERTEX
  8
0
  6
CONTINUOUS
 10
3.768600
 20
3.519560
  0
SEQEND
  8
0
  0
SOLID
  8
0
 62
    15
 10
3.825800
 20
3.463680
 11
4.578200
 21
3.465440
 12
3.868040
 22
3.399880
 13
4.620440
 23
3.402080
  0
POLYLINE
  8
0
  6
CONTINUOUS
 66
     1
 40
0.000000
 41
0.000000
  0
VERTEX
  8
0
  6
CONTINUOUS
 10
3.825800
 20
3.463680
  0
VERTEX
  8
0
  6
CONTINUOUS
 10
4.578200
 20
3.465440
  0
VERTEX
  8
0
  6
CONTINUOUS
 10
4.620440
 20
3.402080
  0
VERTEX
  8
0
  6
CONTINUOUS
 10
3.868040
 20
3.399880
  0
VERTEX
  8
0
  6
CONTINUOUS
 10
3.825800
 20
3.463680
  0
SEQEND
  8
0
  0
SOLID
  8
0
 62
    15
 10
3.868040
 20
3.399880
 11
4.620440
 21
3.402080
 12
3.896640
 22
3.330360
 13
4.649040
 23
3.332560
  0
POLYLINE
  8
0
  6
CONTINUOUS
 66
     1
 40
0.000000
 41
0.000000
  0
VERTEX
  8
0
  6
CONTINUOUS
 10
3.868040
 20
3.399880
  0
VERTEX
  8
0
  6
CONTINUOUS
 10
4.620440
 20
3.402080
  0
VERTEX
  8
0
  6
CONTINUOUS
 10
4.649040
 20
3.332560
  0
VERTEX
  8
0
  6
CONTINUOUS
 10
3.896640
 20
3.330360
  0
VERTEX
  8
0
  6
CONTINUOUS
 10
3.868040
 20
3.399880
  0
SEQEND
  8
0
  0
SOLID
  8
0
 62
    15
 10
3.896640
 20
3.330360
 11
4.649040
 21
3.332560
 12
3.911600
 22
3.256880
 13
4.663560
 23
3.259080
  0
POLYLINE
  8
0
  6
CONTINUOUS
 66
     1
 40
0.000000
 41
0.000000
  0
VERTEX
  8
0
  6
CONTINUOUS
 10
3.896640
 20
3.330360
  0
VERTEX
  8
0
  6
CONTINUOUS
 10
4.649040
 20
3.332560
  0
VERTEX
  8
0
  6
CONTINUOUS
 10
4.663560
 20
3.259080
  0
VERTEX
  8
0
  6
CONTINUOUS
 10
3.911600
 20
3.256880
  0
VERTEX
  8
0
  6
CONTINUOUS
 10
3.896640
 20
3.330360
  0
SEQEND
  8
0
  0
SOLID
  8
0
 62
    15
 10
3.911600
 20
3.256880
 11
4.663560
 21
3.259080
 12
3.913360
 22
3.182080
 13
4.665320
 23
3.184280
  0
POLYLINE
  8
0
  6
CONTINUOUS
 66
     1
 40
0.000000
 41
0.000000
  0
VERTEX
  8
0
  6
CONTINUOUS
 10
3.911600
 20
3.256880
  0
VERTEX
  8
0
  6
CONTINUOUS
 10
4.663560
 20
3.259080
  0
VERTEX
  8
0
  6
CONTINUOUS
 10
4.665320
 20
3.184280
  0
VERTEX
  8
0
  6
CONTINUOUS
 10
3.913360
 20
3.182080
  0
VERTEX
  8
0
  6
CONTINUOUS
 10
3.911600
 20
3.256880
  0
SEQEND
  8
0
  0
SOLID
  8
0
 62
    15
 10
3.913360
 20
3.182080
 11
4.665320
 21
3.184280
 12
3.902360
 22
3.107720
 13
4.654760
 23
3.109480
  0
POLYLINE
  8
0
  6
CONTINUOUS
 66
     1
 40
0.000000
 41
0.000000
  0
VERTEX
  8
0
  6
CONTINUOUS
 10
3.913360
 20
3.182080
  0
VERTEX
  8
0
  6
CONTINUOUS
 10
4.665320
 20
3.184280
  0
VERTEX
  8
0
  6
CONTINUOUS
 10
4.654760
 20
3.109480
  0
VERTEX
  8
0
  6
CONTINUOUS
 10
3.902360
 20
3.107720
  0
VERTEX
  8
0
  6
CONTINUOUS
 10
3.913360
 20
3.182080
  0
SEQEND
  8
0
  0
SOLID
  8
0
 62
    15
 10
3.902360
 20
3.107720
 11
4.654760
 21
3.109480
 12
3.879040
 22
3.035560
 13
4.631440
 23
3.037760
  0
POLYLINE
  8
0
  6
CONTINUOUS
 66
     1
 40
0.000000
 41
0.000000
  0
VERTEX
  8
0
  6
CONTINUOUS
 10
3.902360
 20
3.107720
  0
VERTEX
  8
0
  6
CONTINUOUS
 10
4.654760
 20
3.109480
  0
VERTEX
  8
0
  6
CONTINUOUS
 10
4.631440
 20
3.037760
  0
VERTEX
  8
0
  6
CONTINUOUS
 10
3.879040
 20
3.035560
  0
VERTEX
  8
0
  6
CONTINUOUS
 10
3.902360
 20
3.107720
  0
SEQEND
  8
0
  0
SOLID
  8
0
 62
    15
 10
3.879040
 20
3.035560
 11
4.631440
 21
3.037760
 12
3.844280
 22
2.968240
 13
4.596680
 23
2.970000
  0
POLYLINE
  8
0
  6
CONTINUOUS
 66
     1
 40
0.000000
 41
0.000000
  0
VERTEX
  8
0
  6
CONTINUOUS
 10
3.879040
 20
3.035560
  0
VERTEX
  8
0
  6
CONTINUOUS
 10
4.631440
 20
3.037760
  0
VERTEX
  8
0
  6
CONTINUOUS
 10
4.596680
 20
2.970000
  0
VERTEX
  8
0
  6
CONTINUOUS
 10
3.844280
 20
2.968240
  0
VERTEX
  8
0
  6
CONTINUOUS
 10
3.879040
 20
3.035560
  0
SEQEND
  8
0
  0
SOLID
  8
0
 62
    15
 10
3.844280
 20
2.968240
 11
4.596680
 21
2.970000
 12
3.798520
 22
2.907080
 13
4.550920
 23
2.909280
  0
POLYLINE
  8
0
  6
CONTINUOUS
 66
     1
 40
0.000000
 41
0.000000
  0
VERTEX
  8
0
  6
CONTINUOUS
 10
3.844280
 20
2.968240
  0
VERTEX
  8
0
  6
CONTINUOUS
 10
4.596680
 20
2.970000
  0
VERTEX
  8
0
  6
CONTINUOUS
 10
4.550920
 20
2.909280
  0
VERTEX
  8
0
  6
CONTINUOUS
 10
3.798520
 20
2.907080
  0
VERTEX
  8
0
  6
CONTINUOUS
 10
3.844280
 20
2.968240
  0
SEQEND
  8
0
  0
SOLID
  8
0
 62
    15
 10
3.798520
 20
2.907080
 11
4.550920
 21
2.909280
 12
3.741760
 22
2.854720
 13
4.494160
 23
2.856920
  0
POLYLINE
  8
0
  6
CONTINUOUS
 66
     1
 40
0.000000
 41
0.000000
  0
VERTEX
  8
0
  6
CONTINUOUS
 10
3.798520
 20
2.907080
  0
VERTEX
  8
0
  6
CONTINUOUS
 10
4.550920
 20
2.909280
  0
VERTEX
  8
0
  6
CONTINUOUS
 10
4.494160
 20
2.856920
  0
VERTEX
  8
0
  6
CONTINUOUS
 10
3.741760
 20
2.854720
  0
VERTEX
  8
0
  6
CONTINUOUS
 10
3.798520
 20
2.907080
  0
SEQEND
  8
0
  0
SOLID
  8
0
 62
    15
 10
3.741760
 20
2.854720
 11
4.494160
 21
2.856920
 12
3.674440
 22
2.813360
 13
4.426840
 23
2.815120
  0
POLYLINE
  8
0
  6
CONTINUOUS
 66
     1
 40
0.000000
 41
0.000000
  0
VERTEX
  8
0
  6
CONTINUOUS
 10
3.741760
 20
2.854720
  0
VERTEX
  8
0
  6
CONTINUOUS
 10
4.494160
 20
2.856920
  0
VERTEX
  8
0
  6
CONTINUOUS
 10
4.426840
 20
2.815120
  0
VERTEX
  8
0
  6
CONTINUOUS
 10
3.674440
 20
2.813360
  0
VERTEX
  8
0
  6
CONTINUOUS
 10
3.741760
 20
2.854720
  0
SEQEND
  8
0
  0
SOLID
  8
0
 62
    15
 10
3.674440
 20
2.813360
 11
4.426840
 21
2.815120
 12
3.597440
 22
2.784320
 13
4.349840
 23
2.786520
  0
POLYLINE
  8
0
  6
CONTINUOUS
 66
     1
 40
0.000000
 41
0.000000
  0
VERTEX
  8
0
  6
CONTINUOUS
 10
3.674440
 20
2.813360
  0
VERTEX
  8
0
  6
CONTINUOUS
 10
4.426840
 20
2.815120
  0
VERTEX
  8
0
  6
CONTINUOUS
 10
4.349840
 20
2.786520
  0
VERTEX
  8
0
  6
CONTINUOUS
 10
3.597440
 20
2.784320
  0
VERTEX
  8
0
  6
CONTINUOUS
 10
3.674440
 20
2.813360
  0
SEQEND
  8
0
  0
SOLID
  8
0
 62
    15
 10
3.597440
 20
2.784320
 11
4.349840
 21
2.786520
 12
3.511200
 22
2.770240
 13
4.263600
 23
2.772440
  0
POLYLINE
  8
0
  6
CONTINUOUS
 66
     1
 40
0.000000
 41
0.000000
  0
VERTEX
  8
0
  6
CONTINUOUS
 10
3.597440
 20
2.784320
  0
VERTEX
  8
0
  6
CONTINUOUS
 10
4.349840
 20
2.786520
  0
VERTEX
  8
0
  6
CONTINUOUS
 10
4.263600
 20
2.772440
  0
VERTEX
  8
0
  6
CONTINUOUS
 10
3.511200
 20
2.770240
  0
VERTEX
  8
0
  6
CONTINUOUS
 10
3.597440
 20
2.784320
  0
SEQEND
  8
0
  0
SOLID
  8
0
 62
    15
 10
3.511200
 20
2.770240
 11
4.263600
 21
2.772440
 12
3.581160
 22
2.642640
 13
4.333560
 23
2.644400
  0
POLYLINE
  8
0
  6
CONTINUOUS
 66
     1
 40
0.000000
 41
0.000000
  0
VERTEX
  8
0
  6
CONTINUOUS
 10
3.511200
 20
2.770240
  0
VERTEX
  8
0
  6
CONTINUOUS
 10
4.263600
 20
2.772440
  0
VERTEX
  8
0
  6
CONTINUOUS
 10
4.333560
 20
2.644400
  0
VERTEX
  8
0
  6
CONTINUOUS
 10
3.581160
 20
2.642640
  0
VERTEX
  8
0
  6
CONTINUOUS
 10
3.511200
 20
2.770240
  0
SEQEND
  8
0
  0
SOLID
  8
0
 62
    15
 10
3.581160
 20
2.642640
 11
4.333560
 21
2.644400
 12
3.496240
 22
2.581480
 13
4.248640
 23
2.583240
  0
POLYLINE
  8
0
  6
CONTINUOUS
 66
     1
 40
0.000000
 41
0.000000
  0
VERTEX
  8
0
  6
CONTINUOUS
 10
3.581160
 20
2.642640
  0
VERTEX
  8
0
  6
CONTINUOUS
 10
4.333560
 20
2.644400
  0
VERTEX
  8
0
  6
CONTINUOUS
 10
4.248640
 20
2.583240
  0
VERTEX
  8
0
  6
CONTINUOUS
 10
3.496240
 20
2.581480
  0
VERTEX
  8
0
  6
CONTINUOUS
 10
3.581160
 20
2.642640
  0
SEQEND
  8
0
  0
SOLID
  8
0
 62
    15
 10
3.496240
 20
2.581480
 11
4.248640
 21
2.583240
 12
3.421440
 22
2.516360
 13
4.173840
 23
2.518120
  0
POLYLINE
  8
0
  6
CONTINUOUS
 66
     1
 40
0.000000
 41
0.000000
  0
VERTEX
  8
0
  6
CONTINUOUS
 10
3.496240
 20
2.581480
  0
VERTEX
  8
0
  6
CONTINUOUS
 10
4.248640
 20
2.583240
  0
VERTEX
  8
0
  6
CONTINUOUS
 10
4.173840
 20
2.518120
  0
VERTEX
  8
0
  6
CONTINUOUS
 10
3.421440
 20
2.516360
  0
VERTEX
  8
0
  6
CONTINUOUS
 10
3.496240
 20
2.581480
  0
SEQEND
  8
0
  0
SOLID
  8
0
 62
    15
 10
3.421440
 20
2.516360
 11
4.173840
 21
2.518120
 12
3.356320
 22
2.447720
 13
4.108720
 23
2.449920
  0
POLYLINE
  8
0
  6
CONTINUOUS
 66
     1
 40
0.000000
 41
0.000000
  0
VERTEX
  8
0
  6
CONTINUOUS
 10
3.421440
 20
2.516360
  0
VERTEX
  8
0
  6
CONTINUOUS
 10
4.173840
 20
2.518120
  0
VERTEX
  8
0
  6
CONTINUOUS
 10
4.108720
 20
2.449920
  0
VERTEX
  8
0
  6
CONTINUOUS
 10
3.356320
 20
2.447720
  0
VERTEX
  8
0
  6
CONTINUOUS
 10
3.421440
 20
2.516360
  0
SEQEND
  8
0
  0
SOLID
  8
0
 62
    15
 10
3.356320
 20
2.447720
 11
4.108720
 21
2.449920
 12
3.300440
 22
2.376440
 13
4.052840
 23
2.378640
  0
POLYLINE
  8
0
  6
CONTINUOUS
 66
     1
 40
0.000000
 41
0.000000
  0
VERTEX
  8
0
  6
CONTINUOUS
 10
3.356320
 20
2.447720
  0
VERTEX
  8
0
  6
CONTINUOUS
 10
4.108720
 20
2.449920
  0
VERTEX
  8
0
  6
CONTINUOUS
 10
4.052840
 20
2.378640
  0
VERTEX
  8
0
  6
CONTINUOUS
 10
3.300440
 20
2.376440
  0
VERTEX
  8
0
  6
CONTINUOUS
 10
3.356320
 20
2.447720
  0
SEQEND
  8
0
  0
SOLID
  8
0
 62
    15
 10
3.300440
 20
2.376440
 11
4.052840
 21
2.378640
 12
3.252920
 22
2.303400
 13
4.005320
 23
2.305160
  0
POLYLINE
  8
0
  6
CONTINUOUS
 66
     1
 40
0.000000
 41
0.000000
  0
VERTEX
  8
0
  6
CONTINUOUS
 10
3.300440
 20
2.376440
  0
VERTEX
  8
0
  6
CONTINUOUS
 10
4.052840
 20
2.378640
  0
VERTEX
  8
0
  6
CONTINUOUS
 10
4.005320
 20
2.305160
  0
VERTEX
  8
0
  6
CONTINUOUS
 10
3.252920
 20
2.303400
  0
VERTEX
  8
0
  6
CONTINUOUS
 10
3.300440
 20
2.376440
  0
SEQEND
  8
0
  0
SOLID
  8
0
 62
    15
 10
3.252920
 20
2.303400
 11
4.005320
 21
2.305160
 12
3.212880
 22
2.228160
 13
3.965280
 23
2.230360
  0
POLYLINE
  8
0
  6
CONTINUOUS
 66
     1
 40
0.000000
 41
0.000000
  0
VERTEX
  8
0
  6
CONTINUOUS
 10
3.252920
 20
2.303400
  0
VERTEX
  8
0
  6
CONTINUOUS
 10
4.005320
 20
2.305160
  0
VERTEX
  8
0
  6
CONTINUOUS
 10
3.965280
 20
2.230360
  0
VERTEX
  8
0
  6
CONTINUOUS
 10
3.212880
 20
2.228160
  0
VERTEX
  8
0
  6
CONTINUOUS
 10
3.252920
 20
2.303400
  0
SEQEND
  8
0
  0
SOLID
  8
0
 62
    15
 10
3.212880
 20
2.228160
 11
3.965280
 21
2.230360
 12
3.180320
 22
2.152480
 13
3.932720
 23
2.154680
  0
POLYLINE
  8
0
  6
CONTINUOUS
 66
     1
 40
0.000000
 41
0.000000
  0
VERTEX
  8
0
  6
CONTINUOUS
 10
3.212880
 20
2.228160
  0
VERTEX
  8
0
  6
CONTINUOUS
 10
3.965280
 20
2.230360
  0
VERTEX
  8
0
  6
CONTINUOUS
 10
3.932720
 20
2.154680
  0
VERTEX
  8
0
  6
CONTINUOUS
 10
3.180320
 20
2.152480
  0
VERTEX
  8
0
  6
CONTINUOUS
 10
3.212880
 20
2.228160
  0
SEQEND
  8
0
  0
SOLID
  8
0
 62
    15
 10
3.180320
 20
2.152480
 11
3.932720
 21
2.154680
 12
3.153920
 22
2.076360
 13
3.906320
 23
2.078120
  0
POLYLINE
  8
0
  6
CONTINUOUS
 66
     1
 40
0.000000
 41
0.000000
  0
VERTEX
  8
0
  6
CONTINUOUS
 10
3.180320
 20
2.152480
  0
VERTEX
  8
0
  6
CONTINUOUS
 10
3.932720
 20
2.154680
  0
VERTEX
  8
0
  6
CONTINUOUS
 10
3.906320
 20
2.078120
  0
VERTEX
  8
0
  6
CONTINUOUS
 10
3.153920
 20
2.076360
  0
VERTEX
  8
0
  6
CONTINUOUS
 10
3.180320
 20
2.152480
  0
SEQEND
  8
0
  0
SOLID
  8
0
 62
    15
 10
3.153920
 20
2.076360
 11
3.906320
 21
2.078120
 12
3.133240
 22
2.000240
 13
3.885640
 23
2.002000
  0
POLYLINE
  8
0
  6
CONTINUOUS
 66
     1
 40
0.000000
 41
0.000000
  0
VERTEX
  8
0
  6
CONTINUOUS
 10
3.153920
 20
2.076360
  0
VERTEX
  8
0
  6
CONTINUOUS
 10
3.906320
 20
2.078120
  0
VERTEX
  8
0
  6
CONTINUOUS
 10
3.885640
 20
2.002000
  0
VERTEX
  8
0
  6
CONTINUOUS
 10
3.133240
 20
2.000240
  0
VERTEX
  8
0
  6
CONTINUOUS
 10
3.153920
 20
2.076360
  0
SEQEND
  8
0
  0
SOLID
  8
0
 62
    15
 10
3.133240
 20
2.000240
 11
3.885640
 21
2.002000
 12
3.117840
 22
1.924560
 13
3.870240
 23
1.926760
  0
POLYLINE
  8
0
  6
CONTINUOUS
 66
     1
 40
0.000000
 41
0.000000
  0
VERTEX
  8
0
  6
CONTINUOUS
 10
3.133240
 20
2.000240
  0
VERTEX
  8
0
  6
CONTINUOUS
 10
3.885640
 20
2.002000
  0
VERTEX
  8
0
  6
CONTINUOUS
 10
3.870240
 20
1.926760
  0
VERTEX
  8
0
  6
CONTINUOUS
 10
3.117840
 20
1.924560
  0
VERTEX
  8
0
  6
CONTINUOUS
 10
3.133240
 20
2.000240
  0
SEQEND
  8
0
  0
SOLID
  8
0
 62
    15
 10
3.117840
 20
1.924560
 11
3.870240
 21
1.926760
 12
3.099360
 22
1.778920
 13
3.851760
 23
1.780680
  0
POLYLINE
  8
0
  6
CONTINUOUS
 66
     1
 40
0.000000
 41
0.000000
  0
VERTEX
  8
0
  6
CONTINUOUS
 10
3.117840
 20
1.924560
  0
VERTEX
  8
0
  6
CONTINUOUS
 10
3.870240
 20
1.926760
  0
VERTEX
  8
0
  6
CONTINUOUS
 10
3.851760
 20
1.780680
  0
VERTEX
  8
0
  6
CONTINUOUS
 10
3.099360
 20
1.778920
  0
VERTEX
  8
0
  6
CONTINUOUS
 10
3.117840
 20
1.924560
  0
SEQEND
  8
0
  0
SOLID
  8
0
 62
    15
 10
3.099360
 20
1.778920
 11
3.851760
 21
1.780680
 12
3.092760
 22
1.642960
 13
3.845160
 23
1.645160
  0
POLYLINE
  8
0
  6
CONTINUOUS
 66
     1
 40
0.000000
 41
0.000000
  0
VERTEX
  8
0
  6
CONTINUOUS
 10
3.099360
 20
1.778920
  0
VERTEX
  8
0
  6
CONTINUOUS
 10
3.851760
 20
1.780680
  0
VERTEX
  8
0
  6
CONTINUOUS
 10
3.845160
 20
1.645160
  0
VERTEX
  8
0
  6
CONTINUOUS
 10
3.092760
 20
1.642960
  0
VERTEX
  8
0
  6
CONTINUOUS
 10
3.099360
 20
1.778920
  0
SEQEND
  8
0
  0
SOLID
  8
0
 62
    15
 10
3.092760
 20
1.642960
 11
3.845160
 21
1.645160
 12
3.092760
 22
1.521960
 13
3.845160
 23
1.523720
  0
POLYLINE
  8
0
  6
CONTINUOUS
 66
     1
 40
0.000000
 41
0.000000
  0
VERTEX
  8
0
  6
CONTINUOUS
 10
3.092760
 20
1.642960
  0
VERTEX
  8
0
  6
CONTINUOUS
 10
3.845160
 20
1.645160
  0
VERTEX
  8
0
  6
CONTINUOUS
 10
3.845160
 20
1.523720
  0
VERTEX
  8
0
  6
CONTINUOUS
 10
3.092760
 20
1.521960
  0
VERTEX
  8
0
  6
CONTINUOUS
 10
3.092760
 20
1.642960
  0
SEQEND
  8
0
  0
SOLID
  8
0
 62
    15
 10
3.092760
 20
1.521960
 11
3.845160
 21
1.523720
 12
3.142040
 22
1.517560
 13
3.894440
 23
1.519760
  0
POLYLINE
  8
0
  6
CONTINUOUS
 66
     1
 40
0.000000
 41
0.000000
  0
VERTEX
  8
0
  6
CONTINUOUS
 10
3.092760
 20
1.521960
  0
VERTEX
  8
0
  6
CONTINUOUS
 10
3.845160
 20
1.523720
  0
VERTEX
  8
0
  6
CONTINUOUS
 10
3.894440
 20
1.519760
  0
VERTEX
  8
0
  6
CONTINUOUS
 10
3.142040
 20
1.517560
  0
VERTEX
  8
0
  6
CONTINUOUS
 10
3.092760
 20
1.521960
  0
SEQEND
  8
0
  0
SOLID
  8
0
 62
    15
 10
3.142040
 20
1.517560
 11
3.894440
 21
1.519760
 12
3.185600
 22
1.504360
 13
3.938000
 23
1.506560
  0
POLYLINE
  8
0
  6
CONTINUOUS
 66
     1
 40
0.000000
 41
0.000000
  0
VERTEX
  8
0
  6
CONTINUOUS
 10
3.142040
 20
1.517560
  0
VERTEX
  8
0
  6
CONTINUOUS
 10
3.894440
 20
1.519760
  0
VERTEX
  8
0
  6
CONTINUOUS
 10
3.938000
 20
1.506560
  0
VERTEX
  8
0
  6
CONTINUOUS
 10
3.185600
 20
1.504360
  0
VERTEX
  8
0
  6
CONTINUOUS
 10
3.142040
 20
1.517560
  0
SEQEND
  8
0
  0
SOLID
  8
0
 62
    15
 10
3.185600
 20
1.504360
 11
3.938000
 21
1.506560
 12
3.223440
 22
1.484120
 13
3.975840
 23
1.485880
  0
POLYLINE
  8
0
  6
CONTINUOUS
 66
     1
 40
0.000000
 41
0.000000
  0
VERTEX
  8
0
  6
CONTINUOUS
 10
3.185600
 20
1.504360
  0
VERTEX
  8
0
  6
CONTINUOUS
 10
3.938000
 20
1.506560
  0
VERTEX
  8
0
  6
CONTINUOUS
 10
3.975840
 20
1.485880
  0
VERTEX
  8
0
  6
CONTINUOUS
 10
3.223440
 20
1.484120
  0
VERTEX
  8
0
  6
CONTINUOUS
 10
3.185600
 20
1.504360
  0
SEQEND
  8
0
  0
SOLID
  8
0
 62
    15
 10
3.560040
 20
3.611080
 11
4.312440
 21
3.613280
 12
3.609760
 22
3.599200
 13
4.362160
 23
3.601400
  0
POLYLINE
  8
0
  6
CONTINUOUS
 66
     1
 40
0.000000
 41
0.000000
  0
VERTEX
  8
0
  6
CONTINUOUS
 10
3.560040
 20
3.611080
  0
VERTEX
  8
0
  6
CONTINUOUS
 10
4.312440
 20
3.613280
  0
VERTEX
  8
0
  6
CONTINUOUS
 10
4.362160
 20
3.601400
  0
VERTEX
  8
0
  6
CONTINUOUS
 10
3.609760
 20
3.599200
  0
VERTEX
  8
0
  6
CONTINUOUS
 10
3.560040
 20
3.611080
  0
SEQEND
  8
0
  0
SOLID
  8
0
 62
    15
 10
3.255120
 20
1.457280
 11
4.007520
 21
1.459040
 12
3.280640
 22
1.425160
 13
4.033040
 23
1.427360
  0
POLYLINE
  8
0
  6
CONTINUOUS
 66
     1
 40
0.000000
 41
0.000000
  0
VERTEX
  8
0
  6
CONTINUOUS
 10
3.255120
 20
1.457280
  0
VERTEX
  8
0
  6
CONTINUOUS
 10
4.007520
 20
1.459040
  0
VERTEX
  8
0
  6
CONTINUOUS
 10
4.033040
 20
1.427360
  0
VERTEX
  8
0
  6
CONTINUOUS
 10
3.280640
 20
1.425160
  0
VERTEX
  8
0
  6
CONTINUOUS
 10
3.255120
 20
1.457280
  0
SEQEND
  8
0
  0
SOLID
  8
0
 62
    15
 10
3.280640
 20
1.425160
 11
4.033040
 21
1.427360
 12
3.300000
 22
1.389520
 13
4.052400
 23
1.391720
  0
POLYLINE
  8
0
  6
CONTINUOUS
 66
     1
 40
0.000000
 41
0.000000
  0
VERTEX
  8
0
  6
CONTINUOUS
 10
3.280640
 20
1.425160
  0
VERTEX
  8
0
  6
CONTINUOUS
 10
4.033040
 20
1.427360
  0
VERTEX
  8
0
  6
CONTINUOUS
 10
4.052400
 20
1.391720
  0
VERTEX
  8
0
  6
CONTINUOUS
 10
3.300000
 20
1.389520
  0
VERTEX
  8
0
  6
CONTINUOUS
 10
3.280640
 20
1.425160
  0
SEQEND
  8
0
  0
SOLID
  8
0
 62
    15
 10
3.300000
 20
1.389520
 11
4.052400
 21
1.391720
 12
3.312760
 22
1.351240
 13
4.065160
 23
1.353000
  0
POLYLINE
  8
0
  6
CONTINUOUS
 66
     1
 40
0.000000
 41
0.000000
  0
VERTEX
  8
0
  6
CONTINUOUS
 10
3.300000
 20
1.389520
  0
VERTEX
  8
0
  6
CONTINUOUS
 10
4.052400
 20
1.391720
  0
VERTEX
  8
0
  6
CONTINUOUS
 10
4.065160
 20
1.353000
  0
VERTEX
  8
0
  6
CONTINUOUS
 10
3.312760
 20
1.351240
  0
VERTEX
  8
0
  6
CONTINUOUS
 10
3.300000
 20
1.389520
  0
SEQEND
  8
0
  0
SOLID
  8
0
 62
    15
 10
3.312760
 20
1.351240
 11
4.065160
 21
1.353000
 12
3.318920
 22
1.311200
 13
4.071320
 23
1.313400
  0
POLYLINE
  8
0
  6
CONTINUOUS
 66
     1
 40
0.000000
 41
0.000000
  0
VERTEX
  8
0
  6
CONTINUOUS
 10
3.312760
 20
1.351240
  0
VERTEX
  8
0
  6
CONTINUOUS
 10
4.065160
 20
1.353000
  0
VERTEX
  8
0
  6
CONTINUOUS
 10
4.071320
 20
1.313400
  0
VERTEX
  8
0
  6
CONTINUOUS
 10
3.318920
 20
1.311200
  0
VERTEX
  8
0
  6
CONTINUOUS
 10
3.312760
 20
1.351240
  0
SEQEND
  8
0
  0
SOLID
  8
0
 62
    15
 10
3.318920
 20
1.311200
 11
4.071320
 21
1.313400
 12
3.318040
 22
1.271160
 13
4.070440
 23
1.273360
  0
POLYLINE
  8
0
  6
CONTINUOUS
 66
     1
 40
0.000000
 41
0.000000
  0
VERTEX
  8
0
  6
CONTINUOUS
 10
3.318920
 20
1.311200
  0
VERTEX
  8
0
  6
CONTINUOUS
 10
4.071320
 20
1.313400
  0
VERTEX
  8
0
  6
CONTINUOUS
 10
4.070440
 20
1.273360
  0
VERTEX
  8
0
  6
CONTINUOUS
 10
3.318040
 20
1.271160
  0
VERTEX
  8
0
  6
CONTINUOUS
 10
3.318920
 20
1.311200
  0
SEQEND
  8
0
  0
SOLID
  8
0
 62
    15
 10
3.318040
 20
1.271160
 11
4.070440
 21
1.273360
 12
3.310560
 22
1.232000
 13
4.062960
 23
1.234200
  0
POLYLINE
  8
0
  6
CONTINUOUS
 66
     1
 40
0.000000
 41
0.000000
  0
VERTEX
  8
0
  6
CONTINUOUS
 10
3.318040
 20
1.271160
  0
VERTEX
  8
0
  6
CONTINUOUS
 10
4.070440
 20
1.273360
  0
VERTEX
  8
0
  6
CONTINUOUS
 10
4.062960
 20
1.234200
  0
VERTEX
  8
0
  6
CONTINUOUS
 10
3.310560
 20
1.232000
  0
VERTEX
  8
0
  6
CONTINUOUS
 10
3.318040
 20
1.271160
  0
SEQEND
  8
0
  0
SOLID
  8
0
 62
    15
 10
3.310560
 20
1.232000
 11
4.062960
 21
1.234200
 12
3.295600
 22
1.195040
 13
4.048000
 23
1.197240
  0
POLYLINE
  8
0
  6
CONTINUOUS
 66
     1
 40
0.000000
 41
0.000000
  0
VERTEX
  8
0
  6
CONTINUOUS
 10
3.310560
 20
1.232000
  0
VERTEX
  8
0
  6
CONTINUOUS
 10
4.062960
 20
1.234200
  0
VERTEX
  8
0
  6
CONTINUOUS
 10
4.048000
 20
1.197240
  0
VERTEX
  8
0
  6
CONTINUOUS
 10
3.295600
 20
1.195040
  0
VERTEX
  8
0
  6
CONTINUOUS
 10
3.310560
 20
1.232000
  0
SEQEND
  8
0
  0
SOLID
  8
0
 62
    15
 10
3.295600
 20
1.195040
 11
4.048000
 21
1.197240
 12
3.273160
 22
1.161600
 13
4.025560
 23
1.163360
  0
POLYLINE
  8
0
  6
CONTINUOUS
 66
     1
 40
0.000000
 41
0.000000
  0
VERTEX
  8
0
  6
CONTINUOUS
 10
3.295600
 20
1.195040
  0
VERTEX
  8
0
  6
CONTINUOUS
 10
4.048000
 20
1.197240
  0
VERTEX
  8
0
  6
CONTINUOUS
 10
4.025560
 20
1.163360
  0
VERTEX
  8
0
  6
CONTINUOUS
 10
3.273160
 20
1.161600
  0
VERTEX
  8
0
  6
CONTINUOUS
 10
3.295600
 20
1.195040
  0
SEQEND
  8
0
  0
SOLID
  8
0
 62
    15
 10
3.273160
 20
1.161600
 11
4.025560
 21
1.163360
 12
3.243680
 22
1.132560
 13
3.995640
 23
1.134320
  0
POLYLINE
  8
0
  6
CONTINUOUS
 66
     1
 40
0.000000
 41
0.000000
  0
VERTEX
  8
0
  6
CONTINUOUS
 10
3.273160
 20
1.161600
  0
VERTEX
  8
0
  6
CONTINUOUS
 10
4.025560
 20
1.163360
  0
VERTEX
  8
0
  6
CONTINUOUS
 10
3.995640
 20
1.134320
  0
VERTEX
  8
0
  6
CONTINUOUS
 10
3.243680
 20
1.132560
  0
VERTEX
  8
0
  6
CONTINUOUS
 10
3.273160
 20
1.161600
  0
SEQEND
  8
0
  0
SOLID
  8
0
 62
    15
 10
3.243680
 20
1.132560
 11
3.995640
 21
1.134320
 12
3.205840
 22
1.109240
 13
3.958240
 23
1.111440
  0
POLYLINE
  8
0
  6
CONTINUOUS
 66
     1
 40
0.000000
 41
0.000000
  0
VERTEX
  8
0
  6
CONTINUOUS
 10
3.243680
 20
1.132560
  0
VERTEX
  8
0
  6
CONTINUOUS
 10
3.995640
 20
1.134320
  0
VERTEX
  8
0
  6
CONTINUOUS
 10
3.958240
 20
1.111440
  0
VERTEX
  8
0
  6
CONTINUOUS
 10
3.205840
 20
1.109240
  0
VERTEX
  8
0
  6
CONTINUOUS
 10
3.243680
 20
1.132560
  0
SEQEND
  8
0
  0
SOLID
  8
0
 62
    15
 10
3.107280
 20
1.084600
 11
3.859680
 21
1.086800
 12
3.102440
 22
1.043240
 13
3.854400
 23
1.045000
  0
POLYLINE
  8
0
  6
CONTINUOUS
 66
     1
 40
0.000000
 41
0.000000
  0
VERTEX
  8
0
  6
CONTINUOUS
 10
3.107280
 20
1.084600
  0
VERTEX
  8
0
  6
CONTINUOUS
 10
3.859680
 20
1.086800
  0
VERTEX
  8
0
  6
CONTINUOUS
 10
3.854400
 20
1.045000
  0
VERTEX
  8
0
  6
CONTINUOUS
 10
3.102440
 20
1.043240
  0
VERTEX
  8
0
  6
CONTINUOUS
 10
3.107280
 20
1.084600
  0
SEQEND
  8
0
  0
SOLID
  8
0
 62
    15
 10
3.160520
 20
1.092960
 11
3.912920
 21
1.095160
 12
3.107280
 22
1.084600
 13
3.859680
 23
1.086800
  0
POLYLINE
  8
0
  6
CONTINUOUS
 66
     1
 40
0.000000
 41
0.000000
  0
VERTEX
  8
0
  6
CONTINUOUS
 10
3.160520
 20
1.092960
  0
VERTEX
  8
0
  6
CONTINUOUS
 10
3.912920
 20
1.095160
  0
VERTEX
  8
0
  6
CONTINUOUS
 10
3.859680
 20
1.086800
  0
VERTEX
  8
0
  6
CONTINUOUS
 10
3.107280
 20
1.084600
  0
VERTEX
  8
0
  6
CONTINUOUS
 10
3.160520
 20
1.092960
  0
SEQEND
  8
0
  0
SOLID
  8
0
 62
    15
 10
3.205840
 20
1.109240
 11
3.958240
 21
1.111440
 12
3.160520
 22
1.092960
 13
3.912920
 23
1.095160
  0
POLYLINE
  8
0
  6
CONTINUOUS
 66
     1
 40
0.000000
 41
0.000000
  0
VERTEX
  8
0
  6
CONTINUOUS
 10
3.205840
 20
1.109240
  0
VERTEX
  8
0
  6
CONTINUOUS
 10
3.958240
 20
1.111440
  0
VERTEX
  8
0
  6
CONTINUOUS
 10
3.912920
 20
1.095160
  0
VERTEX
  8
0
  6
CONTINUOUS
 10
3.160520
 20
1.092960
  0
VERTEX
  8
0
  6
CONTINUOUS
 10
3.205840
 20
1.109240
  0
SEQEND
  8
0
  0
SOLID
  8
0
 62
    15
 10
3.102440
 20
1.043240
 11
3.854400
 21
1.045000
 12
3.091440
 22
1.005400
 13
3.843400
 23
1.007600
  0
POLYLINE
  8
0
  6
CONTINUOUS
 66
     1
 40
0.000000
 41
0.000000
  0
VERTEX
  8
0
  6
CONTINUOUS
 10
3.102440
 20
1.043240
  0
VERTEX
  8
0
  6
CONTINUOUS
 10
3.854400
 20
1.045000
  0
VERTEX
  8
0
  6
CONTINUOUS
 10
3.843400
 20
1.007600
  0
VERTEX
  8
0
  6
CONTINUOUS
 10
3.091440
 20
1.005400
  0
VERTEX
  8
0
  6
CONTINUOUS
 10
3.102440
 20
1.043240
  0
SEQEND
  8
0
  0
SOLID
  8
0
 62
    15
 10
3.091440
 20
1.005400
 11
3.843400
 21
1.007600
 12
3.074720
 22
0.972400
 13
3.827120
 23
0.974600
  0
POLYLINE
  8
0
  6
CONTINUOUS
 66
     1
 40
0.000000
 41
0.000000
  0
VERTEX
  8
0
  6
CONTINUOUS
 10
3.091440
 20
1.005400
  0
VERTEX
  8
0
  6
CONTINUOUS
 10
3.843400
 20
1.007600
  0
VERTEX
  8
0
  6
CONTINUOUS
 10
3.827120
 20
0.974600
  0
VERTEX
  8
0
  6
CONTINUOUS
 10
3.074720
 20
0.972400
  0
VERTEX
  8
0
  6
CONTINUOUS
 10
3.091440
 20
1.005400
  0
SEQEND
  8
0
  0
SOLID
  8
0
 62
    15
 10
3.074720
 20
0.972400
 11
3.827120
 21
0.974600
 12
3.052720
 22
0.944240
 13
3.805120
 23
0.946000
  0
POLYLINE
  8
0
  6
CONTINUOUS
 66
     1
 40
0.000000
 41
0.000000
  0
VERTEX
  8
0
  6
CONTINUOUS
 10
3.074720
 20
0.972400
  0
VERTEX
  8
0
  6
CONTINUOUS
 10
3.827120
 20
0.974600
  0
VERTEX
  8
0
  6
CONTINUOUS
 10
3.805120
 20
0.946000
  0
VERTEX
  8
0
  6
CONTINUOUS
 10
3.052720
 20
0.944240
  0
VERTEX
  8
0
  6
CONTINUOUS
 10
3.074720
 20
0.972400
  0
SEQEND
  8
0
  0
SOLID
  8
0
 62
    15
 10
3.052720
 20
0.944240
 11
3.805120
 21
0.946000
 12
3.026320
 22
0.921360
 13
3.778720
 23
0.923560
  0
POLYLINE
  8
0
  6
CONTINUOUS
 66
     1
 40
0.000000
 41
0.000000
  0
VERTEX
  8
0
  6
CONTINUOUS
 10
3.052720
 20
0.944240
  0
VERTEX
  8
0
  6
CONTINUOUS
 10
3.805120
 20
0.946000
  0
VERTEX
  8
0
  6
CONTINUOUS
 10
3.778720
 20
0.923560
  0
VERTEX
  8
0
  6
CONTINUOUS
 10
3.026320
 20
0.921360
  0
VERTEX
  8
0
  6
CONTINUOUS
 10
3.052720
 20
0.944240
  0
SEQEND
  8
0
  0
SOLID
  8
0
 62
    15
 10
3.026320
 20
0.921360
 11
3.778720
 21
0.923560
 12
2.995080
 22
0.904200
 13
3.747480
 23
0.906400
  0
POLYLINE
  8
0
  6
CONTINUOUS
 66
     1
 40
0.000000
 41
0.000000
  0
VERTEX
  8
0
  6
CONTINUOUS
 10
3.026320
 20
0.921360
  0
VERTEX
  8
0
  6
CONTINUOUS
 10
3.778720
 20
0.923560
  0
VERTEX
  8
0
  6
CONTINUOUS
 10
3.747480
 20
0.906400
  0
VERTEX
  8
0
  6
CONTINUOUS
 10
2.995080
 20
0.904200
  0
VERTEX
  8
0
  6
CONTINUOUS
 10
3.026320
 20
0.921360
  0
SEQEND
  8
0
  0
SOLID
  8
0
 62
    15
 10
2.959880
 20
0.893200
 11
3.712280
 21
0.895400
 12
2.921160
 22
0.888800
 13
3.673560
 23
0.891000
  0
POLYLINE
  8
0
  6
CONTINUOUS
 66
     1
 40
0.000000
 41
0.000000
  0
VERTEX
  8
0
  6
CONTINUOUS
 10
2.959880
 20
0.893200
  0
VERTEX
  8
0
  6
CONTINUOUS
 10
3.712280
 20
0.895400
  0
VERTEX
  8
0
  6
CONTINUOUS
 10
3.673560
 20
0.891000
  0
VERTEX
  8
0
  6
CONTINUOUS
 10
2.921160
 20
0.888800
  0
VERTEX
  8
0
  6
CONTINUOUS
 10
2.959880
 20
0.893200
  0
SEQEND
  8
0
  0
SOLID
  8
0
 62
    15
 10
2.995080
 20
0.904200
 11
3.747480
 21
0.906400
 12
2.959880
 22
0.893200
 13
3.712280
 23
0.895400
  0
POLYLINE
  8
0
  6
CONTINUOUS
 66
     1
 40
0.000000
 41
0.000000
  0
VERTEX
  8
0
  6
CONTINUOUS
 10
2.995080
 20
0.904200
  0
VERTEX
  8
0
  6
CONTINUOUS
 10
3.747480
 20
0.906400
  0
VERTEX
  8
0
  6
CONTINUOUS
 10
3.712280
 20
0.895400
  0
VERTEX
  8
0
  6
CONTINUOUS
 10
2.959880
 20
0.893200
  0
VERTEX
  8
0
  6
CONTINUOUS
 10
2.995080
 20
0.904200
  0
SEQEND
  8
0
  0
SOLID
  8
0
 62
    15
 10
2.853840
 20
3.996080
 11
3.605800
 21
3.998280
 12
2.897840
 22
3.994760
 13
3.650240
 23
3.996960
  0
POLYLINE
  8
0
  6
CONTINUOUS
 66
     1
 40
0.000000
 41
0.000000
  0
VERTEX
  8
0
  6
CONTINUOUS
 10
2.853840
 20
3.996080
  0
VERTEX
  8
0
  6
CONTINUOUS
 10
3.605800
 20
3.998280
  0
VERTEX
  8
0
  6
CONTINUOUS
 10
3.650240
 20
3.996960
  0
VERTEX
  8
0
  6
CONTINUOUS
 10
2.897840
 20
3.994760
  0
VERTEX
  8
0
  6
CONTINUOUS
 10
2.853840
 20
3.996080
  0
SEQEND
  8
0
  0
SOLID
  8
0
 62
    15
 10
2.897840
 20
3.994760
 11
3.650240
 21
3.996960
 12
2.937000
 22
3.989920
 13
3.689400
 23
3.992120
  0
POLYLINE
  8
0
  6
CONTINUOUS
 66
     1
 40
0.000000
 41
0.000000
  0
VERTEX
  8
0
  6
CONTINUOUS
 10
2.897840
 20
3.994760
  0
VERTEX
  8
0
  6
CONTINUOUS
 10
3.650240
 20
3.996960
  0
VERTEX
  8
0
  6
CONTINUOUS
 10
3.689400
 20
3.992120
  0
VERTEX
  8
0
  6
CONTINUOUS
 10
2.937000
 20
3.989920
  0
VERTEX
  8
0
  6
CONTINUOUS
 10
2.897840
 20
3.994760
  0
SEQEND
  8
0
  0
SOLID
  8
0
 62
    15
 10
2.937000
 20
3.989920
 11
3.689400
 21
3.992120
 12
3.003000
 22
3.972760
 13
3.755400
 23
3.974960
  0
POLYLINE
  8
0
  6
CONTINUOUS
 66
     1
 40
0.000000
 41
0.000000
  0
VERTEX
  8
0
  6
CONTINUOUS
 10
2.937000
 20
3.989920
  0
VERTEX
  8
0
  6
CONTINUOUS
 10
3.689400
 20
3.992120
  0
VERTEX
  8
0
  6
CONTINUOUS
 10
3.755400
 20
3.974960
  0
VERTEX
  8
0
  6
CONTINUOUS
 10
3.003000
 20
3.972760
  0
VERTEX
  8
0
  6
CONTINUOUS
 10
2.937000
 20
3.989920
  0
SEQEND
  8
0
  0
SOLID
  8
0
 62
    15
 10
3.003000
 20
3.972760
 11
3.755400
 21
3.974960
 12
3.054920
 22
3.946800
 13
3.807320
 23
3.949000
  0
POLYLINE
  8
0
  6
CONTINUOUS
 66
     1
 40
0.000000
 41
0.000000
  0
VERTEX
  8
0
  6
CONTINUOUS
 10
3.003000
 20
3.972760
  0
VERTEX
  8
0
  6
CONTINUOUS
 10
3.755400
 20
3.974960
  0
VERTEX
  8
0
  6
CONTINUOUS
 10
3.807320
 20
3.949000
  0
VERTEX
  8
0
  6
CONTINUOUS
 10
3.054920
 20
3.946800
  0
VERTEX
  8
0
  6
CONTINUOUS
 10
3.003000
 20
3.972760
  0
SEQEND
  8
0
  0
SOLID
  8
0
 62
    15
 10
3.054920
 20
3.946800
 11
3.807320
 21
3.949000
 12
3.097160
 22
3.914680
 13
3.849560
 23
3.916880
  0
POLYLINE
  8
0
  6
CONTINUOUS
 66
     1
 40
0.000000
 41
0.000000
  0
VERTEX
  8
0
  6
CONTINUOUS
 10
3.054920
 20
3.946800
  0
VERTEX
  8
0
  6
CONTINUOUS
 10
3.807320
 20
3.949000
  0
VERTEX
  8
0
  6
CONTINUOUS
 10
3.849560
 20
3.916880
  0
VERTEX
  8
0
  6
CONTINUOUS
 10
3.097160
 20
3.914680
  0
VERTEX
  8
0
  6
CONTINUOUS
 10
3.054920
 20
3.946800
  0
SEQEND
  8
0
  0
SOLID
  8
0
 62
    15
 10
3.097160
 20
3.914680
 11
3.849560
 21
3.916880
 12
3.165360
 22
3.842520
 13
3.917760
 23
3.844720
  0
POLYLINE
  8
0
  6
CONTINUOUS
 66
     1
 40
0.000000
 41
0.000000
  0
VERTEX
  8
0
  6
CONTINUOUS
 10
3.097160
 20
3.914680
  0
VERTEX
  8
0
  6
CONTINUOUS
 10
3.849560
 20
3.916880
  0
VERTEX
  8
0
  6
CONTINUOUS
 10
3.917760
 20
3.844720
  0
VERTEX
  8
0
  6
CONTINUOUS
 10
3.165360
 20
3.842520
  0
VERTEX
  8
0
  6
CONTINUOUS
 10
3.097160
 20
3.914680
  0
SEQEND
  8
0
  0
SOLID
  8
0
 62
    15
 10
3.165360
 20
3.842520
 11
3.917760
 21
3.844720
 12
3.198800
 22
3.808200
 13
3.951200
 23
3.809960
  0
POLYLINE
  8
0
  6
CONTINUOUS
 66
     1
 40
0.000000
 41
0.000000
  0
VERTEX
  8
0
  6
CONTINUOUS
 10
3.165360
 20
3.842520
  0
VERTEX
  8
0
  6
CONTINUOUS
 10
3.917760
 20
3.844720
  0
VERTEX
  8
0
  6
CONTINUOUS
 10
3.951200
 20
3.809960
  0
VERTEX
  8
0
  6
CONTINUOUS
 10
3.198800
 20
3.808200
  0
VERTEX
  8
0
  6
CONTINUOUS
 10
3.165360
 20
3.842520
  0
SEQEND
  8
0
  0
SOLID
  8
0
 62
    15
 10
3.198800
 20
3.808200
 11
3.951200
 21
3.809960
 12
3.237080
 22
3.777400
 13
3.989480
 23
3.779600
  0
POLYLINE
  8
0
  6
CONTINUOUS
 66
     1
 40
0.000000
 41
0.000000
  0
VERTEX
  8
0
  6
CONTINUOUS
 10
3.198800
 20
3.808200
  0
VERTEX
  8
0
  6
CONTINUOUS
 10
3.951200
 20
3.809960
  0
VERTEX
  8
0
  6
CONTINUOUS
 10
3.989480
 20
3.779600
  0
VERTEX
  8
0
  6
CONTINUOUS
 10
3.237080
 20
3.777400
  0
VERTEX
  8
0
  6
CONTINUOUS
 10
3.198800
 20
3.808200
  0
SEQEND
  8
0
  0
SOLID
  8
0
 62
    15
 10
3.237080
 20
3.777400
 11
3.989480
 21
3.779600
 12
3.277120
 22
3.752320
 13
4.029520
 23
3.754520
  0
POLYLINE
  8
0
  6
CONTINUOUS
 66
     1
 40
0.000000
 41
0.000000
  0
VERTEX
  8
0
  6
CONTINUOUS
 10
3.237080
 20
3.777400
  0
VERTEX
  8
0
  6
CONTINUOUS
 10
3.989480
 20
3.779600
  0
VERTEX
  8
0
  6
CONTINUOUS
 10
4.029520
 20
3.754520
  0
VERTEX
  8
0
  6
CONTINUOUS
 10
3.277120
 20
3.752320
  0
VERTEX
  8
0
  6
CONTINUOUS
 10
3.237080
 20
3.777400
  0
SEQEND
  8
0
  0
SOLID
  8
0
 62
    15
 10
3.277120
 20
3.752320
 11
4.029520
 21
3.754520
 12
3.314080
 22
3.731200
 13
4.066480
 23
3.733400
  0
POLYLINE
  8
0
  6
CONTINUOUS
 66
     1
 40
0.000000
 41
0.000000
  0
VERTEX
  8
0
  6
CONTINUOUS
 10
3.277120
 20
3.752320
  0
VERTEX
  8
0
  6
CONTINUOUS
 10
4.029520
 20
3.754520
  0
VERTEX
  8
0
  6
CONTINUOUS
 10
4.066480
 20
3.733400
  0
VERTEX
  8
0
  6
CONTINUOUS
 10
3.314080
 20
3.731200
  0
VERTEX
  8
0
  6
CONTINUOUS
 10
3.277120
 20
3.752320
  0
SEQEND
  8
0
  0
SOLID
  8
0
 62
    15
 10
3.314080
 20
3.731200
 11
4.066480
 21
3.733400
 12
3.381840
 22
3.701720
 13
4.134240
 23
3.703920
  0
POLYLINE
  8
0
  6
CONTINUOUS
 66
     1
 40
0.000000
 41
0.000000
  0
VERTEX
  8
0
  6
CONTINUOUS
 10
3.314080
 20
3.731200
  0
VERTEX
  8
0
  6
CONTINUOUS
 10
4.066480
 20
3.733400
  0
VERTEX
  8
0
  6
CONTINUOUS
 10
4.134240
 20
3.703920
  0
VERTEX
  8
0
  6
CONTINUOUS
 10
3.381840
 20
3.701720
  0
VERTEX
  8
0
  6
CONTINUOUS
 10
3.314080
 20
3.731200
  0
SEQEND
  8
0
  0
SOLID
  8
0
 62
    15
 10
3.381840
 20
3.701720
 11
4.134240
 21
3.703920
 12
3.443880
 22
3.687200
 13
4.196280
 23
3.689400
  0
POLYLINE
  8
0
  6
CONTINUOUS
 66
     1
 40
0.000000
 41
0.000000
  0
VERTEX
  8
0
  6
CONTINUOUS
 10
3.381840
 20
3.701720
  0
VERTEX
  8
0
  6
CONTINUOUS
 10
4.134240
 20
3.703920
  0
VERTEX
  8
0
  6
CONTINUOUS
 10
4.196280
 20
3.689400
  0
VERTEX
  8
0
  6
CONTINUOUS
 10
3.443880
 20
3.687200
  0
VERTEX
  8
0
  6
CONTINUOUS
 10
3.381840
 20
3.701720
  0
SEQEND
  8
0
  0
SOLID
  8
0
 62
    15
 10
3.443880
 20
3.687200
 11
4.196280
 21
3.689400
 12
3.504160
 22
3.686760
 13
4.256560
 23
3.688520
  0
POLYLINE
  8
0
  6
CONTINUOUS
 66
     1
 40
0.000000
 41
0.000000
  0
VERTEX
  8
0
  6
CONTINUOUS
 10
3.443880
 20
3.687200
  0
VERTEX
  8
0
  6
CONTINUOUS
 10
4.196280
 20
3.689400
  0
VERTEX
  8
0
  6
CONTINUOUS
 10
4.256560
 20
3.688520
  0
VERTEX
  8
0
  6
CONTINUOUS
 10
3.504160
 20
3.686760
  0
VERTEX
  8
0
  6
CONTINUOUS
 10
3.443880
 20
3.687200
  0
SEQEND
  8
0
  0
SOLID
  8
0
 62
    15
 10
3.504160
 20
3.686760
 11
4.256560
 21
3.688520
 12
3.504160
 22
3.619440
 13
4.256560
 23
3.621200
  0
POLYLINE
  8
0
  6
CONTINUOUS
 66
     1
 40
0.000000
 41
0.000000
  0
VERTEX
  8
0
  6
CONTINUOUS
 10
3.504160
 20
3.686760
  0
VERTEX
  8
0
  6
CONTINUOUS
 10
4.256560
 20
3.688520
  0
VERTEX
  8
0
  6
CONTINUOUS
 10
4.256560
 20
3.621200
  0
VERTEX
  8
0
  6
CONTINUOUS
 10
3.504160
 20
3.619440
  0
VERTEX
  8
0
  6
CONTINUOUS
 10
3.504160
 20
3.686760
  0
SEQEND
  8
0
  0
SOLID
  8
0
 62
    15
 10
3.504160
 20
3.619440
 11
4.256560
 21
3.621200
 12
3.506360
 22
3.619440
 13
4.258760
 23
3.621200
  0
POLYLINE
  8
0
  6
CONTINUOUS
 66
     1
 40
0.000000
 41
0.000000
  0
VERTEX
  8
0
  6
CONTINUOUS
 10
3.504160
 20
3.619440
  0
VERTEX
  8
0
  6
CONTINUOUS
 10
4.256560
 20
3.621200
  0
VERTEX
  8
0
  6
CONTINUOUS
 10
4.258760
 20
3.621200
  0
VERTEX
  8
0
  6
CONTINUOUS
 10
3.506360
 20
3.619440
  0
VERTEX
  8
0
  6
CONTINUOUS
 10
3.504160
 20
3.619440
  0
SEQEND
  8
0
  0
POLYLINE
  8
0
  6
CONTINUOUS
 66
     1
 40
0.000000
 41
0.000000
  0
VERTEX
  8
0
  6
CONTINUOUS
 10
3.506360
 20
3.619440
  0
VERTEX
  8
0
  6
CONTINUOUS
 10
3.560040
 20
3.611080
  0
VERTEX
  8
0
  6
CONTINUOUS
 10
3.609760
 20
3.599200
  0
VERTEX
  8
0
  6
CONTINUOUS
 10
3.655080
 20
3.584240
  0
VERTEX
  8
0
  6
CONTINUOUS
 10
3.696880
 20
3.565320
  0
VERTEX
  8
0
  6
CONTINUOUS
 10
3.768600
 20
3.519560
  0
VERTEX
  8
0
  6
CONTINUOUS
 10
3.825800
 20
3.463680
  0
VERTEX
  8
0
  6
CONTINUOUS
 10
3.868040
 20
3.399880
  0
VERTEX
  8
0
  6
CONTINUOUS
 10
3.896640
 20
3.330360
  0
VERTEX
  8
0
  6
CONTINUOUS
 10
3.911600
 20
3.256880
  0
VERTEX
  8
0
  6
CONTINUOUS
 10
3.913360
 20
3.182080
  0
VERTEX
  8
0
  6
CONTINUOUS
 10
3.902360
 20
3.107720
  0
VERTEX
  8
0
  6
CONTINUOUS
 10
3.879040
 20
3.035560
  0
VERTEX
  8
0
  6
CONTINUOUS
 10
3.844280
 20
2.968240
  0
VERTEX
  8
0
  6
CONTINUOUS
 10
3.798520
 20
2.907080
  0
VERTEX
  8
0
  6
CONTINUOUS
 10
3.741760
 20
2.854720
  0
VERTEX
  8
0
  6
CONTINUOUS
 10
3.674440
 20
2.813360
  0
VERTEX
  8
0
  6
CONTINUOUS
 10
3.597440
 20
2.784320
  0
VERTEX
  8
0
  6
CONTINUOUS
 10
3.511200
 20
2.770240
  0
VERTEX
  8
0
  6
CONTINUOUS
 10
3.581160
 20
2.642640
  0
VERTEX
  8
0
  6
CONTINUOUS
 10
3.496240
 20
2.581480
  0
VERTEX
  8
0
  6
CONTINUOUS
 10
3.421440
 20
2.516360
  0
VERTEX
  8
0
  6
CONTINUOUS
 10
3.356320
 20
2.447720
  0
VERTEX
  8
0
  6
CONTINUOUS
 10
3.300440
 20
2.376440
  0
VERTEX
  8
0
  6
CONTINUOUS
 10
3.252920
 20
2.303400
  0
VERTEX
  8
0
  6
CONTINUOUS
 10
3.212880
 20
2.228160
  0
VERTEX
  8
0
  6
CONTINUOUS
 10
3.180320
 20
2.152480
  0
VERTEX
  8
0
  6
CONTINUOUS
 10
3.153920
 20
2.076360
  0
VERTEX
  8
0
  6
CONTINUOUS
 10
3.133240
 20
2.000240
  0
VERTEX
  8
0
  6
CONTINUOUS
 10
3.117840
 20
1.924560
  0
VERTEX
  8
0
  6
CONTINUOUS
 10
3.099360
 20
1.778920
  0
VERTEX
  8
0
  6
CONTINUOUS
 10
3.092760
 20
1.642960
  0
VERTEX
  8
0
  6
CONTINUOUS
 10
3.092760
 20
1.521960
  0
VERTEX
  8
0
  6
CONTINUOUS
 10
3.142040
 20
1.517560
  0
VERTEX
  8
0
  6
CONTINUOUS
 10
3.185600
 20
1.504360
  0
VERTEX
  8
0
  6
CONTINUOUS
 10
3.223440
 20
1.484120
  0
VERTEX
  8
0
  6
CONTINUOUS
 10
3.255120
 20
1.457280
  0
VERTEX
  8
0
  6
CONTINUOUS
 10
3.280640
 20
1.425160
  0
VERTEX
  8
0
  6
CONTINUOUS
 10
3.300000
 20
1.389520
  0
VERTEX
  8
0
  6
CONTINUOUS
 10
3.312760
 20
1.351240
  0
VERTEX
  8
0
  6
CONTINUOUS
 10
3.318920
 20
1.311200
  0
VERTEX
  8
0
  6
CONTINUOUS
 10
3.318040
 20
1.271160
  0
VERTEX
  8
0
  6
CONTINUOUS
 10
3.310560
 20
1.232000
  0
VERTEX
  8
0
  6
CONTINUOUS
 10
3.295600
 20
1.195040
  0
VERTEX
  8
0
  6
CONTINUOUS
 10
3.273160
 20
1.161600
  0
VERTEX
  8
0
  6
CONTINUOUS
 10
3.243680
 20
1.132560
  0
VERTEX
  8
0
  6
CONTINUOUS
 10
3.205840
 20
1.109240
  0
VERTEX
  8
0
  6
CONTINUOUS
 10
3.160520
 20
1.092960
  0
VERTEX
  8
0
  6
CONTINUOUS
 10
3.107280
 20
1.084600
  0
VERTEX
  8
0
  6
CONTINUOUS
 10
3.102440
 20
1.043240
  0
VERTEX
  8
0
  6
CONTINUOUS
 10
3.091440
 20
1.005400
  0
VERTEX
  8
0
  6
CONTINUOUS
 10
3.074720
 20
0.972400
  0
VERTEX
  8
0
  6
CONTINUOUS
 10
3.052720
 20
0.944240
  0
VERTEX
  8
0
  6
CONTINUOUS
 10
3.026320
 20
0.921360
  0
VERTEX
  8
0
  6
CONTINUOUS
 10
2.995080
 20
0.904200
  0
VERTEX
  8
0
  6
CONTINUOUS
 10
2.959880
 20
0.893200
  0
VERTEX
  8
0
  6
CONTINUOUS
 10
2.921160
 20
0.888800
  0
VERTEX
  8
0
  6
CONTINUOUS
 10
2.853840
 20
0.888800
  0
VERTEX
  8
0
  6
CONTINUOUS
 10
2.853840
 20
3.996080
  0
VERTEX
  8
0
  6
CONTINUOUS
 10
2.897840
 20
3.994760
  0
VERTEX
  8
0
  6
CONTINUOUS
 10
2.937000
 20
3.989920
  0
VERTEX
  8
0
  6
CONTINUOUS
 10
3.003000
 20
3.972760
  0
VERTEX
  8
0
  6
CONTINUOUS
 10
3.054920
 20
3.946800
  0
VERTEX
  8
0
  6
CONTINUOUS
 10
3.097160
 20
3.914680
  0
VERTEX
  8
0
  6
CONTINUOUS
 10
3.198800
 20
3.808200
  0
VERTEX
  8
0
  6
CONTINUOUS
 10
3.237080
 20
3.777400
  0
VERTEX
  8
0
  6
CONTINUOUS
 10
3.314080
 20
3.731200
  0
VERTEX
  8
0
  6
CONTINUOUS
 10
3.381840
 20
3.701720
  0
VERTEX
  8
0
  6
CONTINUOUS
 10
3.443880
 20
3.687200
  0
VERTEX
  8
0
  6
CONTINUOUS
 10
3.504160
 20
3.686760
  0
VERTEX
  8
0
  6
CONTINUOUS
 10
3.504160
 20
3.619440
  0
VERTEX
  8
0
  6
CONTINUOUS
 10
3.506360
 20
3.619440
  0
SEQEND
  8
0
  0
TEXT
  8
0
 10
3.417480
 20
0.627880
 40
0.138260
  1
BA  1018
 41
1.000000
  7
SN0
 71
     0
 72
     5
 11
4.100839
 21
0.627880
  0
TEXT
  8
0
 10
3.187800
 20
0.436040
 40
0.138260
  1
1-1/16" x 3-1/8"
 41
1.000000
  7
SN0
 71
     0
 72
     5
 11
4.328949
 21
0.436040
  0
POLYLINE
  8
0
  6
CONTINUOUS
 66
     1
 40
0.014080
 41
0.014080
  0
VERTEX
  8
0
  6
CONTINUOUS
 10
5.435320
 20
2.385680
  0
VERTEX
  8
0
  6
CONTINUOUS
 10
5.443240
 20
2.439360
  0
VERTEX
  8
0
  6
CONTINUOUS
 10
5.455120
 20
2.488640
  0
VERTEX
  8
0
  6
CONTINUOUS
 10
5.470520
 20
2.534400
  0
VERTEX
  8
0
  6
CONTINUOUS
 10
5.489000
 20
2.576200
  0
VERTEX
  8
0
  6
CONTINUOUS
 10
5.511000
 20
2.614040
  0
VERTEX
  8
0
  6
CONTINUOUS
 10
5.535200
 20
2.647920
  0
VERTEX
  8
0
  6
CONTINUOUS
 10
5.562040
 20
2.678280
  0
VERTEX
  8
0
  6
CONTINUOUS
 10
5.591080
 20
2.704680
  0
VERTEX
  8
0
  6
CONTINUOUS
 10
5.621880
 20
2.728000
  0
VERTEX
  8
0
  6
CONTINUOUS
 10
5.654880
 20
2.747360
  0
VERTEX
  8
0
  6
CONTINUOUS
 10
5.688760
 20
2.763200
  0
VERTEX
  8
0
  6
CONTINUOUS
 10
5.742440
 20
2.780800
  0
VERTEX
  8
0
  6
CONTINUOUS
 10
5.778960
 20
2.788280
  0
VERTEX
  8
0
  6
CONTINUOUS
 10
5.816360
 20
2.792240
  0
VERTEX
  8
0
  6
CONTINUOUS
 10
5.853760
 20
2.793120
  0
VERTEX
  8
0
  6
CONTINUOUS
 10
5.891160
 20
2.790920
  0
VERTEX
  8
0
  6
CONTINUOUS
 10
5.947040
 20
2.781680
  0
VERTEX
  8
0
  6
CONTINUOUS
 10
5.983560
 20
2.771560
  0
VERTEX
  8
0
  6
CONTINUOUS
 10
6.036360
 20
2.750880
  0
VERTEX
  8
0
  6
CONTINUOUS
 10
6.086520
 20
2.723600
  0
VERTEX
  8
0
  6
CONTINUOUS
 10
6.132720
 20
2.690160
  0
VERTEX
  8
0
  6
CONTINUOUS
 10
6.161320
 20
2.664640
  0
VERTEX
  8
0
  6
CONTINUOUS
 10
6.187720
 20
2.636040
  0
VERTEX
  8
0
  6
CONTINUOUS
 10
6.222040
 20
2.588520
  0
VERTEX
  8
0
  6
CONTINUOUS
 10
6.241400
 20
2.553760
  0
VERTEX
  8
0
  6
CONTINUOUS
 10
6.257240
 20
2.516360
  0
VERTEX
  8
0
  6
CONTINUOUS
 10
6.270000
 20
2.476760
  0
VERTEX
  8
0
  6
CONTINUOUS
 10
6.279240
 20
2.434960
  0
VERTEX
  8
0
  6
CONTINUOUS
 10
6.284080
 20
2.390520
  0
VERTEX
  8
0
  6
CONTINUOUS
 10
6.412120
 20
2.460480
  0
VERTEX
  8
0
  6
CONTINUOUS
 10
6.457440
 20
2.395360
  0
VERTEX
  8
0
  6
CONTINUOUS
 10
6.505400
 20
2.336400
  0
VERTEX
  8
0
  6
CONTINUOUS
 10
6.555120
 20
2.283160
  0
VERTEX
  8
0
  6
CONTINUOUS
 10
6.607040
 20
2.235640
  0
VERTEX
  8
0
  6
CONTINUOUS
 10
6.642240
 20
2.206160
  0
VERTEX
  8
0
  6
CONTINUOUS
 10
6.677880
 20
2.179320
  0
VERTEX
  8
0
  6
CONTINUOUS
 10
6.751360
 20
2.131800
  0
VERTEX
  8
0
  6
CONTINUOUS
 10
6.826160
 20
2.092200
  0
VERTEX
  8
0
  6
CONTINUOUS
 10
6.864000
 20
2.075040
  0
VERTEX
  8
0
  6
CONTINUOUS
 10
6.940120
 20
2.045560
  0
VERTEX
  8
0
  6
CONTINUOUS
 10
7.016680
 20
2.022240
  0
VERTEX
  8
0
  6
CONTINUOUS
 10
7.092360
 20
2.004200
  0
VERTEX
  8
0
  6
CONTINUOUS
 10
7.167160
 20
1.991000
  0
VERTEX
  8
0
  6
CONTINUOUS
 10
7.240200
 20
1.981760
  0
VERTEX
  8
0
  6
CONTINUOUS
 10
7.311040
 20
1.975600
  0
VERTEX
  8
0
  6
CONTINUOUS
 10
7.411800
 20
1.971640
  0
VERTEX
  8
0
  6
CONTINUOUS
 10
7.532800
 20
1.972080
  0
VERTEX
  8
0
  6
CONTINUOUS
 10
7.533680
 20
1.997600
  0
VERTEX
  8
0
  6
CONTINUOUS
 10
7.539840
 20
2.032800
  0
VERTEX
  8
0
  6
CONTINUOUS
 10
7.550400
 20
2.064920
  0
VERTEX
  8
0
  6
CONTINUOUS
 10
7.559640
 20
2.084720
  0
VERTEX
  8
0
  6
CONTINUOUS
 10
7.570640
 20
2.102760
  0
VERTEX
  8
0
  6
CONTINUOUS
 10
7.583400
 20
2.119480
  0
VERTEX
  8
0
  6
CONTINUOUS
 10
7.597480
 20
2.134440
  0
VERTEX
  8
0
  6
CONTINUOUS
 10
7.612880
 20
2.148080
  0
VERTEX
  8
0
  6
CONTINUOUS
 10
7.647200
 20
2.170520
  0
VERTEX
  8
0
  6
CONTINUOUS
 10
7.684160
 20
2.186800
  0
VERTEX
  8
0
  6
CONTINUOUS
 10
7.723320
 20
2.196040
  0
VERTEX
  8
0
  6
CONTINUOUS
 10
7.743560
 20
2.198240
  0
VERTEX
  8
0
  6
CONTINUOUS
 10
7.763800
 20
2.198680
  0
VERTEX
  8
0
  6
CONTINUOUS
 10
7.803400
 20
2.194720
  0
VERTEX
  8
0
  6
CONTINUOUS
 10
7.822760
 20
2.189880
  0
VERTEX
  8
0
  6
CONTINUOUS
 10
7.841680
 20
2.183280
  0
VERTEX
  8
0
  6
CONTINUOUS
 10
7.859720
 20
2.174920
  0
VERTEX
  8
0
  6
CONTINUOUS
 10
7.876880
 20
2.164800
  0
VERTEX
  8
0
  6
CONTINUOUS
 10
7.893160
 20
2.152480
  0
VERTEX
  8
0
  6
CONTINUOUS
 10
7.908560
 20
2.138400
  0
VERTEX
  8
0
  6
CONTINUOUS
 10
7.922200
 20
2.122560
  0
VERTEX
  8
0
  6
CONTINUOUS
 10
7.940240
 20
2.095280
  0
VERTEX
  8
0
  6
CONTINUOUS
 10
7.954320
 20
2.063600
  0
VERTEX
  8
0
  6
CONTINUOUS
 10
7.964440
 20
2.027520
  0
VERTEX
  8
0
  6
CONTINUOUS
 10
7.969720
 20
1.986600
  0
VERTEX
  8
0
  6
CONTINUOUS
 10
7.991280
 20
1.984840
  0
VERTEX
  8
0
  6
CONTINUOUS
 10
8.030880
 20
1.976920
  0
VERTEX
  8
0
  6
CONTINUOUS
 10
8.066520
 20
1.962840
  0
VERTEX
  8
0
  6
CONTINUOUS
 10
8.082360
 20
1.954040
  0
VERTEX
  8
0
  6
CONTINUOUS
 10
8.110520
 20
1.932040
  0
VERTEX
  8
0
  6
CONTINUOUS
 10
8.122840
 20
1.919280
  0
VERTEX
  8
0
  6
CONTINUOUS
 10
8.133400
 20
1.905640
  0
VERTEX
  8
0
  6
CONTINUOUS
 10
8.142640
 20
1.890680
  0
VERTEX
  8
0
  6
CONTINUOUS
 10
8.150560
 20
1.874400
  0
VERTEX
  8
0
  6
CONTINUOUS
 10
8.161560
 20
1.839200
  0
VERTEX
  8
0
  6
CONTINUOUS
 10
8.164640
 20
1.820280
  0
VERTEX
  8
0
  6
CONTINUOUS
 10
8.165960
 20
1.800480
  0
VERTEX
  8
0
  6
CONTINUOUS
 10
8.165960
 20
1.732720
  0
VERTEX
  8
0
  6
CONTINUOUS
 10
5.058240
 20
1.732720
  0
VERTEX
  8
0
  6
CONTINUOUS
 10
5.060000
 20
1.776720
  0
VERTEX
  8
0
  6
CONTINUOUS
 10
5.064400
 20
1.816320
  0
VERTEX
  8
0
  6
CONTINUOUS
 10
5.071880
 20
1.851080
  0
VERTEX
  8
0
  6
CONTINUOUS
 10
5.087720
 20
1.896400
  0
VERTEX
  8
0
  6
CONTINUOUS
 10
5.107960
 20
1.934240
  0
VERTEX
  8
0
  6
CONTINUOUS
 10
5.123360
 20
1.956240
  0
VERTEX
  8
0
  6
CONTINUOUS
 10
5.140080
 20
1.976480
  0
VERTEX
  8
0
  6
CONTINUOUS
 10
5.175720
 20
2.012120
  0
VERTEX
  8
0
  6
CONTINUOUS
 10
5.246560
 20
2.078120
  0
VERTEX
  8
0
  6
CONTINUOUS
 10
5.276920
 20
2.116400
  0
VERTEX
  8
0
  6
CONTINUOUS
 10
5.313440
 20
2.175360
  0
VERTEX
  8
0
  6
CONTINUOUS
 10
5.340280
 20
2.228160
  0
VERTEX
  8
0
  6
CONTINUOUS
 10
5.357880
 20
2.277000
  0
VERTEX
  8
0
  6
CONTINUOUS
 10
5.365360
 20
2.307800
  0
VERTEX
  8
0
  6
CONTINUOUS
 10
5.368880
 20
2.338160
  0
VERTEX
  8
0
  6
CONTINUOUS
 10
5.368880
 20
2.368080
  0
VERTEX
  8
0
  6
CONTINUOUS
 10
5.368000
 20
2.383480
  0
VERTEX
  8
0
  6
CONTINUOUS
 10
5.435320
 20
2.383480
  0
VERTEX
  8
0
  6
CONTINUOUS
 10
5.435320
 20
2.385680
  0
SEQEND
  8
0
  0
TEXT
  8
0
 10
5.724840
 20
2.024000
 40
0.138260
  1
BA  1018
 41
1.000000
  7
SN0
 71
     0
 72
     5
 11
6.408199
 21
2.024000
  0
TEXT
  8
0
 10
5.495160
 20
1.832600
 40
0.138260
  1
1-1/16" x 3-1/8"
 41
1.000000
  7
SN0
 71
     0
 72
     5
 11
6.636309
 21
1.832600
  0
ENDSEC
  0
EOF
