  0
SECTION
  2
HEADER
  9
$ACADVER
  1
AC1006
  9
$EXTMIN
 10
2.688400
 20
0.319880
  9
$EXTMAX
 10
8.088960
 20
3.898400
  9
$LTSCALE
 40
0.044000
  9
$PDMODE
 70
    35
  9
$PDSIZE
 40
0.035200
  0
ENDSEC
  0
SECTION
  2
TABLES
  0
TABLE
  2
LTYPE
 70
     9
  0
LTYPE
  2
CONTINUOUS
 70
    64
  3
Solid line
 72
    65
 73
     0
 40
0.000000
  0
LTYPE
  2
DASHED
 70
    64
  3
__ __ __ __ __ __ __ __ __ __ __ __ __ __ __
 72
    65
 73
     2
 40
0.000330
 49
0.000220
 49
-0.000110
  0
LTYPE
  2
HIDDEN
 70
    64
  3
 _ _ _ _ _ _ _ _ _ _ _ _ _ _ _ _ _ _ _ _ _ _
 72
    65
 73
     2
 40
0.000165
 49
0.000110
 49
-0.000055
  0
LTYPE
  2
CENTER
 70
    64
  3
____ _ ____ _ ____ _ ____ _ ____ _ ____ _ ____
 72
    65
 73
     4
 40
0.000880
 49
0.000550
 49
-0.000110
 49
0.000110
 49
-0.000110
  0
LTYPE
  2
PHANTOM
 70
    64
  3
_____ _ _ _____ _ _ _____ _ _ _____ _ _ ____
 72
    65
 73
     6
 40
0.001100
 49
0.000550
 49
-0.000110
 49
0.000110
 49
-0.000110
 49
0.000110
 49
-0.000110
  0
LTYPE
  2
DOT
 70
    64
  3
...............................................
 72
    65
 73
     2
 40
0.000110
 49
0.000000
 49
-0.000110
  0
LTYPE
  2
DASHDOT
 70
    64
  3
__ . __ . __ . __ . __ . __ . __ . __ . __ . __
 72
    65
 73
     4
 40
0.000440
 49
0.000220
 49
-0.000110
 49
0.000000
 49
-0.000110
  0
LTYPE
  2
BORDER
 70
    64
  3
__ __ . __ __ . __ __ . __ __ . __ __ . __ __
 72
    65
 73
     6
 40
0.000770
 49
0.000220
 49
-0.000110
 49
0.000220
 49
-0.000110
 49
0.000000
 49
-0.000110
  0
LTYPE
  2
DIVIDE
 70
    64
  3
__ . . __ . . __ . . __ . . __ . . __ . . __
 72
    65
 73
     6
 40
0.000550
 49
0.000220
 49
-0.000110
 49
0.000000
 49
-0.000110
 49
0.000000
 49
-0.000110
  0
LTYPE
  2
DOTDOT
 70
    64
  3
 . .  . .  . .  . .  . .  . . 
 72
    65
 73
     5
 40
0.000242
 49
-0.000110
 49
0.000000
 49
-0.000110
 49
0.000000
 49
-0.000110
  0
ENDTAB
  0
TABLE
  2
STYLE
 70
     2
  0
STYLE
 70
     0
  2
SN0
 40
0.000000
 41
0.000440
 50
0.000000
 71
     0
 42
0.000000
  3
ROMAND
  0
STYLE
 70
    68
  2
SV0
 40
0.000000
 41
0.000440
 50
0.000000
 71
     0
 42
0.000000
  3
ROMAND
  0
ENDTAB
  0
TABLE
  2
LAYER
 70
     3
  0
LAYER
  2
FOREGROUND
 70
    64
 62
     7
  6
CONTINUOUS
  0
LAYER
  2
BACKGROUND
 70
    65
 62
    -7
  6
CONTINUOUS
  0
LAYER
  2
0
 70
    64
 62
     7
  6
CONTINUOUS
  0
ENDTAB
  0
ENDSEC
  0
SECTION
  2
ENTITIES
  0
POLYLINE
  8
FOREGROUND
  6
CONTINUOUS
 66
     1
 40
0.000000
 41
0.000000
  0
VERTEX
  8
FOREGROUND
  6
CONTINUOUS
 10
0.000000
 20
4.218280
  0
VERTEX
  8
FOREGROUND
  6
CONTINUOUS
 10
8.499920
 20
4.218280
  0
VERTEX
  8
FOREGROUND
  6
CONTINUOUS
 10
8.499920
 20
-6.781720
  0
VERTEX
  8
FOREGROUND
  6
CONTINUOUS
 10
0.000000
 20
-6.781720
  0
VERTEX
  8
FOREGROUND
  6
CONTINUOUS
 10
0.000000
 20
4.218280
  0
SEQEND
  8
0
  0
POLYLINE
  8
FOREGROUND
  6
CONTINUOUS
 66
     1
 40
0.000000
 41
0.000000
  0
VERTEX
  8
FOREGROUND
  6
CONTINUOUS
 10
0.000000
 20
4.218280
  0
VERTEX
  8
FOREGROUND
  6
CONTINUOUS
 10
8.499920
 20
4.218280
  0
VERTEX
  8
FOREGROUND
  6
CONTINUOUS
 10
8.499920
 20
-6.781720
  0
VERTEX
  8
FOREGROUND
  6
CONTINUOUS
 10
0.000000
 20
-6.781720
  0
VERTEX
  8
FOREGROUND
  6
CONTINUOUS
 10
0.000000
 20
4.218280
  0
SEQEND
  8
0
  0
POLYLINE
  8
0
  6
CONTINUOUS
 66
     1
 40
0.014080
 41
0.014080
  0
VERTEX
  8
0
  6
CONTINUOUS
 10
7.328640
 20
3.868040
  0
VERTEX
  8
0
  6
CONTINUOUS
 10
7.684600
 20
3.868040
  0
VERTEX
  8
0
  6
CONTINUOUS
 10
7.684600
 20
3.772120
  0
VERTEX
  8
0
  6
CONTINUOUS
 10
7.727720
 20
3.767280
  0
VERTEX
  8
0
  6
CONTINUOUS
 10
7.768200
 20
3.758040
  0
VERTEX
  8
0
  6
CONTINUOUS
 10
7.806920
 20
3.745280
  0
VERTEX
  8
0
  6
CONTINUOUS
 10
7.843440
 20
3.729000
  0
VERTEX
  8
0
  6
CONTINUOUS
 10
7.877760
 20
3.709640
  0
VERTEX
  8
0
  6
CONTINUOUS
 10
7.924400
 20
3.674440
  0
VERTEX
  8
0
  6
CONTINUOUS
 10
7.952560
 20
3.647600
  0
VERTEX
  8
0
  6
CONTINUOUS
 10
7.989520
 20
3.603600
  0
VERTEX
  8
0
  6
CONTINUOUS
 10
8.011080
 20
3.571480
  0
VERTEX
  8
0
  6
CONTINUOUS
 10
8.030000
 20
3.537600
  0
VERTEX
  8
0
  6
CONTINUOUS
 10
8.053320
 20
3.484360
  0
VERTEX
  8
0
  6
CONTINUOUS
 10
8.069600
 20
3.428480
  0
VERTEX
  8
0
  6
CONTINUOUS
 10
8.079280
 20
3.371720
  0
VERTEX
  8
0
  6
CONTINUOUS
 10
8.081920
 20
3.333440
  0
VERTEX
  8
0
  6
CONTINUOUS
 10
8.081040
 20
3.294720
  0
VERTEX
  8
0
  6
CONTINUOUS
 10
8.077520
 20
3.256880
  0
VERTEX
  8
0
  6
CONTINUOUS
 10
8.065200
 20
3.201000
  0
VERTEX
  8
0
  6
CONTINUOUS
 10
8.052880
 20
3.164920
  0
VERTEX
  8
0
  6
CONTINUOUS
 10
8.037040
 20
3.129720
  0
VERTEX
  8
0
  6
CONTINUOUS
 10
8.017680
 20
3.096280
  0
VERTEX
  8
0
  6
CONTINUOUS
 10
7.994800
 20
3.064600
  0
VERTEX
  8
0
  6
CONTINUOUS
 10
7.967960
 20
3.035120
  0
VERTEX
  8
0
  6
CONTINUOUS
 10
7.937160
 20
3.007400
  0
VERTEX
  8
0
  6
CONTINUOUS
 10
7.902840
 20
2.982760
  0
VERTEX
  8
0
  6
CONTINUOUS
 10
7.864560
 20
2.960760
  0
VERTEX
  8
0
  6
CONTINUOUS
 10
7.821880
 20
2.941400
  0
VERTEX
  8
0
  6
CONTINUOUS
 10
7.775680
 20
2.926000
  0
VERTEX
  8
0
  6
CONTINUOUS
 10
7.725080
 20
2.914120
  0
VERTEX
  8
0
  6
CONTINUOUS
 10
7.698240
 20
2.909280
  0
VERTEX
  8
0
  6
CONTINUOUS
 10
7.670080
 20
2.905760
  0
VERTEX
  8
0
  6
CONTINUOUS
 10
7.520920
 20
2.905760
  0
VERTEX
  8
0
  6
CONTINUOUS
 10
7.520920
 20
2.708200
  0
VERTEX
  8
0
  6
CONTINUOUS
 10
7.433360
 20
2.701600
  0
VERTEX
  8
0
  6
CONTINUOUS
 10
7.343600
 20
2.688840
  0
VERTEX
  8
0
  6
CONTINUOUS
 10
7.252080
 20
2.670360
  0
VERTEX
  8
0
  6
CONTINUOUS
 10
7.159680
 20
2.646160
  0
VERTEX
  8
0
  6
CONTINUOUS
 10
7.036480
 20
2.604800
  0
VERTEX
  8
0
  6
CONTINUOUS
 10
6.945400
 20
2.566960
  0
VERTEX
  8
0
  6
CONTINUOUS
 10
6.856080
 20
2.523400
  0
VERTEX
  8
0
  6
CONTINUOUS
 10
6.769400
 20
2.474560
  0
VERTEX
  8
0
  6
CONTINUOUS
 10
6.686240
 20
2.419560
  0
VERTEX
  8
0
  6
CONTINUOUS
 10
6.607920
 20
2.359280
  0
VERTEX
  8
0
  6
CONTINUOUS
 10
6.558200
 20
2.316160
  0
VERTEX
  8
0
  6
CONTINUOUS
 10
6.488680
 20
2.246640
  0
VERTEX
  8
0
  6
CONTINUOUS
 10
6.446000
 20
2.196920
  0
VERTEX
  8
0
  6
CONTINUOUS
 10
6.406400
 20
2.145000
  0
VERTEX
  8
0
  6
CONTINUOUS
 10
6.369880
 20
2.090880
  0
VERTEX
  8
0
  6
CONTINUOUS
 10
6.337320
 20
2.034120
  0
VERTEX
  8
0
  6
CONTINUOUS
 10
6.308720
 20
1.975160
  0
VERTEX
  8
0
  6
CONTINUOUS
 10
6.284520
 20
1.913560
  0
VERTEX
  8
0
  6
CONTINUOUS
 10
6.264280
 20
1.849320
  0
VERTEX
  8
0
  6
CONTINUOUS
 10
6.248880
 20
1.783320
  0
VERTEX
  8
0
  6
CONTINUOUS
 10
6.238320
 20
1.714680
  0
VERTEX
  8
0
  6
CONTINUOUS
 10
6.234800
 20
1.679040
  0
VERTEX
  8
0
  6
CONTINUOUS
 10
6.232160
 20
1.606880
  0
VERTEX
  8
0
  6
CONTINUOUS
 10
6.234800
 20
1.532520
  0
VERTEX
  8
0
  6
CONTINUOUS
 10
6.243160
 20
1.455520
  0
VERTEX
  8
0
  6
CONTINUOUS
 10
6.257680
 20
1.376320
  0
VERTEX
  8
0
  6
CONTINUOUS
 10
6.267360
 20
1.335840
  0
VERTEX
  8
0
  6
CONTINUOUS
 10
6.288040
 20
1.327920
  0
VERTEX
  8
0
  6
CONTINUOUS
 10
6.306960
 20
1.318680
  0
VERTEX
  8
0
  6
CONTINUOUS
 10
6.324120
 20
1.308120
  0
VERTEX
  8
0
  6
CONTINUOUS
 10
6.354040
 20
1.283480
  0
VERTEX
  8
0
  6
CONTINUOUS
 10
6.377800
 20
1.255760
  0
VERTEX
  8
0
  6
CONTINUOUS
 10
6.395400
 20
1.224960
  0
VERTEX
  8
0
  6
CONTINUOUS
 10
6.407280
 20
1.191960
  0
VERTEX
  8
0
  6
CONTINUOUS
 10
6.413000
 20
1.158080
  0
VERTEX
  8
0
  6
CONTINUOUS
 10
6.413000
 20
1.123760
  0
VERTEX
  8
0
  6
CONTINUOUS
 10
6.410800
 20
1.106600
  0
VERTEX
  8
0
  6
CONTINUOUS
 10
6.402000
 20
1.073600
  0
VERTEX
  8
0
  6
CONTINUOUS
 10
6.395840
 20
1.057320
  0
VERTEX
  8
0
  6
CONTINUOUS
 10
6.378680
 20
1.026960
  0
VERTEX
  8
0
  6
CONTINUOUS
 10
6.356240
 20
0.999680
  0
VERTEX
  8
0
  6
CONTINUOUS
 10
6.343040
 20
0.987360
  0
VERTEX
  8
0
  6
CONTINUOUS
 10
6.312680
 20
0.966240
  0
VERTEX
  8
0
  6
CONTINUOUS
 10
6.295960
 20
0.957440
  0
VERTEX
  8
0
  6
CONTINUOUS
 10
6.277480
 20
0.949960
  0
VERTEX
  8
0
  6
CONTINUOUS
 10
6.257680
 20
0.943800
  0
VERTEX
  8
0
  6
CONTINUOUS
 10
6.237000
 20
0.939400
  0
VERTEX
  8
0
  6
CONTINUOUS
 10
6.214560
 20
0.936760
  0
VERTEX
  8
0
  6
CONTINUOUS
 10
6.191240
 20
0.935880
  0
VERTEX
  8
0
  6
CONTINUOUS
 10
6.186840
 20
0.898040
  0
VERTEX
  8
0
  6
CONTINUOUS
 10
6.179360
 20
0.864600
  0
VERTEX
  8
0
  6
CONTINUOUS
 10
6.168800
 20
0.834680
  0
VERTEX
  8
0
  6
CONTINUOUS
 10
6.155600
 20
0.808280
  0
VERTEX
  8
0
  6
CONTINUOUS
 10
6.139760
 20
0.785400
  0
VERTEX
  8
0
  6
CONTINUOUS
 10
6.121280
 20
0.765160
  0
VERTEX
  8
0
  6
CONTINUOUS
 10
6.100600
 20
0.748000
  0
VERTEX
  8
0
  6
CONTINUOUS
 10
6.065400
 20
0.727320
  0
VERTEX
  8
0
  6
CONTINUOUS
 10
6.026240
 20
0.711920
  0
VERTEX
  8
0
  6
CONTINUOUS
 10
5.998520
 20
0.704000
  0
VERTEX
  8
0
  6
CONTINUOUS
 10
5.969040
 20
0.698280
  0
VERTEX
  8
0
  6
CONTINUOUS
 10
5.906560
 20
0.690800
  0
VERTEX
  8
0
  6
CONTINUOUS
 10
5.840560
 20
0.687720
  0
VERTEX
  8
0
  6
CONTINUOUS
 10
5.815040
 20
0.687720
  0
VERTEX
  8
0
  6
CONTINUOUS
 10
5.815040
 20
1.948760
  0
VERTEX
  8
0
  6
CONTINUOUS
 10
7.328640
 20
3.868040
  0
SEQEND
  8
0
  0
SOLID
  8
0
 62
    15
 10
3.560480
 20
2.449040
 11
4.216960
 21
2.094400
 12
3.456640
 22
2.367640
 13
4.113560
 23
2.012560
  0
POLYLINE
  8
0
  6
CONTINUOUS
 66
     1
 40
0.000000
 41
0.000000
  0
VERTEX
  8
0
  6
CONTINUOUS
 10
3.560480
 20
2.449040
  0
VERTEX
  8
0
  6
CONTINUOUS
 10
4.216960
 20
2.094400
  0
VERTEX
  8
0
  6
CONTINUOUS
 10
4.113560
 20
2.012560
  0
VERTEX
  8
0
  6
CONTINUOUS
 10
3.456640
 20
2.367640
  0
VERTEX
  8
0
  6
CONTINUOUS
 10
3.560480
 20
2.449040
  0
SEQEND
  8
0
  0
SOLID
  8
0
 62
    15
 10
4.558400
 20
3.897520
 11
5.215320
 21
3.542880
 12
4.558400
 22
3.801600
 13
5.215320
 23
3.446520
  0
POLYLINE
  8
0
  6
CONTINUOUS
 66
     1
 40
0.000000
 41
0.000000
  0
VERTEX
  8
0
  6
CONTINUOUS
 10
4.558400
 20
3.897520
  0
VERTEX
  8
0
  6
CONTINUOUS
 10
5.215320
 20
3.542880
  0
VERTEX
  8
0
  6
CONTINUOUS
 10
5.215320
 20
3.446520
  0
VERTEX
  8
0
  6
CONTINUOUS
 10
4.558400
 20
3.801600
  0
VERTEX
  8
0
  6
CONTINUOUS
 10
4.558400
 20
3.897520
  0
SEQEND
  8
0
  0
SOLID
  8
0
 62
    15
 10
4.717240
 20
3.758480
 11
5.374160
 21
3.403840
 12
4.783240
 22
3.716240
 13
5.440160
 23
3.361600
  0
POLYLINE
  8
0
  6
CONTINUOUS
 66
     1
 40
0.000000
 41
0.000000
  0
VERTEX
  8
0
  6
CONTINUOUS
 10
4.717240
 20
3.758480
  0
VERTEX
  8
0
  6
CONTINUOUS
 10
5.374160
 20
3.403840
  0
VERTEX
  8
0
  6
CONTINUOUS
 10
5.440160
 20
3.361600
  0
VERTEX
  8
0
  6
CONTINUOUS
 10
4.783240
 20
3.716240
  0
VERTEX
  8
0
  6
CONTINUOUS
 10
4.717240
 20
3.758480
  0
SEQEND
  8
0
  0
SOLID
  8
0
 62
    15
 10
4.839560
 20
3.663000
 11
5.496040
 21
3.308360
 12
4.885320
 22
3.600960
 13
5.541800
 23
3.245880
  0
POLYLINE
  8
0
  6
CONTINUOUS
 66
     1
 40
0.000000
 41
0.000000
  0
VERTEX
  8
0
  6
CONTINUOUS
 10
4.839560
 20
3.663000
  0
VERTEX
  8
0
  6
CONTINUOUS
 10
5.496040
 20
3.308360
  0
VERTEX
  8
0
  6
CONTINUOUS
 10
5.541800
 20
3.245880
  0
VERTEX
  8
0
  6
CONTINUOUS
 10
4.885320
 20
3.600960
  0
VERTEX
  8
0
  6
CONTINUOUS
 10
4.839560
 20
3.663000
  0
SEQEND
  8
0
  0
SOLID
  8
0
 62
    15
 10
4.885320
 20
3.600960
 11
5.541800
 21
3.245880
 12
4.920080
 22
3.531880
 13
5.577000
 23
3.177240
  0
POLYLINE
  8
0
  6
CONTINUOUS
 66
     1
 40
0.000000
 41
0.000000
  0
VERTEX
  8
0
  6
CONTINUOUS
 10
4.885320
 20
3.600960
  0
VERTEX
  8
0
  6
CONTINUOUS
 10
5.541800
 20
3.245880
  0
VERTEX
  8
0
  6
CONTINUOUS
 10
5.577000
 20
3.177240
  0
VERTEX
  8
0
  6
CONTINUOUS
 10
4.920080
 20
3.531880
  0
VERTEX
  8
0
  6
CONTINUOUS
 10
4.885320
 20
3.600960
  0
SEQEND
  8
0
  0
SOLID
  8
0
 62
    15
 10
4.920080
 20
3.531880
 11
5.577000
 21
3.177240
 12
4.943400
 22
3.458400
 13
5.600320
 23
3.103320
  0
POLYLINE
  8
0
  6
CONTINUOUS
 66
     1
 40
0.000000
 41
0.000000
  0
VERTEX
  8
0
  6
CONTINUOUS
 10
4.920080
 20
3.531880
  0
VERTEX
  8
0
  6
CONTINUOUS
 10
5.577000
 20
3.177240
  0
VERTEX
  8
0
  6
CONTINUOUS
 10
5.600320
 20
3.103320
  0
VERTEX
  8
0
  6
CONTINUOUS
 10
4.943400
 20
3.458400
  0
VERTEX
  8
0
  6
CONTINUOUS
 10
4.920080
 20
3.531880
  0
SEQEND
  8
0
  0
SOLID
  8
0
 62
    15
 10
4.943400
 20
3.458400
 11
5.600320
 21
3.103320
 12
4.954840
 22
3.381840
 13
5.611760
 23
3.027200
  0
POLYLINE
  8
0
  6
CONTINUOUS
 66
     1
 40
0.000000
 41
0.000000
  0
VERTEX
  8
0
  6
CONTINUOUS
 10
4.943400
 20
3.458400
  0
VERTEX
  8
0
  6
CONTINUOUS
 10
5.600320
 20
3.103320
  0
VERTEX
  8
0
  6
CONTINUOUS
 10
5.611760
 20
3.027200
  0
VERTEX
  8
0
  6
CONTINUOUS
 10
4.954840
 20
3.381840
  0
VERTEX
  8
0
  6
CONTINUOUS
 10
4.943400
 20
3.458400
  0
SEQEND
  8
0
  0
SOLID
  8
0
 62
    15
 10
4.954840
 20
3.381840
 11
5.611760
 21
3.027200
 12
4.953520
 22
3.305280
 13
5.610440
 23
2.950640
  0
POLYLINE
  8
0
  6
CONTINUOUS
 66
     1
 40
0.000000
 41
0.000000
  0
VERTEX
  8
0
  6
CONTINUOUS
 10
4.954840
 20
3.381840
  0
VERTEX
  8
0
  6
CONTINUOUS
 10
5.611760
 20
3.027200
  0
VERTEX
  8
0
  6
CONTINUOUS
 10
5.610440
 20
2.950640
  0
VERTEX
  8
0
  6
CONTINUOUS
 10
4.953520
 20
3.305280
  0
VERTEX
  8
0
  6
CONTINUOUS
 10
4.954840
 20
3.381840
  0
SEQEND
  8
0
  0
SOLID
  8
0
 62
    15
 10
4.953520
 20
3.305280
 11
5.610440
 21
2.950640
 12
4.939000
 22
3.230480
 13
5.595920
 23
2.875400
  0
POLYLINE
  8
0
  6
CONTINUOUS
 66
     1
 40
0.000000
 41
0.000000
  0
VERTEX
  8
0
  6
CONTINUOUS
 10
4.953520
 20
3.305280
  0
VERTEX
  8
0
  6
CONTINUOUS
 10
5.610440
 20
2.950640
  0
VERTEX
  8
0
  6
CONTINUOUS
 10
5.595920
 20
2.875400
  0
VERTEX
  8
0
  6
CONTINUOUS
 10
4.939000
 20
3.230480
  0
VERTEX
  8
0
  6
CONTINUOUS
 10
4.953520
 20
3.305280
  0
SEQEND
  8
0
  0
SOLID
  8
0
 62
    15
 10
4.939000
 20
3.230480
 11
5.595920
 21
2.875400
 12
4.910840
 22
3.159640
 13
5.567760
 23
2.804560
  0
POLYLINE
  8
0
  6
CONTINUOUS
 66
     1
 40
0.000000
 41
0.000000
  0
VERTEX
  8
0
  6
CONTINUOUS
 10
4.939000
 20
3.230480
  0
VERTEX
  8
0
  6
CONTINUOUS
 10
5.595920
 20
2.875400
  0
VERTEX
  8
0
  6
CONTINUOUS
 10
5.567760
 20
2.804560
  0
VERTEX
  8
0
  6
CONTINUOUS
 10
4.910840
 20
3.159640
  0
VERTEX
  8
0
  6
CONTINUOUS
 10
4.939000
 20
3.230480
  0
SEQEND
  8
0
  0
SOLID
  8
0
 62
    15
 10
4.910840
 20
3.159640
 11
5.567760
 21
2.804560
 12
4.868600
 22
3.094080
 13
5.525080
 23
2.739440
  0
POLYLINE
  8
0
  6
CONTINUOUS
 66
     1
 40
0.000000
 41
0.000000
  0
VERTEX
  8
0
  6
CONTINUOUS
 10
4.910840
 20
3.159640
  0
VERTEX
  8
0
  6
CONTINUOUS
 10
5.567760
 20
2.804560
  0
VERTEX
  8
0
  6
CONTINUOUS
 10
5.525080
 20
2.739440
  0
VERTEX
  8
0
  6
CONTINUOUS
 10
4.868600
 20
3.094080
  0
VERTEX
  8
0
  6
CONTINUOUS
 10
4.910840
 20
3.159640
  0
SEQEND
  8
0
  0
SOLID
  8
0
 62
    15
 10
4.868600
 20
3.094080
 11
5.525080
 21
2.739440
 12
4.810960
 22
3.037320
 13
5.467880
 23
2.682240
  0
POLYLINE
  8
0
  6
CONTINUOUS
 66
     1
 40
0.000000
 41
0.000000
  0
VERTEX
  8
0
  6
CONTINUOUS
 10
4.868600
 20
3.094080
  0
VERTEX
  8
0
  6
CONTINUOUS
 10
5.525080
 20
2.739440
  0
VERTEX
  8
0
  6
CONTINUOUS
 10
5.467880
 20
2.682240
  0
VERTEX
  8
0
  6
CONTINUOUS
 10
4.810960
 20
3.037320
  0
VERTEX
  8
0
  6
CONTINUOUS
 10
4.868600
 20
3.094080
  0
SEQEND
  8
0
  0
SOLID
  8
0
 62
    15
 10
4.810960
 20
3.037320
 11
5.467880
 21
2.682240
 12
4.737920
 22
2.990240
 13
5.394840
 23
2.635160
  0
POLYLINE
  8
0
  6
CONTINUOUS
 66
     1
 40
0.000000
 41
0.000000
  0
VERTEX
  8
0
  6
CONTINUOUS
 10
4.810960
 20
3.037320
  0
VERTEX
  8
0
  6
CONTINUOUS
 10
5.467880
 20
2.682240
  0
VERTEX
  8
0
  6
CONTINUOUS
 10
5.394840
 20
2.635160
  0
VERTEX
  8
0
  6
CONTINUOUS
 10
4.737920
 20
2.990240
  0
VERTEX
  8
0
  6
CONTINUOUS
 10
4.810960
 20
3.037320
  0
SEQEND
  8
0
  0
SOLID
  8
0
 62
    15
 10
4.737920
 20
2.990240
 11
5.394840
 21
2.635160
 12
4.649040
 22
2.955480
 13
5.305960
 23
2.600400
  0
POLYLINE
  8
0
  6
CONTINUOUS
 66
     1
 40
0.000000
 41
0.000000
  0
VERTEX
  8
0
  6
CONTINUOUS
 10
4.737920
 20
2.990240
  0
VERTEX
  8
0
  6
CONTINUOUS
 10
5.394840
 20
2.635160
  0
VERTEX
  8
0
  6
CONTINUOUS
 10
5.305960
 20
2.600400
  0
VERTEX
  8
0
  6
CONTINUOUS
 10
4.649040
 20
2.955480
  0
VERTEX
  8
0
  6
CONTINUOUS
 10
4.737920
 20
2.990240
  0
SEQEND
  8
0
  0
SOLID
  8
0
 62
    15
 10
4.649040
 20
2.955480
 11
5.305960
 21
2.600400
 12
4.543880
 22
2.935240
 13
5.200800
 23
2.580160
  0
POLYLINE
  8
0
  6
CONTINUOUS
 66
     1
 40
0.000000
 41
0.000000
  0
VERTEX
  8
0
  6
CONTINUOUS
 10
4.649040
 20
2.955480
  0
VERTEX
  8
0
  6
CONTINUOUS
 10
5.305960
 20
2.600400
  0
VERTEX
  8
0
  6
CONTINUOUS
 10
5.200800
 20
2.580160
  0
VERTEX
  8
0
  6
CONTINUOUS
 10
4.543880
 20
2.935240
  0
VERTEX
  8
0
  6
CONTINUOUS
 10
4.649040
 20
2.955480
  0
SEQEND
  8
0
  0
SOLID
  8
0
 62
    15
 10
4.543880
 20
2.935240
 11
5.200800
 21
2.580160
 12
4.394720
 22
2.935240
 13
5.051640
 23
2.580160
  0
POLYLINE
  8
0
  6
CONTINUOUS
 66
     1
 40
0.000000
 41
0.000000
  0
VERTEX
  8
0
  6
CONTINUOUS
 10
4.543880
 20
2.935240
  0
VERTEX
  8
0
  6
CONTINUOUS
 10
5.200800
 20
2.580160
  0
VERTEX
  8
0
  6
CONTINUOUS
 10
5.051640
 20
2.580160
  0
VERTEX
  8
0
  6
CONTINUOUS
 10
4.394720
 20
2.935240
  0
VERTEX
  8
0
  6
CONTINUOUS
 10
4.543880
 20
2.935240
  0
SEQEND
  8
0
  0
SOLID
  8
0
 62
    15
 10
4.394720
 20
2.935240
 11
5.051640
 21
2.580160
 12
4.394720
 22
2.737680
 13
5.051640
 23
2.383040
  0
POLYLINE
  8
0
  6
CONTINUOUS
 66
     1
 40
0.000000
 41
0.000000
  0
VERTEX
  8
0
  6
CONTINUOUS
 10
4.394720
 20
2.935240
  0
VERTEX
  8
0
  6
CONTINUOUS
 10
5.051640
 20
2.580160
  0
VERTEX
  8
0
  6
CONTINUOUS
 10
5.051640
 20
2.383040
  0
VERTEX
  8
0
  6
CONTINUOUS
 10
4.394720
 20
2.737680
  0
VERTEX
  8
0
  6
CONTINUOUS
 10
4.394720
 20
2.935240
  0
SEQEND
  8
0
  0
SOLID
  8
0
 62
    15
 10
4.394720
 20
2.737680
 11
5.051640
 21
2.383040
 12
4.277680
 22
2.727560
 13
4.934600
 23
2.372480
  0
POLYLINE
  8
0
  6
CONTINUOUS
 66
     1
 40
0.000000
 41
0.000000
  0
VERTEX
  8
0
  6
CONTINUOUS
 10
4.394720
 20
2.737680
  0
VERTEX
  8
0
  6
CONTINUOUS
 10
5.051640
 20
2.383040
  0
VERTEX
  8
0
  6
CONTINUOUS
 10
4.934600
 20
2.372480
  0
VERTEX
  8
0
  6
CONTINUOUS
 10
4.277680
 20
2.727560
  0
VERTEX
  8
0
  6
CONTINUOUS
 10
4.394720
 20
2.737680
  0
SEQEND
  8
0
  0
SOLID
  8
0
 62
    15
 10
4.277680
 20
2.727560
 11
4.934600
 21
2.372480
 12
4.156680
 22
2.706440
 13
4.813600
 23
2.351800
  0
POLYLINE
  8
0
  6
CONTINUOUS
 66
     1
 40
0.000000
 41
0.000000
  0
VERTEX
  8
0
  6
CONTINUOUS
 10
4.277680
 20
2.727560
  0
VERTEX
  8
0
  6
CONTINUOUS
 10
4.934600
 20
2.372480
  0
VERTEX
  8
0
  6
CONTINUOUS
 10
4.813600
 20
2.351800
  0
VERTEX
  8
0
  6
CONTINUOUS
 10
4.156680
 20
2.706440
  0
VERTEX
  8
0
  6
CONTINUOUS
 10
4.277680
 20
2.727560
  0
SEQEND
  8
0
  0
SOLID
  8
0
 62
    15
 10
4.156680
 20
2.706440
 11
4.813600
 21
2.351800
 12
3.910720
 22
2.634280
 13
4.567200
 23
2.279200
  0
POLYLINE
  8
0
  6
CONTINUOUS
 66
     1
 40
0.000000
 41
0.000000
  0
VERTEX
  8
0
  6
CONTINUOUS
 10
4.156680
 20
2.706440
  0
VERTEX
  8
0
  6
CONTINUOUS
 10
4.813600
 20
2.351800
  0
VERTEX
  8
0
  6
CONTINUOUS
 10
4.567200
 20
2.279200
  0
VERTEX
  8
0
  6
CONTINUOUS
 10
3.910720
 20
2.634280
  0
VERTEX
  8
0
  6
CONTINUOUS
 10
4.156680
 20
2.706440
  0
SEQEND
  8
0
  0
SOLID
  8
0
 62
    15
 10
3.910720
 20
2.634280
 11
4.567200
 21
2.279200
 12
3.789280
 22
2.582360
 13
4.446200
 23
2.227720
  0
POLYLINE
  8
0
  6
CONTINUOUS
 66
     1
 40
0.000000
 41
0.000000
  0
VERTEX
  8
0
  6
CONTINUOUS
 10
3.910720
 20
2.634280
  0
VERTEX
  8
0
  6
CONTINUOUS
 10
4.567200
 20
2.279200
  0
VERTEX
  8
0
  6
CONTINUOUS
 10
4.446200
 20
2.227720
  0
VERTEX
  8
0
  6
CONTINUOUS
 10
3.789280
 20
2.582360
  0
VERTEX
  8
0
  6
CONTINUOUS
 10
3.910720
 20
2.634280
  0
SEQEND
  8
0
  0
SOLID
  8
0
 62
    15
 10
3.789280
 20
2.582360
 11
4.446200
 21
2.227720
 12
3.671800
 22
2.520760
 13
4.328720
 23
2.166120
  0
POLYLINE
  8
0
  6
CONTINUOUS
 66
     1
 40
0.000000
 41
0.000000
  0
VERTEX
  8
0
  6
CONTINUOUS
 10
3.789280
 20
2.582360
  0
VERTEX
  8
0
  6
CONTINUOUS
 10
4.446200
 20
2.227720
  0
VERTEX
  8
0
  6
CONTINUOUS
 10
4.328720
 20
2.166120
  0
VERTEX
  8
0
  6
CONTINUOUS
 10
3.671800
 20
2.520760
  0
VERTEX
  8
0
  6
CONTINUOUS
 10
3.789280
 20
2.582360
  0
SEQEND
  8
0
  0
SOLID
  8
0
 62
    15
 10
3.671800
 20
2.520760
 11
4.328720
 21
2.166120
 12
3.560480
 22
2.449040
 13
4.216960
 23
2.094400
  0
POLYLINE
  8
0
  6
CONTINUOUS
 66
     1
 40
0.000000
 41
0.000000
  0
VERTEX
  8
0
  6
CONTINUOUS
 10
3.671800
 20
2.520760
  0
VERTEX
  8
0
  6
CONTINUOUS
 10
4.328720
 20
2.166120
  0
VERTEX
  8
0
  6
CONTINUOUS
 10
4.216960
 20
2.094400
  0
VERTEX
  8
0
  6
CONTINUOUS
 10
3.560480
 20
2.449040
  0
VERTEX
  8
0
  6
CONTINUOUS
 10
3.671800
 20
2.520760
  0
SEQEND
  8
0
  0
SOLID
  8
0
 62
    15
 10
4.783240
 20
3.716240
 11
5.440160
 21
3.361600
 12
4.839560
 22
3.663000
 13
5.496040
 23
3.308360
  0
POLYLINE
  8
0
  6
CONTINUOUS
 66
     1
 40
0.000000
 41
0.000000
  0
VERTEX
  8
0
  6
CONTINUOUS
 10
4.783240
 20
3.716240
  0
VERTEX
  8
0
  6
CONTINUOUS
 10
5.440160
 20
3.361600
  0
VERTEX
  8
0
  6
CONTINUOUS
 10
5.496040
 20
3.308360
  0
VERTEX
  8
0
  6
CONTINUOUS
 10
4.839560
 20
3.663000
  0
VERTEX
  8
0
  6
CONTINUOUS
 10
4.783240
 20
3.716240
  0
SEQEND
  8
0
  0
SOLID
  8
0
 62
    15
 10
3.456640
 20
2.367640
 11
4.113560
 21
2.012560
 12
3.362480
 22
2.276120
 13
4.019400
 23
1.921040
  0
POLYLINE
  8
0
  6
CONTINUOUS
 66
     1
 40
0.000000
 41
0.000000
  0
VERTEX
  8
0
  6
CONTINUOUS
 10
3.456640
 20
2.367640
  0
VERTEX
  8
0
  6
CONTINUOUS
 10
4.113560
 20
2.012560
  0
VERTEX
  8
0
  6
CONTINUOUS
 10
4.019400
 20
1.921040
  0
VERTEX
  8
0
  6
CONTINUOUS
 10
3.362480
 20
2.276120
  0
VERTEX
  8
0
  6
CONTINUOUS
 10
3.456640
 20
2.367640
  0
SEQEND
  8
0
  0
SOLID
  8
0
 62
    15
 10
3.362480
 20
2.276120
 11
4.019400
 21
1.921040
 12
3.280200
 22
2.174480
 13
3.937120
 23
1.819840
  0
POLYLINE
  8
0
  6
CONTINUOUS
 66
     1
 40
0.000000
 41
0.000000
  0
VERTEX
  8
0
  6
CONTINUOUS
 10
3.362480
 20
2.276120
  0
VERTEX
  8
0
  6
CONTINUOUS
 10
4.019400
 20
1.921040
  0
VERTEX
  8
0
  6
CONTINUOUS
 10
3.937120
 20
1.819840
  0
VERTEX
  8
0
  6
CONTINUOUS
 10
3.280200
 20
2.174480
  0
VERTEX
  8
0
  6
CONTINUOUS
 10
3.362480
 20
2.276120
  0
SEQEND
  8
0
  0
SOLID
  8
0
 62
    15
 10
3.280200
 20
2.174480
 11
3.937120
 21
1.819840
 12
3.211560
 22
2.063600
 13
3.868480
 23
1.708520
  0
POLYLINE
  8
0
  6
CONTINUOUS
 66
     1
 40
0.000000
 41
0.000000
  0
VERTEX
  8
0
  6
CONTINUOUS
 10
3.280200
 20
2.174480
  0
VERTEX
  8
0
  6
CONTINUOUS
 10
3.937120
 20
1.819840
  0
VERTEX
  8
0
  6
CONTINUOUS
 10
3.868480
 20
1.708520
  0
VERTEX
  8
0
  6
CONTINUOUS
 10
3.211560
 20
2.063600
  0
VERTEX
  8
0
  6
CONTINUOUS
 10
3.280200
 20
2.174480
  0
SEQEND
  8
0
  0
SOLID
  8
0
 62
    15
 10
3.211560
 20
2.063600
 11
3.868480
 21
1.708520
 12
3.158320
 22
1.943040
 13
3.815240
 23
1.587960
  0
POLYLINE
  8
0
  6
CONTINUOUS
 66
     1
 40
0.000000
 41
0.000000
  0
VERTEX
  8
0
  6
CONTINUOUS
 10
3.211560
 20
2.063600
  0
VERTEX
  8
0
  6
CONTINUOUS
 10
3.868480
 20
1.708520
  0
VERTEX
  8
0
  6
CONTINUOUS
 10
3.815240
 20
1.587960
  0
VERTEX
  8
0
  6
CONTINUOUS
 10
3.158320
 20
1.943040
  0
VERTEX
  8
0
  6
CONTINUOUS
 10
3.211560
 20
2.063600
  0
SEQEND
  8
0
  0
SOLID
  8
0
 62
    15
 10
3.158320
 20
1.943040
 11
3.815240
 21
1.587960
 12
3.122680
 22
1.812800
 13
3.779600
 23
1.457720
  0
POLYLINE
  8
0
  6
CONTINUOUS
 66
     1
 40
0.000000
 41
0.000000
  0
VERTEX
  8
0
  6
CONTINUOUS
 10
3.158320
 20
1.943040
  0
VERTEX
  8
0
  6
CONTINUOUS
 10
3.815240
 20
1.587960
  0
VERTEX
  8
0
  6
CONTINUOUS
 10
3.779600
 20
1.457720
  0
VERTEX
  8
0
  6
CONTINUOUS
 10
3.122680
 20
1.812800
  0
VERTEX
  8
0
  6
CONTINUOUS
 10
3.158320
 20
1.943040
  0
SEQEND
  8
0
  0
SOLID
  8
0
 62
    15
 10
3.122680
 20
1.812800
 11
3.779600
 21
1.457720
 12
3.106840
 22
1.672880
 13
3.763760
 23
1.318240
  0
POLYLINE
  8
0
  6
CONTINUOUS
 66
     1
 40
0.000000
 41
0.000000
  0
VERTEX
  8
0
  6
CONTINUOUS
 10
3.122680
 20
1.812800
  0
VERTEX
  8
0
  6
CONTINUOUS
 10
3.779600
 20
1.457720
  0
VERTEX
  8
0
  6
CONTINUOUS
 10
3.763760
 20
1.318240
  0
VERTEX
  8
0
  6
CONTINUOUS
 10
3.106840
 20
1.672880
  0
VERTEX
  8
0
  6
CONTINUOUS
 10
3.122680
 20
1.812800
  0
SEQEND
  8
0
  0
SOLID
  8
0
 62
    15
 10
3.106840
 20
1.672880
 11
3.763760
 21
1.318240
 12
3.112120
 22
1.523720
 13
3.769040
 23
1.169080
  0
POLYLINE
  8
0
  6
CONTINUOUS
 66
     1
 40
0.000000
 41
0.000000
  0
VERTEX
  8
0
  6
CONTINUOUS
 10
3.106840
 20
1.672880
  0
VERTEX
  8
0
  6
CONTINUOUS
 10
3.763760
 20
1.318240
  0
VERTEX
  8
0
  6
CONTINUOUS
 10
3.769040
 20
1.169080
  0
VERTEX
  8
0
  6
CONTINUOUS
 10
3.112120
 20
1.523720
  0
VERTEX
  8
0
  6
CONTINUOUS
 10
3.106840
 20
1.672880
  0
SEQEND
  8
0
  0
SOLID
  8
0
 62
    15
 10
3.112120
 20
1.523720
 11
3.769040
 21
1.169080
 12
3.141160
 22
1.365320
 13
3.798080
 23
1.010240
  0
POLYLINE
  8
0
  6
CONTINUOUS
 66
     1
 40
0.000000
 41
0.000000
  0
VERTEX
  8
0
  6
CONTINUOUS
 10
3.112120
 20
1.523720
  0
VERTEX
  8
0
  6
CONTINUOUS
 10
3.769040
 20
1.169080
  0
VERTEX
  8
0
  6
CONTINUOUS
 10
3.798080
 20
1.010240
  0
VERTEX
  8
0
  6
CONTINUOUS
 10
3.141160
 20
1.365320
  0
VERTEX
  8
0
  6
CONTINUOUS
 10
3.112120
 20
1.523720
  0
SEQEND
  8
0
  0
SOLID
  8
0
 62
    15
 10
3.141160
 20
1.365320
 11
3.798080
 21
1.010240
 12
3.213760
 22
1.325720
 13
3.870680
 23
0.971080
  0
POLYLINE
  8
0
  6
CONTINUOUS
 66
     1
 40
0.000000
 41
0.000000
  0
VERTEX
  8
0
  6
CONTINUOUS
 10
3.141160
 20
1.365320
  0
VERTEX
  8
0
  6
CONTINUOUS
 10
3.798080
 20
1.010240
  0
VERTEX
  8
0
  6
CONTINUOUS
 10
3.870680
 20
0.971080
  0
VERTEX
  8
0
  6
CONTINUOUS
 10
3.213760
 20
1.325720
  0
VERTEX
  8
0
  6
CONTINUOUS
 10
3.141160
 20
1.365320
  0
SEQEND
  8
0
  0
SOLID
  8
0
 62
    15
 10
3.213760
 20
1.325720
 11
3.870680
 21
0.971080
 12
3.261280
 22
1.269840
 13
3.918200
 23
0.915200
  0
POLYLINE
  8
0
  6
CONTINUOUS
 66
     1
 40
0.000000
 41
0.000000
  0
VERTEX
  8
0
  6
CONTINUOUS
 10
3.213760
 20
1.325720
  0
VERTEX
  8
0
  6
CONTINUOUS
 10
3.870680
 20
0.971080
  0
VERTEX
  8
0
  6
CONTINUOUS
 10
3.918200
 20
0.915200
  0
VERTEX
  8
0
  6
CONTINUOUS
 10
3.261280
 20
1.269840
  0
VERTEX
  8
0
  6
CONTINUOUS
 10
3.213760
 20
1.325720
  0
SEQEND
  8
0
  0
SOLID
  8
0
 62
    15
 10
3.261280
 20
1.269840
 11
3.918200
 21
0.915200
 12
3.284600
 22
1.204720
 13
3.941520
 23
0.849640
  0
POLYLINE
  8
0
  6
CONTINUOUS
 66
     1
 40
0.000000
 41
0.000000
  0
VERTEX
  8
0
  6
CONTINUOUS
 10
3.261280
 20
1.269840
  0
VERTEX
  8
0
  6
CONTINUOUS
 10
3.918200
 20
0.915200
  0
VERTEX
  8
0
  6
CONTINUOUS
 10
3.941520
 20
0.849640
  0
VERTEX
  8
0
  6
CONTINUOUS
 10
3.284600
 20
1.204720
  0
VERTEX
  8
0
  6
CONTINUOUS
 10
3.261280
 20
1.269840
  0
SEQEND
  8
0
  0
SOLID
  8
0
 62
    15
 10
3.284600
 20
1.204720
 11
3.941520
 21
0.849640
 12
3.284600
 22
1.136080
 13
3.941520
 23
0.781440
  0
POLYLINE
  8
0
  6
CONTINUOUS
 66
     1
 40
0.000000
 41
0.000000
  0
VERTEX
  8
0
  6
CONTINUOUS
 10
3.284600
 20
1.204720
  0
VERTEX
  8
0
  6
CONTINUOUS
 10
3.941520
 20
0.849640
  0
VERTEX
  8
0
  6
CONTINUOUS
 10
3.941520
 20
0.781440
  0
VERTEX
  8
0
  6
CONTINUOUS
 10
3.284600
 20
1.136080
  0
VERTEX
  8
0
  6
CONTINUOUS
 10
3.284600
 20
1.204720
  0
SEQEND
  8
0
  0
SOLID
  8
0
 62
    15
 10
3.284600
 20
1.136080
 11
3.941520
 21
0.781440
 12
3.261720
 22
1.071400
 13
3.918640
 23
0.716760
  0
POLYLINE
  8
0
  6
CONTINUOUS
 66
     1
 40
0.000000
 41
0.000000
  0
VERTEX
  8
0
  6
CONTINUOUS
 10
3.284600
 20
1.136080
  0
VERTEX
  8
0
  6
CONTINUOUS
 10
3.941520
 20
0.781440
  0
VERTEX
  8
0
  6
CONTINUOUS
 10
3.918640
 20
0.716760
  0
VERTEX
  8
0
  6
CONTINUOUS
 10
3.261720
 20
1.071400
  0
VERTEX
  8
0
  6
CONTINUOUS
 10
3.284600
 20
1.136080
  0
SEQEND
  8
0
  0
SOLID
  8
0
 62
    15
 10
3.261720
 20
1.071400
 11
3.918640
 21
0.716760
 12
3.217280
 22
1.017280
 13
3.873760
 23
0.662200
  0
POLYLINE
  8
0
  6
CONTINUOUS
 66
     1
 40
0.000000
 41
0.000000
  0
VERTEX
  8
0
  6
CONTINUOUS
 10
3.261720
 20
1.071400
  0
VERTEX
  8
0
  6
CONTINUOUS
 10
3.918640
 20
0.716760
  0
VERTEX
  8
0
  6
CONTINUOUS
 10
3.873760
 20
0.662200
  0
VERTEX
  8
0
  6
CONTINUOUS
 10
3.217280
 20
1.017280
  0
VERTEX
  8
0
  6
CONTINUOUS
 10
3.261720
 20
1.071400
  0
SEQEND
  8
0
  0
SOLID
  8
0
 62
    15
 10
3.217280
 20
1.017280
 11
3.873760
 21
0.662200
 12
3.151280
 22
0.979440
 13
3.808200
 23
0.624800
  0
POLYLINE
  8
0
  6
CONTINUOUS
 66
     1
 40
0.000000
 41
0.000000
  0
VERTEX
  8
0
  6
CONTINUOUS
 10
3.217280
 20
1.017280
  0
VERTEX
  8
0
  6
CONTINUOUS
 10
3.873760
 20
0.662200
  0
VERTEX
  8
0
  6
CONTINUOUS
 10
3.808200
 20
0.624800
  0
VERTEX
  8
0
  6
CONTINUOUS
 10
3.151280
 20
0.979440
  0
VERTEX
  8
0
  6
CONTINUOUS
 10
3.217280
 20
1.017280
  0
SEQEND
  8
0
  0
SOLID
  8
0
 62
    15
 10
3.151280
 20
0.979440
 11
3.808200
 21
0.624800
 12
3.065480
 22
0.965800
 13
3.721960
 23
0.610720
  0
POLYLINE
  8
0
  6
CONTINUOUS
 66
     1
 40
0.000000
 41
0.000000
  0
VERTEX
  8
0
  6
CONTINUOUS
 10
3.151280
 20
0.979440
  0
VERTEX
  8
0
  6
CONTINUOUS
 10
3.808200
 20
0.624800
  0
VERTEX
  8
0
  6
CONTINUOUS
 10
3.721960
 20
0.610720
  0
VERTEX
  8
0
  6
CONTINUOUS
 10
3.065480
 20
0.965800
  0
VERTEX
  8
0
  6
CONTINUOUS
 10
3.151280
 20
0.979440
  0
SEQEND
  8
0
  0
SOLID
  8
0
 62
    15
 10
3.065480
 20
0.965800
 11
3.721960
 21
0.610720
 12
3.053160
 22
0.894080
 13
3.710080
 23
0.539440
  0
POLYLINE
  8
0
  6
CONTINUOUS
 66
     1
 40
0.000000
 41
0.000000
  0
VERTEX
  8
0
  6
CONTINUOUS
 10
3.065480
 20
0.965800
  0
VERTEX
  8
0
  6
CONTINUOUS
 10
3.721960
 20
0.610720
  0
VERTEX
  8
0
  6
CONTINUOUS
 10
3.710080
 20
0.539440
  0
VERTEX
  8
0
  6
CONTINUOUS
 10
3.053160
 20
0.894080
  0
VERTEX
  8
0
  6
CONTINUOUS
 10
3.065480
 20
0.965800
  0
SEQEND
  8
0
  0
SOLID
  8
0
 62
    15
 10
3.053160
 20
0.894080
 11
3.710080
 21
0.539440
 12
3.029400
 22
0.837760
 13
3.686320
 23
0.483120
  0
POLYLINE
  8
0
  6
CONTINUOUS
 66
     1
 40
0.000000
 41
0.000000
  0
VERTEX
  8
0
  6
CONTINUOUS
 10
3.053160
 20
0.894080
  0
VERTEX
  8
0
  6
CONTINUOUS
 10
3.710080
 20
0.539440
  0
VERTEX
  8
0
  6
CONTINUOUS
 10
3.686320
 20
0.483120
  0
VERTEX
  8
0
  6
CONTINUOUS
 10
3.029400
 20
0.837760
  0
VERTEX
  8
0
  6
CONTINUOUS
 10
3.053160
 20
0.894080
  0
SEQEND
  8
0
  0
SOLID
  8
0
 62
    15
 10
3.029400
 20
0.837760
 11
3.686320
 21
0.483120
 12
2.995080
 22
0.794640
 13
3.652000
 23
0.440000
  0
POLYLINE
  8
0
  6
CONTINUOUS
 66
     1
 40
0.000000
 41
0.000000
  0
VERTEX
  8
0
  6
CONTINUOUS
 10
3.029400
 20
0.837760
  0
VERTEX
  8
0
  6
CONTINUOUS
 10
3.686320
 20
0.483120
  0
VERTEX
  8
0
  6
CONTINUOUS
 10
3.652000
 20
0.440000
  0
VERTEX
  8
0
  6
CONTINUOUS
 10
2.995080
 20
0.794640
  0
VERTEX
  8
0
  6
CONTINUOUS
 10
3.029400
 20
0.837760
  0
SEQEND
  8
0
  0
SOLID
  8
0
 62
    15
 10
2.995080
 20
0.794640
 11
3.652000
 21
0.440000
 12
2.951520
 22
0.763400
 13
3.608440
 23
0.408320
  0
POLYLINE
  8
0
  6
CONTINUOUS
 66
     1
 40
0.000000
 41
0.000000
  0
VERTEX
  8
0
  6
CONTINUOUS
 10
2.995080
 20
0.794640
  0
VERTEX
  8
0
  6
CONTINUOUS
 10
3.652000
 20
0.440000
  0
VERTEX
  8
0
  6
CONTINUOUS
 10
3.608440
 20
0.408320
  0
VERTEX
  8
0
  6
CONTINUOUS
 10
2.951520
 20
0.763400
  0
VERTEX
  8
0
  6
CONTINUOUS
 10
2.995080
 20
0.794640
  0
SEQEND
  8
0
  0
SOLID
  8
0
 62
    15
 10
2.951520
 20
0.763400
 11
3.608440
 21
0.408320
 12
2.842840
 22
0.727760
 13
3.499760
 23
0.372680
  0
POLYLINE
  8
0
  6
CONTINUOUS
 66
     1
 40
0.000000
 41
0.000000
  0
VERTEX
  8
0
  6
CONTINUOUS
 10
2.951520
 20
0.763400
  0
VERTEX
  8
0
  6
CONTINUOUS
 10
3.608440
 20
0.408320
  0
VERTEX
  8
0
  6
CONTINUOUS
 10
3.499760
 20
0.372680
  0
VERTEX
  8
0
  6
CONTINUOUS
 10
2.842840
 20
0.727760
  0
VERTEX
  8
0
  6
CONTINUOUS
 10
2.951520
 20
0.763400
  0
SEQEND
  8
0
  0
SOLID
  8
0
 62
    15
 10
2.842840
 20
0.727760
 11
3.499760
 21
0.372680
 12
2.714360
 22
0.717200
 13
3.371280
 23
0.362120
  0
POLYLINE
  8
0
  6
CONTINUOUS
 66
     1
 40
0.000000
 41
0.000000
  0
VERTEX
  8
0
  6
CONTINUOUS
 10
2.842840
 20
0.727760
  0
VERTEX
  8
0
  6
CONTINUOUS
 10
3.499760
 20
0.372680
  0
VERTEX
  8
0
  6
CONTINUOUS
 10
3.371280
 20
0.362120
  0
VERTEX
  8
0
  6
CONTINUOUS
 10
2.714360
 20
0.717200
  0
VERTEX
  8
0
  6
CONTINUOUS
 10
2.842840
 20
0.727760
  0
SEQEND
  8
0
  0
SOLID
  8
0
 62
    15
 10
2.714360
 20
0.717200
 11
3.371280
 21
0.362120
 12
2.688840
 22
0.717200
 13
3.345760
 23
0.362120
  0
POLYLINE
  8
0
  6
CONTINUOUS
 66
     1
 40
0.000000
 41
0.000000
  0
VERTEX
  8
0
  6
CONTINUOUS
 10
2.714360
 20
0.717200
  0
VERTEX
  8
0
  6
CONTINUOUS
 10
3.371280
 20
0.362120
  0
VERTEX
  8
0
  6
CONTINUOUS
 10
3.345760
 20
0.362120
  0
VERTEX
  8
0
  6
CONTINUOUS
 10
2.688840
 20
0.717200
  0
VERTEX
  8
0
  6
CONTINUOUS
 10
2.714360
 20
0.717200
  0
SEQEND
  8
0
  0
POLYLINE
  8
0
  6
CONTINUOUS
 66
     1
 40
0.000000
 41
0.000000
  0
VERTEX
  8
0
  6
CONTINUOUS
 10
4.202440
 20
3.897520
  0
VERTEX
  8
0
  6
CONTINUOUS
 10
4.558400
 20
3.897520
  0
VERTEX
  8
0
  6
CONTINUOUS
 10
4.558400
 20
3.801600
  0
VERTEX
  8
0
  6
CONTINUOUS
 10
4.642000
 20
3.787520
  0
VERTEX
  8
0
  6
CONTINUOUS
 10
4.717240
 20
3.758480
  0
VERTEX
  8
0
  6
CONTINUOUS
 10
4.783240
 20
3.716240
  0
VERTEX
  8
0
  6
CONTINUOUS
 10
4.839560
 20
3.663000
  0
VERTEX
  8
0
  6
CONTINUOUS
 10
4.885320
 20
3.600960
  0
VERTEX
  8
0
  6
CONTINUOUS
 10
4.920080
 20
3.531880
  0
VERTEX
  8
0
  6
CONTINUOUS
 10
4.943400
 20
3.458400
  0
VERTEX
  8
0
  6
CONTINUOUS
 10
4.954840
 20
3.381840
  0
VERTEX
  8
0
  6
CONTINUOUS
 10
4.953520
 20
3.305280
  0
VERTEX
  8
0
  6
CONTINUOUS
 10
4.939000
 20
3.230480
  0
VERTEX
  8
0
  6
CONTINUOUS
 10
4.910840
 20
3.159640
  0
VERTEX
  8
0
  6
CONTINUOUS
 10
4.868600
 20
3.094080
  0
VERTEX
  8
0
  6
CONTINUOUS
 10
4.810960
 20
3.037320
  0
VERTEX
  8
0
  6
CONTINUOUS
 10
4.737920
 20
2.990240
  0
VERTEX
  8
0
  6
CONTINUOUS
 10
4.649040
 20
2.955480
  0
VERTEX
  8
0
  6
CONTINUOUS
 10
4.543880
 20
2.935240
  0
VERTEX
  8
0
  6
CONTINUOUS
 10
4.394720
 20
2.935240
  0
VERTEX
  8
0
  6
CONTINUOUS
 10
4.394720
 20
2.737680
  0
VERTEX
  8
0
  6
CONTINUOUS
 10
4.277680
 20
2.727560
  0
VERTEX
  8
0
  6
CONTINUOUS
 10
4.156680
 20
2.706440
  0
VERTEX
  8
0
  6
CONTINUOUS
 10
3.910720
 20
2.634280
  0
VERTEX
  8
0
  6
CONTINUOUS
 10
3.789280
 20
2.582360
  0
VERTEX
  8
0
  6
CONTINUOUS
 10
3.671800
 20
2.520760
  0
VERTEX
  8
0
  6
CONTINUOUS
 10
3.560480
 20
2.449040
  0
VERTEX
  8
0
  6
CONTINUOUS
 10
3.456640
 20
2.367640
  0
VERTEX
  8
0
  6
CONTINUOUS
 10
3.362480
 20
2.276120
  0
VERTEX
  8
0
  6
CONTINUOUS
 10
3.280200
 20
2.174480
  0
VERTEX
  8
0
  6
CONTINUOUS
 10
3.211560
 20
2.063600
  0
VERTEX
  8
0
  6
CONTINUOUS
 10
3.158320
 20
1.943040
  0
VERTEX
  8
0
  6
CONTINUOUS
 10
3.122680
 20
1.812800
  0
VERTEX
  8
0
  6
CONTINUOUS
 10
3.106840
 20
1.672880
  0
VERTEX
  8
0
  6
CONTINUOUS
 10
3.112120
 20
1.523720
  0
VERTEX
  8
0
  6
CONTINUOUS
 10
3.141160
 20
1.365320
  0
VERTEX
  8
0
  6
CONTINUOUS
 10
3.213760
 20
1.325720
  0
VERTEX
  8
0
  6
CONTINUOUS
 10
3.261280
 20
1.269840
  0
VERTEX
  8
0
  6
CONTINUOUS
 10
3.284600
 20
1.204720
  0
VERTEX
  8
0
  6
CONTINUOUS
 10
3.284600
 20
1.136080
  0
VERTEX
  8
0
  6
CONTINUOUS
 10
3.261720
 20
1.071400
  0
VERTEX
  8
0
  6
CONTINUOUS
 10
3.217280
 20
1.017280
  0
VERTEX
  8
0
  6
CONTINUOUS
 10
3.151280
 20
0.979440
  0
VERTEX
  8
0
  6
CONTINUOUS
 10
3.065480
 20
0.965800
  0
VERTEX
  8
0
  6
CONTINUOUS
 10
3.053160
 20
0.894080
  0
VERTEX
  8
0
  6
CONTINUOUS
 10
3.029400
 20
0.837760
  0
VERTEX
  8
0
  6
CONTINUOUS
 10
2.995080
 20
0.794640
  0
VERTEX
  8
0
  6
CONTINUOUS
 10
2.951520
 20
0.763400
  0
VERTEX
  8
0
  6
CONTINUOUS
 10
2.842840
 20
0.727760
  0
VERTEX
  8
0
  6
CONTINUOUS
 10
2.714360
 20
0.717200
  0
VERTEX
  8
0
  6
CONTINUOUS
 10
2.688840
 20
0.717200
  0
VERTEX
  8
0
  6
CONTINUOUS
 10
2.688840
 20
1.978240
  0
VERTEX
  8
0
  6
CONTINUOUS
 10
4.202440
 20
3.897520
  0
SEQEND
  8
0
  0
TEXT
  8
0
 10
4.194080
 20
0.555280
 40
0.138124
  1
BA  1017
 41
1.000000
  7
SN0
 71
     0
 72
     5
 11
4.876981
 21
0.555280
  0
TEXT
  8
0
 10
4.153600
 20
0.363880
 40
0.138124
  1
1" x 3-3/4"
 41
1.000000
  7
SN0
 71
     0
 72
     5
 11
4.916699
 21
0.363880
  0
TEXT
  8
0
 10
6.647520
 20
1.091640
 40
0.138124
  1
BA  1017
 41
1.000000
  7
SN0
 71
     0
 72
     5
 11
7.330421
 21
1.091640
  0
TEXT
  8
0
 10
6.607040
 20
0.900240
 40
0.138124
  1
1" x 3-3/4"
 41
1.000000
  7
SN0
 71
     0
 72
     5
 11
7.370139
 21
0.900240
  0
ENDSEC
  0
EOF
