  0
SECTION
  2
HEADER
  9
$ACADVER
  1
AC1006
  9
$EXTMIN
 10
0.878680
 20
3.217720
  9
$EXTMAX
 10
7.621240
 20
7.781840
  9
$LTSCALE
 40
0.044000
  9
$PDMODE
 70
    35
  9
$PDSIZE
 40
0.035200
  0
ENDSEC
  0
SECTION
  2
TABLES
  0
TABLE
  2
LTYPE
 70
     9
  0
LTYPE
  2
CONTINUOUS
 70
    64
  3
Solid line
 72
    65
 73
     0
 40
0.000000
  0
LTYPE
  2
DASHED
 70
    64
  3
__ __ __ __ __ __ __ __ __ __ __ __ __ __ __
 72
    65
 73
     2
 40
0.000330
 49
0.000220
 49
-0.000110
  0
LTYPE
  2
HIDDEN
 70
    64
  3
 _ _ _ _ _ _ _ _ _ _ _ _ _ _ _ _ _ _ _ _ _ _
 72
    65
 73
     2
 40
0.000165
 49
0.000110
 49
-0.000055
  0
LTYPE
  2
CENTER
 70
    64
  3
____ _ ____ _ ____ _ ____ _ ____ _ ____ _ ____
 72
    65
 73
     4
 40
0.000880
 49
0.000550
 49
-0.000110
 49
0.000110
 49
-0.000110
  0
LTYPE
  2
PHANTOM
 70
    64
  3
_____ _ _ _____ _ _ _____ _ _ _____ _ _ ____
 72
    65
 73
     6
 40
0.001100
 49
0.000550
 49
-0.000110
 49
0.000110
 49
-0.000110
 49
0.000110
 49
-0.000110
  0
LTYPE
  2
DOT
 70
    64
  3
...............................................
 72
    65
 73
     2
 40
0.000110
 49
0.000000
 49
-0.000110
  0
LTYPE
  2
DASHDOT
 70
    64
  3
__ . __ . __ . __ . __ . __ . __ . __ . __ . __
 72
    65
 73
     4
 40
0.000440
 49
0.000220
 49
-0.000110
 49
0.000000
 49
-0.000110
  0
LTYPE
  2
BORDER
 70
    64
  3
__ __ . __ __ . __ __ . __ __ . __ __ . __ __
 72
    65
 73
     6
 40
0.000770
 49
0.000220
 49
-0.000110
 49
0.000220
 49
-0.000110
 49
0.000000
 49
-0.000110
  0
LTYPE
  2
DIVIDE
 70
    64
  3
__ . . __ . . __ . . __ . . __ . . __ . . __
 72
    65
 73
     6
 40
0.000550
 49
0.000220
 49
-0.000110
 49
0.000000
 49
-0.000110
 49
0.000000
 49
-0.000110
  0
LTYPE
  2
DOTDOT
 70
    64
  3
 . .  . .  . .  . .  . .  . . 
 72
    65
 73
     5
 40
0.000242
 49
-0.000110
 49
0.000000
 49
-0.000110
 49
0.000000
 49
-0.000110
  0
ENDTAB
  0
TABLE
  2
STYLE
 70
     2
  0
STYLE
 70
     0
  2
SN0
 40
0.000000
 41
0.000440
 50
0.000000
 71
     0
 42
0.000000
  3
ROMAND
  0
STYLE
 70
    68
  2
SV0
 40
0.000000
 41
0.000440
 50
0.000000
 71
     0
 42
0.000000
  3
ROMAND
  0
ENDTAB
  0
TABLE
  2
LAYER
 70
     3
  0
LAYER
  2
FOREGROUND
 70
    64
 62
     7
  6
CONTINUOUS
  0
LAYER
  2
BACKGROUND
 70
    65
 62
    -7
  6
CONTINUOUS
  0
LAYER
  2
0
 70
    64
 62
     7
  6
CONTINUOUS
  0
ENDTAB
  0
ENDSEC
  0
SECTION
  2
ENTITIES
  0
POLYLINE
  8
FOREGROUND
  6
CONTINUOUS
 66
     1
 40
0.000000
 41
0.000000
  0
VERTEX
  8
FOREGROUND
  6
CONTINUOUS
 10
0.000000
 20
10.999560
  0
VERTEX
  8
FOREGROUND
  6
CONTINUOUS
 10
8.499920
 20
10.999560
  0
VERTEX
  8
FOREGROUND
  6
CONTINUOUS
 10
8.499920
 20
-0.000440
  0
VERTEX
  8
FOREGROUND
  6
CONTINUOUS
 10
0.000000
 20
-0.000440
  0
VERTEX
  8
FOREGROUND
  6
CONTINUOUS
 10
0.000000
 20
10.999560
  0
SEQEND
  8
0
  0
POLYLINE
  8
FOREGROUND
  6
CONTINUOUS
 66
     1
 40
0.000000
 41
0.000000
  0
VERTEX
  8
FOREGROUND
  6
CONTINUOUS
 10
0.000000
 20
10.999560
  0
VERTEX
  8
FOREGROUND
  6
CONTINUOUS
 10
8.499920
 20
10.999560
  0
VERTEX
  8
FOREGROUND
  6
CONTINUOUS
 10
8.499920
 20
-0.000440
  0
VERTEX
  8
FOREGROUND
  6
CONTINUOUS
 10
0.000000
 20
-0.000440
  0
VERTEX
  8
FOREGROUND
  6
CONTINUOUS
 10
0.000000
 20
10.999560
  0
SEQEND
  8
0
  0
TEXT
  8
0
 10
4.562360
 20
6.222480
 40
0.138143
  1
BA  1015 1-1/4" x 1-1/2"
 41
1.000000
  7
SN0
 71
     0
 72
     5
 11
6.339362
 21
6.222480
  0
TEXT
  8
0
 10
4.562360
 20
6.031080
 40
0.138143
  1
BA  1016 13/16" x 3-1/16"
 41
1.000000
  7
SN0
 71
     0
 72
     5
 11
6.468819
 21
6.031080
  0
POLYLINE
  8
0
  6
CONTINUOUS
 66
     1
 40
0.014080
 41
0.014080
  0
VERTEX
  8
0
  6
CONTINUOUS
 10
5.046800
 20
7.266160
  0
VERTEX
  8
0
  6
CONTINUOUS
 10
5.047240
 20
7.320280
  0
VERTEX
  8
0
  6
CONTINUOUS
 10
5.044160
 20
7.371320
  0
VERTEX
  8
0
  6
CONTINUOUS
 10
5.037120
 20
7.418840
  0
VERTEX
  8
0
  6
CONTINUOUS
 10
5.027000
 20
7.462840
  0
VERTEX
  8
0
  6
CONTINUOUS
 10
5.013800
 20
7.503760
  0
VERTEX
  8
0
  6
CONTINUOUS
 10
4.997960
 20
7.541160
  0
VERTEX
  8
0
  6
CONTINUOUS
 10
4.968920
 20
7.591760
  0
VERTEX
  8
0
  6
CONTINUOUS
 10
4.934600
 20
7.635320
  0
VERTEX
  8
0
  6
CONTINUOUS
 10
4.909080
 20
7.660840
  0
VERTEX
  8
0
  6
CONTINUOUS
 10
4.867720
 20
7.693840
  0
VERTEX
  8
0
  6
CONTINUOUS
 10
4.822840
 20
7.720240
  0
VERTEX
  8
0
  6
CONTINUOUS
 10
4.775760
 20
7.740920
  0
VERTEX
  8
0
  6
CONTINUOUS
 10
4.726480
 20
7.755880
  0
VERTEX
  8
0
  6
CONTINUOUS
 10
4.693040
 20
7.762480
  0
VERTEX
  8
0
  6
CONTINUOUS
 10
4.659160
 20
7.766880
  0
VERTEX
  8
0
  6
CONTINUOUS
 10
4.625280
 20
7.769080
  0
VERTEX
  8
0
  6
CONTINUOUS
 10
4.591400
 20
7.769080
  0
VERTEX
  8
0
  6
CONTINUOUS
 10
4.557960
 20
7.766880
  0
VERTEX
  8
0
  6
CONTINUOUS
 10
4.525400
 20
7.762480
  0
VERTEX
  8
0
  6
CONTINUOUS
 10
4.493280
 20
7.756320
  0
VERTEX
  8
0
  6
CONTINUOUS
 10
4.462480
 20
7.747960
  0
VERTEX
  8
0
  6
CONTINUOUS
 10
4.432560
 20
7.737840
  0
VERTEX
  8
0
  6
CONTINUOUS
 10
4.377560
 20
7.711880
  0
VERTEX
  8
0
  6
CONTINUOUS
 10
4.341480
 20
7.688120
  0
VERTEX
  8
0
  6
CONTINUOUS
 10
4.309800
 20
7.660840
  0
VERTEX
  8
0
  6
CONTINUOUS
 10
4.283840
 20
7.630040
  0
VERTEX
  8
0
  6
CONTINUOUS
 10
4.276800
 20
7.618160
  0
VERTEX
  8
0
  6
CONTINUOUS
 10
4.151840
 20
7.618160
  0
VERTEX
  8
0
  6
CONTINUOUS
 10
4.151840
 20
7.773920
  0
VERTEX
  8
0
  6
CONTINUOUS
 10
3.596560
 20
7.773920
  0
VERTEX
  8
0
  6
CONTINUOUS
 10
3.596560
 20
6.534880
  0
VERTEX
  8
0
  6
CONTINUOUS
 10
4.543000
 20
6.534880
  0
VERTEX
  8
0
  6
CONTINUOUS
 10
4.543000
 20
7.266160
  0
VERTEX
  8
0
  6
CONTINUOUS
 10
5.046800
 20
7.266160
  0
SEQEND
  8
0
  0
POLYLINE
  8
0
  6
CONTINUOUS
 66
     1
 40
0.014080
 41
0.014080
  0
VERTEX
  8
0
  6
CONTINUOUS
 10
4.622200
 20
6.541480
  0
VERTEX
  8
0
  6
CONTINUOUS
 10
4.622200
 20
6.539720
  0
SEQEND
  8
0
  0
POLYLINE
  8
0
  6
CONTINUOUS
 66
     1
 40
0.014080
 41
0.014080
  0
VERTEX
  8
0
  6
CONTINUOUS
 10
7.606720
 20
6.539720
  0
VERTEX
  8
0
  6
CONTINUOUS
 10
7.606280
 20
6.835400
  0
VERTEX
  8
0
  6
CONTINUOUS
 10
7.605840
 20
6.847280
  0
VERTEX
  8
0
  6
CONTINUOUS
 10
7.597480
 20
6.890840
  0
VERTEX
  8
0
  6
CONTINUOUS
 10
7.582080
 20
6.929120
  0
VERTEX
  8
0
  6
CONTINUOUS
 10
7.560520
 20
6.961680
  0
VERTEX
  8
0
  6
CONTINUOUS
 10
7.533240
 20
6.988520
  0
VERTEX
  8
0
  6
CONTINUOUS
 10
7.502000
 20
7.009640
  0
VERTEX
  8
0
  6
CONTINUOUS
 10
7.467680
 20
7.025040
  0
VERTEX
  8
0
  6
CONTINUOUS
 10
7.430720
 20
7.035160
  0
VERTEX
  8
0
  6
CONTINUOUS
 10
7.411800
 20
7.038240
  0
VERTEX
  8
0
  6
CONTINUOUS
 10
7.373080
 20
7.040000
  0
VERTEX
  8
0
  6
CONTINUOUS
 10
7.334800
 20
7.036040
  0
VERTEX
  8
0
  6
CONTINUOUS
 10
7.297400
 20
7.026800
  0
VERTEX
  8
0
  6
CONTINUOUS
 10
7.279360
 20
7.020200
  0
VERTEX
  8
0
  6
CONTINUOUS
 10
7.245920
 20
7.002600
  0
VERTEX
  8
0
  6
CONTINUOUS
 10
7.230080
 20
6.992040
  0
VERTEX
  8
0
  6
CONTINUOUS
 10
7.201920
 20
6.966080
  0
VERTEX
  8
0
  6
CONTINUOUS
 10
7.179040
 20
6.935280
  0
VERTEX
  8
0
  6
CONTINUOUS
 10
7.169800
 20
6.917680
  0
VERTEX
  8
0
  6
CONTINUOUS
 10
7.162320
 20
6.898760
  0
VERTEX
  8
0
  6
CONTINUOUS
 10
7.037800
 20
6.985000
  0
VERTEX
  8
0
  6
CONTINUOUS
 10
6.945400
 20
6.946720
  0
VERTEX
  8
0
  6
CONTINUOUS
 10
6.852120
 20
6.914160
  0
VERTEX
  8
0
  6
CONTINUOUS
 10
6.790080
 20
6.895680
  0
VERTEX
  8
0
  6
CONTINUOUS
 10
6.727160
 20
6.879840
  0
VERTEX
  8
0
  6
CONTINUOUS
 10
6.664680
 20
6.866640
  0
VERTEX
  8
0
  6
CONTINUOUS
 10
6.602200
 20
6.855640
  0
VERTEX
  8
0
  6
CONTINUOUS
 10
6.539280
 20
6.847280
  0
VERTEX
  8
0
  6
CONTINUOUS
 10
6.476800
 20
6.841120
  0
VERTEX
  8
0
  6
CONTINUOUS
 10
6.414320
 20
6.837600
  0
VERTEX
  8
0
  6
CONTINUOUS
 10
6.351840
 20
6.836720
  0
VERTEX
  8
0
  6
CONTINUOUS
 10
6.289800
 20
6.838040
  0
VERTEX
  8
0
  6
CONTINUOUS
 10
6.228200
 20
6.841560
  0
VERTEX
  8
0
  6
CONTINUOUS
 10
6.167040
 20
6.847720
  0
VERTEX
  8
0
  6
CONTINUOUS
 10
6.105880
 20
6.856520
  0
VERTEX
  8
0
  6
CONTINUOUS
 10
6.045600
 20
6.867080
  0
VERTEX
  8
0
  6
CONTINUOUS
 10
5.985760
 20
6.880280
  0
VERTEX
  8
0
  6
CONTINUOUS
 10
5.926360
 20
6.895680
  0
VERTEX
  8
0
  6
CONTINUOUS
 10
5.867840
 20
6.913720
  0
VERTEX
  8
0
  6
CONTINUOUS
 10
5.810200
 20
6.933520
  0
VERTEX
  8
0
  6
CONTINUOUS
 10
5.753000
 20
6.955960
  0
VERTEX
  8
0
  6
CONTINUOUS
 10
5.696680
 20
6.980600
  0
VERTEX
  8
0
  6
CONTINUOUS
 10
5.614400
 20
7.021520
  0
VERTEX
  8
0
  6
CONTINUOUS
 10
5.560280
 20
7.051440
  0
VERTEX
  8
0
  6
CONTINUOUS
 10
5.481520
 20
7.100720
  0
VERTEX
  8
0
  6
CONTINUOUS
 10
5.405400
 20
7.155280
  0
VERTEX
  8
0
  6
CONTINUOUS
 10
5.332360
 20
7.214240
  0
VERTEX
  8
0
  6
CONTINUOUS
 10
5.261960
 20
7.277600
  0
VERTEX
  8
0
  6
CONTINUOUS
 10
5.194640
 20
7.346240
  0
VERTEX
  8
0
  6
CONTINUOUS
 10
5.048560
 20
7.273200
  0
VERTEX
  8
0
  6
CONTINUOUS
 10
4.545200
 20
7.273200
  0
VERTEX
  8
0
  6
CONTINUOUS
 10
4.545200
 20
6.534440
  0
VERTEX
  8
0
  6
CONTINUOUS
 10
7.609360
 20
6.534440
  0
VERTEX
  8
0
  6
CONTINUOUS
 10
7.606720
 20
6.539720
  0
SEQEND
  8
0
  0
TEXT
  8
0
 10
0.878680
 20
3.453560
 40
0.138143
  1
BA  1015 1-1/4" x 1-1/2"
 41
1.000000
  7
SN0
 71
     0
 72
     5
 11
2.655682
 21
3.453560
  0
TEXT
  8
0
 10
0.878680
 20
3.261720
 40
0.138143
  1
BA  1016 13/16" x 3-1/16"
 41
1.000000
  7
SN0
 71
     0
 72
     5
 11
2.785139
 21
3.261720
  0
LINE
  8
0
  6
CONTINUOUS
 10
1.000120
 20
6.728480
 11
0.998360
 21
6.728480
  0
SOLID
  8
0
 62
    15
 10
1.443200
 20
4.313320
 11
2.194720
 21
4.312880
 12
1.357400
 22
4.188360
 13
2.108920
 23
4.187920
  0
POLYLINE
  8
0
  6
CONTINUOUS
 66
     1
 40
0.000000
 41
0.000000
  0
VERTEX
  8
0
  6
CONTINUOUS
 10
1.443200
 20
4.313320
  0
VERTEX
  8
0
  6
CONTINUOUS
 10
2.194720
 20
4.312880
  0
VERTEX
  8
0
  6
CONTINUOUS
 10
2.108920
 20
4.187920
  0
VERTEX
  8
0
  6
CONTINUOUS
 10
1.357400
 20
4.188360
  0
VERTEX
  8
0
  6
CONTINUOUS
 10
1.443200
 20
4.313320
  0
SEQEND
  8
0
  0
SOLID
  8
0
 62
    15
 10
1.731400
 20
6.302560
 11
2.483360
 21
6.302120
 12
1.804880
 22
6.156040
 13
2.556400
 23
6.155600
  0
POLYLINE
  8
0
  6
CONTINUOUS
 66
     1
 40
0.000000
 41
0.000000
  0
VERTEX
  8
0
  6
CONTINUOUS
 10
1.731400
 20
6.302560
  0
VERTEX
  8
0
  6
CONTINUOUS
 10
2.483360
 20
6.302120
  0
VERTEX
  8
0
  6
CONTINUOUS
 10
2.556400
 20
6.155600
  0
VERTEX
  8
0
  6
CONTINUOUS
 10
1.804880
 20
6.156040
  0
VERTEX
  8
0
  6
CONTINUOUS
 10
1.731400
 20
6.302560
  0
SEQEND
  8
0
  0
SOLID
  8
0
 62
    15
 10
1.804880
 20
6.156040
 11
2.556400
 21
6.155600
 12
1.714680
 22
6.065840
 13
2.466200
 23
6.065400
  0
POLYLINE
  8
0
  6
CONTINUOUS
 66
     1
 40
0.000000
 41
0.000000
  0
VERTEX
  8
0
  6
CONTINUOUS
 10
1.804880
 20
6.156040
  0
VERTEX
  8
0
  6
CONTINUOUS
 10
2.556400
 20
6.155600
  0
VERTEX
  8
0
  6
CONTINUOUS
 10
2.466200
 20
6.065400
  0
VERTEX
  8
0
  6
CONTINUOUS
 10
1.714680
 20
6.065840
  0
VERTEX
  8
0
  6
CONTINUOUS
 10
1.804880
 20
6.156040
  0
SEQEND
  8
0
  0
SOLID
  8
0
 62
    15
 10
1.714680
 20
6.065840
 11
2.466200
 21
6.065400
 12
1.632840
 22
5.969920
 13
2.384360
 23
5.969480
  0
POLYLINE
  8
0
  6
CONTINUOUS
 66
     1
 40
0.000000
 41
0.000000
  0
VERTEX
  8
0
  6
CONTINUOUS
 10
1.714680
 20
6.065840
  0
VERTEX
  8
0
  6
CONTINUOUS
 10
2.466200
 20
6.065400
  0
VERTEX
  8
0
  6
CONTINUOUS
 10
2.384360
 20
5.969480
  0
VERTEX
  8
0
  6
CONTINUOUS
 10
1.632840
 20
5.969920
  0
VERTEX
  8
0
  6
CONTINUOUS
 10
1.714680
 20
6.065840
  0
SEQEND
  8
0
  0
SOLID
  8
0
 62
    15
 10
1.632840
 20
5.969920
 11
2.384360
 21
5.969480
 12
1.559360
 22
5.869160
 13
2.310880
 23
5.868720
  0
POLYLINE
  8
0
  6
CONTINUOUS
 66
     1
 40
0.000000
 41
0.000000
  0
VERTEX
  8
0
  6
CONTINUOUS
 10
1.632840
 20
5.969920
  0
VERTEX
  8
0
  6
CONTINUOUS
 10
2.384360
 20
5.969480
  0
VERTEX
  8
0
  6
CONTINUOUS
 10
2.310880
 20
5.868720
  0
VERTEX
  8
0
  6
CONTINUOUS
 10
1.559360
 20
5.869160
  0
VERTEX
  8
0
  6
CONTINUOUS
 10
1.632840
 20
5.969920
  0
SEQEND
  8
0
  0
SOLID
  8
0
 62
    15
 10
1.559360
 20
5.869160
 11
2.310880
 21
5.868720
 12
1.494680
 22
5.763560
 13
2.246200
 23
5.763120
  0
POLYLINE
  8
0
  6
CONTINUOUS
 66
     1
 40
0.000000
 41
0.000000
  0
VERTEX
  8
0
  6
CONTINUOUS
 10
1.559360
 20
5.869160
  0
VERTEX
  8
0
  6
CONTINUOUS
 10
2.310880
 20
5.868720
  0
VERTEX
  8
0
  6
CONTINUOUS
 10
2.246200
 20
5.763120
  0
VERTEX
  8
0
  6
CONTINUOUS
 10
1.494680
 20
5.763560
  0
VERTEX
  8
0
  6
CONTINUOUS
 10
1.559360
 20
5.869160
  0
SEQEND
  8
0
  0
SOLID
  8
0
 62
    15
 10
1.494680
 20
5.763560
 11
2.246200
 21
5.763120
 12
1.438800
 22
5.654000
 13
2.190320
 23
5.653560
  0
POLYLINE
  8
0
  6
CONTINUOUS
 66
     1
 40
0.000000
 41
0.000000
  0
VERTEX
  8
0
  6
CONTINUOUS
 10
1.494680
 20
5.763560
  0
VERTEX
  8
0
  6
CONTINUOUS
 10
2.246200
 20
5.763120
  0
VERTEX
  8
0
  6
CONTINUOUS
 10
2.190320
 20
5.653560
  0
VERTEX
  8
0
  6
CONTINUOUS
 10
1.438800
 20
5.654000
  0
VERTEX
  8
0
  6
CONTINUOUS
 10
1.494680
 20
5.763560
  0
SEQEND
  8
0
  0
SOLID
  8
0
 62
    15
 10
1.438800
 20
5.654000
 11
2.190320
 21
5.653560
 12
1.392160
 22
5.540920
 13
2.143680
 23
5.540480
  0
POLYLINE
  8
0
  6
CONTINUOUS
 66
     1
 40
0.000000
 41
0.000000
  0
VERTEX
  8
0
  6
CONTINUOUS
 10
1.438800
 20
5.654000
  0
VERTEX
  8
0
  6
CONTINUOUS
 10
2.190320
 20
5.653560
  0
VERTEX
  8
0
  6
CONTINUOUS
 10
2.143680
 20
5.540480
  0
VERTEX
  8
0
  6
CONTINUOUS
 10
1.392160
 20
5.540920
  0
VERTEX
  8
0
  6
CONTINUOUS
 10
1.438800
 20
5.654000
  0
SEQEND
  8
0
  0
SOLID
  8
0
 62
    15
 10
1.392160
 20
5.540920
 11
2.143680
 21
5.540480
 12
1.353880
 22
5.424320
 13
2.105840
 23
5.423880
  0
POLYLINE
  8
0
  6
CONTINUOUS
 66
     1
 40
0.000000
 41
0.000000
  0
VERTEX
  8
0
  6
CONTINUOUS
 10
1.392160
 20
5.540920
  0
VERTEX
  8
0
  6
CONTINUOUS
 10
2.143680
 20
5.540480
  0
VERTEX
  8
0
  6
CONTINUOUS
 10
2.105840
 20
5.423880
  0
VERTEX
  8
0
  6
CONTINUOUS
 10
1.353880
 20
5.424320
  0
VERTEX
  8
0
  6
CONTINUOUS
 10
1.392160
 20
5.540920
  0
SEQEND
  8
0
  0
SOLID
  8
0
 62
    15
 10
1.353880
 20
5.424320
 11
2.105840
 21
5.423880
 12
1.325280
 22
5.305520
 13
2.077240
 23
5.304640
  0
POLYLINE
  8
0
  6
CONTINUOUS
 66
     1
 40
0.000000
 41
0.000000
  0
VERTEX
  8
0
  6
CONTINUOUS
 10
1.353880
 20
5.424320
  0
VERTEX
  8
0
  6
CONTINUOUS
 10
2.105840
 20
5.423880
  0
VERTEX
  8
0
  6
CONTINUOUS
 10
2.077240
 20
5.304640
  0
VERTEX
  8
0
  6
CONTINUOUS
 10
1.325280
 20
5.305520
  0
VERTEX
  8
0
  6
CONTINUOUS
 10
1.353880
 20
5.424320
  0
SEQEND
  8
0
  0
SOLID
  8
0
 62
    15
 10
1.325280
 20
5.305520
 11
2.077240
 21
5.304640
 12
1.306360
 22
5.184080
 13
2.057880
 23
5.183640
  0
POLYLINE
  8
0
  6
CONTINUOUS
 66
     1
 40
0.000000
 41
0.000000
  0
VERTEX
  8
0
  6
CONTINUOUS
 10
1.325280
 20
5.305520
  0
VERTEX
  8
0
  6
CONTINUOUS
 10
2.077240
 20
5.304640
  0
VERTEX
  8
0
  6
CONTINUOUS
 10
2.057880
 20
5.183640
  0
VERTEX
  8
0
  6
CONTINUOUS
 10
1.306360
 20
5.184080
  0
VERTEX
  8
0
  6
CONTINUOUS
 10
1.325280
 20
5.305520
  0
SEQEND
  8
0
  0
SOLID
  8
0
 62
    15
 10
1.306360
 20
5.184080
 11
2.057880
 21
5.183640
 12
1.296240
 22
5.060880
 13
2.047760
 23
5.060440
  0
POLYLINE
  8
0
  6
CONTINUOUS
 66
     1
 40
0.000000
 41
0.000000
  0
VERTEX
  8
0
  6
CONTINUOUS
 10
1.306360
 20
5.184080
  0
VERTEX
  8
0
  6
CONTINUOUS
 10
2.057880
 20
5.183640
  0
VERTEX
  8
0
  6
CONTINUOUS
 10
2.047760
 20
5.060440
  0
VERTEX
  8
0
  6
CONTINUOUS
 10
1.296240
 20
5.060880
  0
VERTEX
  8
0
  6
CONTINUOUS
 10
1.306360
 20
5.184080
  0
SEQEND
  8
0
  0
SOLID
  8
0
 62
    15
 10
1.296240
 20
5.060880
 11
2.047760
 21
5.060440
 12
1.296240
 22
4.936800
 13
2.047760
 23
4.935920
  0
POLYLINE
  8
0
  6
CONTINUOUS
 66
     1
 40
0.000000
 41
0.000000
  0
VERTEX
  8
0
  6
CONTINUOUS
 10
1.296240
 20
5.060880
  0
VERTEX
  8
0
  6
CONTINUOUS
 10
2.047760
 20
5.060440
  0
VERTEX
  8
0
  6
CONTINUOUS
 10
2.047760
 20
4.935920
  0
VERTEX
  8
0
  6
CONTINUOUS
 10
1.296240
 20
4.936800
  0
VERTEX
  8
0
  6
CONTINUOUS
 10
1.296240
 20
5.060880
  0
SEQEND
  8
0
  0
SOLID
  8
0
 62
    15
 10
1.296240
 20
4.936800
 11
2.047760
 21
4.935920
 12
1.305480
 22
4.811840
 13
2.057000
 23
4.810960
  0
POLYLINE
  8
0
  6
CONTINUOUS
 66
     1
 40
0.000000
 41
0.000000
  0
VERTEX
  8
0
  6
CONTINUOUS
 10
1.296240
 20
4.936800
  0
VERTEX
  8
0
  6
CONTINUOUS
 10
2.047760
 20
4.935920
  0
VERTEX
  8
0
  6
CONTINUOUS
 10
2.057000
 20
4.810960
  0
VERTEX
  8
0
  6
CONTINUOUS
 10
1.305480
 20
4.811840
  0
VERTEX
  8
0
  6
CONTINUOUS
 10
1.296240
 20
4.936800
  0
SEQEND
  8
0
  0
SOLID
  8
0
 62
    15
 10
1.305480
 20
4.811840
 11
2.057000
 21
4.810960
 12
1.324840
 22
4.686440
 13
2.076360
 23
4.685560
  0
POLYLINE
  8
0
  6
CONTINUOUS
 66
     1
 40
0.000000
 41
0.000000
  0
VERTEX
  8
0
  6
CONTINUOUS
 10
1.305480
 20
4.811840
  0
VERTEX
  8
0
  6
CONTINUOUS
 10
2.057000
 20
4.810960
  0
VERTEX
  8
0
  6
CONTINUOUS
 10
2.076360
 20
4.685560
  0
VERTEX
  8
0
  6
CONTINUOUS
 10
1.324840
 20
4.686440
  0
VERTEX
  8
0
  6
CONTINUOUS
 10
1.305480
 20
4.811840
  0
SEQEND
  8
0
  0
SOLID
  8
0
 62
    15
 10
1.324840
 20
4.686440
 11
2.076360
 21
4.685560
 12
1.354320
 22
4.561040
 13
2.105840
 23
4.560600
  0
POLYLINE
  8
0
  6
CONTINUOUS
 66
     1
 40
0.000000
 41
0.000000
  0
VERTEX
  8
0
  6
CONTINUOUS
 10
1.324840
 20
4.686440
  0
VERTEX
  8
0
  6
CONTINUOUS
 10
2.076360
 20
4.685560
  0
VERTEX
  8
0
  6
CONTINUOUS
 10
2.105840
 20
4.560600
  0
VERTEX
  8
0
  6
CONTINUOUS
 10
1.354320
 20
4.561040
  0
VERTEX
  8
0
  6
CONTINUOUS
 10
1.324840
 20
4.686440
  0
SEQEND
  8
0
  0
SOLID
  8
0
 62
    15
 10
1.354320
 20
4.561040
 11
2.105840
 21
4.560600
 12
1.393480
 22
4.436520
 13
2.145000
 23
4.436080
  0
POLYLINE
  8
0
  6
CONTINUOUS
 66
     1
 40
0.000000
 41
0.000000
  0
VERTEX
  8
0
  6
CONTINUOUS
 10
1.354320
 20
4.561040
  0
VERTEX
  8
0
  6
CONTINUOUS
 10
2.105840
 20
4.560600
  0
VERTEX
  8
0
  6
CONTINUOUS
 10
2.145000
 20
4.436080
  0
VERTEX
  8
0
  6
CONTINUOUS
 10
1.393480
 20
4.436520
  0
VERTEX
  8
0
  6
CONTINUOUS
 10
1.354320
 20
4.561040
  0
SEQEND
  8
0
  0
SOLID
  8
0
 62
    15
 10
1.393480
 20
4.436520
 11
2.145000
 21
4.436080
 12
1.443200
 22
4.313320
 13
2.194720
 23
4.312880
  0
POLYLINE
  8
0
  6
CONTINUOUS
 66
     1
 40
0.000000
 41
0.000000
  0
VERTEX
  8
0
  6
CONTINUOUS
 10
1.393480
 20
4.436520
  0
VERTEX
  8
0
  6
CONTINUOUS
 10
2.145000
 20
4.436080
  0
VERTEX
  8
0
  6
CONTINUOUS
 10
2.194720
 20
4.312880
  0
VERTEX
  8
0
  6
CONTINUOUS
 10
1.443200
 20
4.313320
  0
VERTEX
  8
0
  6
CONTINUOUS
 10
1.393480
 20
4.436520
  0
SEQEND
  8
0
  0
SOLID
  8
0
 62
    15
 10
1.731400
 20
6.805480
 11
2.483360
 21
6.805040
 12
1.731400
 22
6.302560
 13
2.483360
 23
6.302120
  0
POLYLINE
  8
0
  6
CONTINUOUS
 66
     1
 40
0.000000
 41
0.000000
  0
VERTEX
  8
0
  6
CONTINUOUS
 10
1.731400
 20
6.805480
  0
VERTEX
  8
0
  6
CONTINUOUS
 10
2.483360
 20
6.805040
  0
VERTEX
  8
0
  6
CONTINUOUS
 10
2.483360
 20
6.302120
  0
VERTEX
  8
0
  6
CONTINUOUS
 10
1.731400
 20
6.302560
  0
VERTEX
  8
0
  6
CONTINUOUS
 10
1.731400
 20
6.805480
  0
SEQEND
  8
0
  0
SOLID
  8
0
 62
    15
 10
1.357400
 20
4.188360
 11
2.108920
 21
4.187920
 12
1.393480
 22
4.171640
 13
2.145000
 23
4.171200
  0
POLYLINE
  8
0
  6
CONTINUOUS
 66
     1
 40
0.000000
 41
0.000000
  0
VERTEX
  8
0
  6
CONTINUOUS
 10
1.357400
 20
4.188360
  0
VERTEX
  8
0
  6
CONTINUOUS
 10
2.108920
 20
4.187920
  0
VERTEX
  8
0
  6
CONTINUOUS
 10
2.145000
 20
4.171200
  0
VERTEX
  8
0
  6
CONTINUOUS
 10
1.393480
 20
4.171640
  0
VERTEX
  8
0
  6
CONTINUOUS
 10
1.357400
 20
4.188360
  0
SEQEND
  8
0
  0
SOLID
  8
0
 62
    15
 10
1.393480
 20
4.171640
 11
2.145000
 21
4.171200
 12
1.424720
 22
4.148760
 13
2.176240
 23
4.148320
  0
POLYLINE
  8
0
  6
CONTINUOUS
 66
     1
 40
0.000000
 41
0.000000
  0
VERTEX
  8
0
  6
CONTINUOUS
 10
1.393480
 20
4.171640
  0
VERTEX
  8
0
  6
CONTINUOUS
 10
2.145000
 20
4.171200
  0
VERTEX
  8
0
  6
CONTINUOUS
 10
2.176240
 20
4.148320
  0
VERTEX
  8
0
  6
CONTINUOUS
 10
1.424720
 20
4.148760
  0
VERTEX
  8
0
  6
CONTINUOUS
 10
1.393480
 20
4.171640
  0
SEQEND
  8
0
  0
SOLID
  8
0
 62
    15
 10
1.424720
 20
4.148760
 11
2.176240
 21
4.148320
 12
1.450240
 22
4.121040
 13
2.201760
 23
4.120160
  0
POLYLINE
  8
0
  6
CONTINUOUS
 66
     1
 40
0.000000
 41
0.000000
  0
VERTEX
  8
0
  6
CONTINUOUS
 10
1.424720
 20
4.148760
  0
VERTEX
  8
0
  6
CONTINUOUS
 10
2.176240
 20
4.148320
  0
VERTEX
  8
0
  6
CONTINUOUS
 10
2.201760
 20
4.120160
  0
VERTEX
  8
0
  6
CONTINUOUS
 10
1.450240
 20
4.121040
  0
VERTEX
  8
0
  6
CONTINUOUS
 10
1.424720
 20
4.148760
  0
SEQEND
  8
0
  0
SOLID
  8
0
 62
    15
 10
1.450240
 20
4.121040
 11
2.201760
 21
4.120160
 12
1.470480
 22
4.088920
 13
2.222000
 23
4.088480
  0
POLYLINE
  8
0
  6
CONTINUOUS
 66
     1
 40
0.000000
 41
0.000000
  0
VERTEX
  8
0
  6
CONTINUOUS
 10
1.450240
 20
4.121040
  0
VERTEX
  8
0
  6
CONTINUOUS
 10
2.201760
 20
4.120160
  0
VERTEX
  8
0
  6
CONTINUOUS
 10
2.222000
 20
4.088480
  0
VERTEX
  8
0
  6
CONTINUOUS
 10
1.470480
 20
4.088920
  0
VERTEX
  8
0
  6
CONTINUOUS
 10
1.450240
 20
4.121040
  0
SEQEND
  8
0
  0
SOLID
  8
0
 62
    15
 10
1.470480
 20
4.088920
 11
2.222000
 21
4.088480
 12
1.485000
 22
4.053720
 13
2.236520
 23
4.053280
  0
POLYLINE
  8
0
  6
CONTINUOUS
 66
     1
 40
0.000000
 41
0.000000
  0
VERTEX
  8
0
  6
CONTINUOUS
 10
1.470480
 20
4.088920
  0
VERTEX
  8
0
  6
CONTINUOUS
 10
2.222000
 20
4.088480
  0
VERTEX
  8
0
  6
CONTINUOUS
 10
2.236520
 20
4.053280
  0
VERTEX
  8
0
  6
CONTINUOUS
 10
1.485000
 20
4.053720
  0
VERTEX
  8
0
  6
CONTINUOUS
 10
1.470480
 20
4.088920
  0
SEQEND
  8
0
  0
SOLID
  8
0
 62
    15
 10
1.485000
 20
4.053720
 11
2.236520
 21
4.053280
 12
1.494240
 22
4.016320
 13
2.246200
 23
4.015880
  0
POLYLINE
  8
0
  6
CONTINUOUS
 66
     1
 40
0.000000
 41
0.000000
  0
VERTEX
  8
0
  6
CONTINUOUS
 10
1.485000
 20
4.053720
  0
VERTEX
  8
0
  6
CONTINUOUS
 10
2.236520
 20
4.053280
  0
VERTEX
  8
0
  6
CONTINUOUS
 10
2.246200
 20
4.015880
  0
VERTEX
  8
0
  6
CONTINUOUS
 10
1.494240
 20
4.016320
  0
VERTEX
  8
0
  6
CONTINUOUS
 10
1.485000
 20
4.053720
  0
SEQEND
  8
0
  0
SOLID
  8
0
 62
    15
 10
1.494240
 20
4.016320
 11
2.246200
 21
4.015880
 12
1.498200
 22
3.978040
 13
2.249720
 23
3.977600
  0
POLYLINE
  8
0
  6
CONTINUOUS
 66
     1
 40
0.000000
 41
0.000000
  0
VERTEX
  8
0
  6
CONTINUOUS
 10
1.494240
 20
4.016320
  0
VERTEX
  8
0
  6
CONTINUOUS
 10
2.246200
 20
4.015880
  0
VERTEX
  8
0
  6
CONTINUOUS
 10
2.249720
 20
3.977600
  0
VERTEX
  8
0
  6
CONTINUOUS
 10
1.498200
 20
3.978040
  0
VERTEX
  8
0
  6
CONTINUOUS
 10
1.494240
 20
4.016320
  0
SEQEND
  8
0
  0
SOLID
  8
0
 62
    15
 10
1.498200
 20
3.978040
 11
2.249720
 21
3.977600
 12
1.496440
 22
3.939320
 13
2.247960
 23
3.938880
  0
POLYLINE
  8
0
  6
CONTINUOUS
 66
     1
 40
0.000000
 41
0.000000
  0
VERTEX
  8
0
  6
CONTINUOUS
 10
1.498200
 20
3.978040
  0
VERTEX
  8
0
  6
CONTINUOUS
 10
2.249720
 20
3.977600
  0
VERTEX
  8
0
  6
CONTINUOUS
 10
2.247960
 20
3.938880
  0
VERTEX
  8
0
  6
CONTINUOUS
 10
1.496440
 20
3.939320
  0
VERTEX
  8
0
  6
CONTINUOUS
 10
1.498200
 20
3.978040
  0
SEQEND
  8
0
  0
SOLID
  8
0
 62
    15
 10
1.496440
 20
3.939320
 11
2.247960
 21
3.938880
 12
1.489400
 22
3.901920
 13
2.240920
 23
3.901480
  0
POLYLINE
  8
0
  6
CONTINUOUS
 66
     1
 40
0.000000
 41
0.000000
  0
VERTEX
  8
0
  6
CONTINUOUS
 10
1.496440
 20
3.939320
  0
VERTEX
  8
0
  6
CONTINUOUS
 10
2.247960
 20
3.938880
  0
VERTEX
  8
0
  6
CONTINUOUS
 10
2.240920
 20
3.901480
  0
VERTEX
  8
0
  6
CONTINUOUS
 10
1.489400
 20
3.901920
  0
VERTEX
  8
0
  6
CONTINUOUS
 10
1.496440
 20
3.939320
  0
SEQEND
  8
0
  0
SOLID
  8
0
 62
    15
 10
1.489400
 20
3.901920
 11
2.240920
 21
3.901480
 12
1.476200
 22
3.865840
 13
2.228160
 23
3.865400
  0
POLYLINE
  8
0
  6
CONTINUOUS
 66
     1
 40
0.000000
 41
0.000000
  0
VERTEX
  8
0
  6
CONTINUOUS
 10
1.489400
 20
3.901920
  0
VERTEX
  8
0
  6
CONTINUOUS
 10
2.240920
 20
3.901480
  0
VERTEX
  8
0
  6
CONTINUOUS
 10
2.228160
 20
3.865400
  0
VERTEX
  8
0
  6
CONTINUOUS
 10
1.476200
 20
3.865840
  0
VERTEX
  8
0
  6
CONTINUOUS
 10
1.489400
 20
3.901920
  0
SEQEND
  8
0
  0
SOLID
  8
0
 62
    15
 10
1.476200
 20
3.865840
 11
2.228160
 21
3.865400
 12
1.458160
 22
3.832840
 13
2.209680
 23
3.832400
  0
POLYLINE
  8
0
  6
CONTINUOUS
 66
     1
 40
0.000000
 41
0.000000
  0
VERTEX
  8
0
  6
CONTINUOUS
 10
1.476200
 20
3.865840
  0
VERTEX
  8
0
  6
CONTINUOUS
 10
2.228160
 20
3.865400
  0
VERTEX
  8
0
  6
CONTINUOUS
 10
2.209680
 20
3.832400
  0
VERTEX
  8
0
  6
CONTINUOUS
 10
1.458160
 20
3.832840
  0
VERTEX
  8
0
  6
CONTINUOUS
 10
1.476200
 20
3.865840
  0
SEQEND
  8
0
  0
SOLID
  8
0
 62
    15
 10
1.458160
 20
3.832840
 11
2.209680
 21
3.832400
 12
1.433960
 22
3.803800
 13
2.185480
 23
3.803360
  0
POLYLINE
  8
0
  6
CONTINUOUS
 66
     1
 40
0.000000
 41
0.000000
  0
VERTEX
  8
0
  6
CONTINUOUS
 10
1.458160
 20
3.832840
  0
VERTEX
  8
0
  6
CONTINUOUS
 10
2.209680
 20
3.832400
  0
VERTEX
  8
0
  6
CONTINUOUS
 10
2.185480
 20
3.803360
  0
VERTEX
  8
0
  6
CONTINUOUS
 10
1.433960
 20
3.803800
  0
VERTEX
  8
0
  6
CONTINUOUS
 10
1.458160
 20
3.832840
  0
SEQEND
  8
0
  0
SOLID
  8
0
 62
    15
 10
1.433960
 20
3.803800
 11
2.185480
 21
3.803360
 12
1.404480
 22
3.779160
 13
2.156000
 23
3.778720
  0
POLYLINE
  8
0
  6
CONTINUOUS
 66
     1
 40
0.000000
 41
0.000000
  0
VERTEX
  8
0
  6
CONTINUOUS
 10
1.433960
 20
3.803800
  0
VERTEX
  8
0
  6
CONTINUOUS
 10
2.185480
 20
3.803360
  0
VERTEX
  8
0
  6
CONTINUOUS
 10
2.156000
 20
3.778720
  0
VERTEX
  8
0
  6
CONTINUOUS
 10
1.404480
 20
3.779160
  0
VERTEX
  8
0
  6
CONTINUOUS
 10
1.433960
 20
3.803800
  0
SEQEND
  8
0
  0
SOLID
  8
0
 62
    15
 10
1.404480
 20
3.779160
 11
2.156000
 21
3.778720
 12
1.369280
 22
3.760680
 13
2.120800
 23
3.760240
  0
POLYLINE
  8
0
  6
CONTINUOUS
 66
     1
 40
0.000000
 41
0.000000
  0
VERTEX
  8
0
  6
CONTINUOUS
 10
1.404480
 20
3.779160
  0
VERTEX
  8
0
  6
CONTINUOUS
 10
2.156000
 20
3.778720
  0
VERTEX
  8
0
  6
CONTINUOUS
 10
2.120800
 20
3.760240
  0
VERTEX
  8
0
  6
CONTINUOUS
 10
1.369280
 20
3.760680
  0
VERTEX
  8
0
  6
CONTINUOUS
 10
1.404480
 20
3.779160
  0
SEQEND
  8
0
  0
SOLID
  8
0
 62
    15
 10
1.328360
 20
3.748800
 11
2.079880
 21
3.747920
 12
1.281720
 22
3.744400
 13
2.033240
 23
3.743960
  0
POLYLINE
  8
0
  6
CONTINUOUS
 66
     1
 40
0.000000
 41
0.000000
  0
VERTEX
  8
0
  6
CONTINUOUS
 10
1.328360
 20
3.748800
  0
VERTEX
  8
0
  6
CONTINUOUS
 10
2.079880
 20
3.747920
  0
VERTEX
  8
0
  6
CONTINUOUS
 10
2.033240
 20
3.743960
  0
VERTEX
  8
0
  6
CONTINUOUS
 10
1.281720
 20
3.744400
  0
VERTEX
  8
0
  6
CONTINUOUS
 10
1.328360
 20
3.748800
  0
SEQEND
  8
0
  0
SOLID
  8
0
 62
    15
 10
1.369280
 20
3.760680
 11
2.120800
 21
3.760240
 12
1.328360
 22
3.748800
 13
2.079880
 23
3.747920
  0
POLYLINE
  8
0
  6
CONTINUOUS
 66
     1
 40
0.000000
 41
0.000000
  0
VERTEX
  8
0
  6
CONTINUOUS
 10
1.369280
 20
3.760680
  0
VERTEX
  8
0
  6
CONTINUOUS
 10
2.120800
 20
3.760240
  0
VERTEX
  8
0
  6
CONTINUOUS
 10
2.079880
 20
3.747920
  0
VERTEX
  8
0
  6
CONTINUOUS
 10
1.328360
 20
3.748800
  0
VERTEX
  8
0
  6
CONTINUOUS
 10
1.369280
 20
3.760680
  0
SEQEND
  8
0
  0
SOLID
  8
0
 62
    15
 10
0.998360
 20
3.744400
 11
1.749880
 21
3.743960
 12
0.992640
 22
3.741320
 13
1.744600
 23
3.740880
  0
POLYLINE
  8
0
  6
CONTINUOUS
 66
     1
 40
0.000000
 41
0.000000
  0
VERTEX
  8
0
  6
CONTINUOUS
 10
0.998360
 20
3.744400
  0
VERTEX
  8
0
  6
CONTINUOUS
 10
1.749880
 20
3.743960
  0
VERTEX
  8
0
  6
CONTINUOUS
 10
1.744600
 20
3.740880
  0
VERTEX
  8
0
  6
CONTINUOUS
 10
0.992640
 20
3.741320
  0
VERTEX
  8
0
  6
CONTINUOUS
 10
0.998360
 20
3.744400
  0
SEQEND
  8
0
  0
SOLID
  8
0
 62
    15
 10
1.281720
 20
3.744400
 11
2.033240
 21
3.743960
 12
0.998360
 22
3.744400
 13
1.749880
 23
3.743960
  0
POLYLINE
  8
0
  6
CONTINUOUS
 66
     1
 40
0.000000
 41
0.000000
  0
VERTEX
  8
0
  6
CONTINUOUS
 10
1.281720
 20
3.744400
  0
VERTEX
  8
0
  6
CONTINUOUS
 10
2.033240
 20
3.743960
  0
VERTEX
  8
0
  6
CONTINUOUS
 10
1.749880
 20
3.743960
  0
VERTEX
  8
0
  6
CONTINUOUS
 10
0.998360
 20
3.744400
  0
VERTEX
  8
0
  6
CONTINUOUS
 10
1.281720
 20
3.744400
  0
SEQEND
  8
0
  0
POLYLINE
  8
0
  6
CONTINUOUS
 66
     1
 40
0.000000
 41
0.000000
  0
VERTEX
  8
0
  6
CONTINUOUS
 10
0.992640
 20
3.741320
  0
VERTEX
  8
0
  6
CONTINUOUS
 10
0.992640
 20
6.805480
  0
VERTEX
  8
0
  6
CONTINUOUS
 10
1.731400
 20
6.805480
  0
VERTEX
  8
0
  6
CONTINUOUS
 10
1.731400
 20
6.302560
  0
VERTEX
  8
0
  6
CONTINUOUS
 10
1.804880
 20
6.156040
  0
VERTEX
  8
0
  6
CONTINUOUS
 10
1.714680
 20
6.065840
  0
VERTEX
  8
0
  6
CONTINUOUS
 10
1.632840
 20
5.969920
  0
VERTEX
  8
0
  6
CONTINUOUS
 10
1.559360
 20
5.869160
  0
VERTEX
  8
0
  6
CONTINUOUS
 10
1.494680
 20
5.763560
  0
VERTEX
  8
0
  6
CONTINUOUS
 10
1.438800
 20
5.654000
  0
VERTEX
  8
0
  6
CONTINUOUS
 10
1.392160
 20
5.540920
  0
VERTEX
  8
0
  6
CONTINUOUS
 10
1.353880
 20
5.424320
  0
VERTEX
  8
0
  6
CONTINUOUS
 10
1.325280
 20
5.305520
  0
VERTEX
  8
0
  6
CONTINUOUS
 10
1.306360
 20
5.184080
  0
VERTEX
  8
0
  6
CONTINUOUS
 10
1.296240
 20
5.060880
  0
VERTEX
  8
0
  6
CONTINUOUS
 10
1.296240
 20
4.936800
  0
VERTEX
  8
0
  6
CONTINUOUS
 10
1.305480
 20
4.811840
  0
VERTEX
  8
0
  6
CONTINUOUS
 10
1.324840
 20
4.686440
  0
VERTEX
  8
0
  6
CONTINUOUS
 10
1.354320
 20
4.561040
  0
VERTEX
  8
0
  6
CONTINUOUS
 10
1.393480
 20
4.436520
  0
VERTEX
  8
0
  6
CONTINUOUS
 10
1.443200
 20
4.313320
  0
VERTEX
  8
0
  6
CONTINUOUS
 10
1.357400
 20
4.188360
  0
VERTEX
  8
0
  6
CONTINUOUS
 10
1.393480
 20
4.171640
  0
VERTEX
  8
0
  6
CONTINUOUS
 10
1.424720
 20
4.148760
  0
VERTEX
  8
0
  6
CONTINUOUS
 10
1.450240
 20
4.121040
  0
VERTEX
  8
0
  6
CONTINUOUS
 10
1.470480
 20
4.088920
  0
VERTEX
  8
0
  6
CONTINUOUS
 10
1.485000
 20
4.053720
  0
VERTEX
  8
0
  6
CONTINUOUS
 10
1.494240
 20
4.016320
  0
VERTEX
  8
0
  6
CONTINUOUS
 10
1.498200
 20
3.978040
  0
VERTEX
  8
0
  6
CONTINUOUS
 10
1.496440
 20
3.939320
  0
VERTEX
  8
0
  6
CONTINUOUS
 10
1.489400
 20
3.901920
  0
VERTEX
  8
0
  6
CONTINUOUS
 10
1.476200
 20
3.865840
  0
VERTEX
  8
0
  6
CONTINUOUS
 10
1.458160
 20
3.832840
  0
VERTEX
  8
0
  6
CONTINUOUS
 10
1.433960
 20
3.803800
  0
VERTEX
  8
0
  6
CONTINUOUS
 10
1.404480
 20
3.779160
  0
VERTEX
  8
0
  6
CONTINUOUS
 10
1.369280
 20
3.760680
  0
VERTEX
  8
0
  6
CONTINUOUS
 10
1.328360
 20
3.748800
  0
VERTEX
  8
0
  6
CONTINUOUS
 10
1.281720
 20
3.744400
  0
VERTEX
  8
0
  6
CONTINUOUS
 10
0.998360
 20
3.744400
  0
VERTEX
  8
0
  6
CONTINUOUS
 10
0.992640
 20
3.741320
  0
SEQEND
  8
0
  0
SOLID
  8
0
 62
    15
 10
2.236520
 20
6.758840
 11
2.986280
 21
6.761040
 12
2.234320
 22
6.691520
 13
2.984080
 23
6.693280
  0
POLYLINE
  8
0
  6
CONTINUOUS
 66
     1
 40
0.000000
 41
0.000000
  0
VERTEX
  8
0
  6
CONTINUOUS
 10
2.236520
 20
6.758840
  0
VERTEX
  8
0
  6
CONTINUOUS
 10
2.986280
 20
6.761040
  0
VERTEX
  8
0
  6
CONTINUOUS
 10
2.984080
 20
6.693280
  0
VERTEX
  8
0
  6
CONTINUOUS
 10
2.234320
 20
6.691520
  0
VERTEX
  8
0
  6
CONTINUOUS
 10
2.236520
 20
6.758840
  0
SEQEND
  8
0
  0
SOLID
  8
0
 62
     7
 10
2.084280
 20
7.198400
 11
2.834040
 21
7.200600
 12
2.084280
 22
7.073880
 13
2.834040
 23
7.075640
  0
POLYLINE
  8
0
  6
CONTINUOUS
 66
     1
 40
0.000000
 41
0.000000
  0
VERTEX
  8
0
  6
CONTINUOUS
 10
2.084280
 20
7.198400
  0
VERTEX
  8
0
  6
CONTINUOUS
 10
2.834040
 20
7.200600
  0
VERTEX
  8
0
  6
CONTINUOUS
 10
2.834040
 20
7.075640
  0
VERTEX
  8
0
  6
CONTINUOUS
 10
2.084280
 20
7.073880
  0
VERTEX
  8
0
  6
CONTINUOUS
 10
2.084280
 20
7.198400
  0
SEQEND
  8
0
  0
SOLID
  8
0
 62
    15
 10
0.992200
 20
7.753680
 11
1.741960
 21
7.755880
 12
2.241360
 22
7.753680
 13
2.991120
 23
7.755880
  0
POLYLINE
  8
0
  6
CONTINUOUS
 66
     1
 40
0.000000
 41
0.000000
  0
VERTEX
  8
0
  6
CONTINUOUS
 10
0.992200
 20
7.753680
  0
VERTEX
  8
0
  6
CONTINUOUS
 10
1.741960
 20
7.755880
  0
VERTEX
  8
0
  6
CONTINUOUS
 10
2.991120
 20
7.755880
  0
VERTEX
  8
0
  6
CONTINUOUS
 10
2.241360
 20
7.753680
  0
VERTEX
  8
0
  6
CONTINUOUS
 10
0.992200
 20
7.753680
  0
SEQEND
  8
0
  0
SOLID
  8
0
 62
    15
 10
2.084280
 20
7.073880
 11
2.834040
 21
7.075640
 12
2.085160
 22
7.073880
 13
2.834920
 23
7.075640
  0
POLYLINE
  8
0
  6
CONTINUOUS
 66
     1
 40
0.000000
 41
0.000000
  0
VERTEX
  8
0
  6
CONTINUOUS
 10
2.084280
 20
7.073880
  0
VERTEX
  8
0
  6
CONTINUOUS
 10
2.834040
 20
7.075640
  0
VERTEX
  8
0
  6
CONTINUOUS
 10
2.834920
 20
7.075640
  0
VERTEX
  8
0
  6
CONTINUOUS
 10
2.085160
 20
7.073880
  0
VERTEX
  8
0
  6
CONTINUOUS
 10
2.084280
 20
7.073880
  0
SEQEND
  8
0
  0
SOLID
  8
0
 62
    15
 10
2.085160
 20
7.073880
 11
2.834920
 21
7.075640
 12
2.127400
 22
7.040880
 13
2.876720
 23
7.042640
  0
POLYLINE
  8
0
  6
CONTINUOUS
 66
     1
 40
0.000000
 41
0.000000
  0
VERTEX
  8
0
  6
CONTINUOUS
 10
2.085160
 20
7.073880
  0
VERTEX
  8
0
  6
CONTINUOUS
 10
2.834920
 20
7.075640
  0
VERTEX
  8
0
  6
CONTINUOUS
 10
2.876720
 20
7.042640
  0
VERTEX
  8
0
  6
CONTINUOUS
 10
2.127400
 20
7.040880
  0
VERTEX
  8
0
  6
CONTINUOUS
 10
2.085160
 20
7.073880
  0
SEQEND
  8
0
  0
SOLID
  8
0
 62
    15
 10
2.127400
 20
7.040880
 11
2.876720
 21
7.042640
 12
2.163040
 22
6.997760
 13
2.912800
 23
6.999520
  0
POLYLINE
  8
0
  6
CONTINUOUS
 66
     1
 40
0.000000
 41
0.000000
  0
VERTEX
  8
0
  6
CONTINUOUS
 10
2.127400
 20
7.040880
  0
VERTEX
  8
0
  6
CONTINUOUS
 10
2.876720
 20
7.042640
  0
VERTEX
  8
0
  6
CONTINUOUS
 10
2.912800
 20
6.999520
  0
VERTEX
  8
0
  6
CONTINUOUS
 10
2.163040
 20
6.997760
  0
VERTEX
  8
0
  6
CONTINUOUS
 10
2.127400
 20
7.040880
  0
SEQEND
  8
0
  0
SOLID
  8
0
 62
    15
 10
2.163040
 20
6.997760
 11
2.912800
 21
6.999520
 12
2.192520
 22
6.946280
 13
2.942280
 23
6.948040
  0
POLYLINE
  8
0
  6
CONTINUOUS
 66
     1
 40
0.000000
 41
0.000000
  0
VERTEX
  8
0
  6
CONTINUOUS
 10
2.163040
 20
6.997760
  0
VERTEX
  8
0
  6
CONTINUOUS
 10
2.912800
 20
6.999520
  0
VERTEX
  8
0
  6
CONTINUOUS
 10
2.942280
 20
6.948040
  0
VERTEX
  8
0
  6
CONTINUOUS
 10
2.192520
 20
6.946280
  0
VERTEX
  8
0
  6
CONTINUOUS
 10
2.163040
 20
6.997760
  0
SEQEND
  8
0
  0
SOLID
  8
0
 62
     7
 10
2.192520
 20
6.946280
 11
2.942280
 21
6.948040
 12
2.214960
 22
6.888200
 13
2.964720
 23
6.889960
  0
POLYLINE
  8
0
  6
CONTINUOUS
 66
     1
 40
0.000000
 41
0.000000
  0
VERTEX
  8
0
  6
CONTINUOUS
 10
2.192520
 20
6.946280
  0
VERTEX
  8
0
  6
CONTINUOUS
 10
2.942280
 20
6.948040
  0
VERTEX
  8
0
  6
CONTINUOUS
 10
2.964720
 20
6.889960
  0
VERTEX
  8
0
  6
CONTINUOUS
 10
2.214960
 20
6.888200
  0
VERTEX
  8
0
  6
CONTINUOUS
 10
2.192520
 20
6.946280
  0
SEQEND
  8
0
  0
SOLID
  8
0
 62
     7
 10
2.214960
 20
6.888200
 11
2.964720
 21
6.889960
 12
2.229920
 22
6.825280
 13
2.979680
 23
6.827040
  0
POLYLINE
  8
0
  6
CONTINUOUS
 66
     1
 40
0.000000
 41
0.000000
  0
VERTEX
  8
0
  6
CONTINUOUS
 10
2.214960
 20
6.888200
  0
VERTEX
  8
0
  6
CONTINUOUS
 10
2.964720
 20
6.889960
  0
VERTEX
  8
0
  6
CONTINUOUS
 10
2.979680
 20
6.827040
  0
VERTEX
  8
0
  6
CONTINUOUS
 10
2.229920
 20
6.825280
  0
VERTEX
  8
0
  6
CONTINUOUS
 10
2.214960
 20
6.888200
  0
SEQEND
  8
0
  0
SOLID
  8
0
 62
     7
 10
2.229920
 20
6.825280
 11
2.979680
 21
6.827040
 12
2.236520
 22
6.758840
 13
2.986280
 23
6.761040
  0
POLYLINE
  8
0
  6
CONTINUOUS
 66
     1
 40
0.000000
 41
0.000000
  0
VERTEX
  8
0
  6
CONTINUOUS
 10
2.229920
 20
6.825280
  0
VERTEX
  8
0
  6
CONTINUOUS
 10
2.979680
 20
6.827040
  0
VERTEX
  8
0
  6
CONTINUOUS
 10
2.986280
 20
6.761040
  0
VERTEX
  8
0
  6
CONTINUOUS
 10
2.236520
 20
6.758840
  0
VERTEX
  8
0
  6
CONTINUOUS
 10
2.229920
 20
6.825280
  0
SEQEND
  8
0
  0
SOLID
  8
0
 62
    15
 10
2.241360
 20
7.753680
 11
2.991120
 21
7.755880
 12
2.241360
 22
7.198400
 13
2.991120
 23
7.200600
  0
POLYLINE
  8
0
  6
CONTINUOUS
 66
     1
 40
0.000000
 41
0.000000
  0
VERTEX
  8
0
  6
CONTINUOUS
 10
2.241360
 20
7.753680
  0
VERTEX
  8
0
  6
CONTINUOUS
 10
2.991120
 20
7.755880
  0
VERTEX
  8
0
  6
CONTINUOUS
 10
2.991120
 20
7.200600
  0
VERTEX
  8
0
  6
CONTINUOUS
 10
2.241360
 20
7.198400
  0
VERTEX
  8
0
  6
CONTINUOUS
 10
2.241360
 20
7.753680
  0
SEQEND
  8
0
  0
SOLID
  8
0
 62
    15
 10
2.234320
 20
6.691520
 11
2.984080
 21
6.693280
 12
2.222880
 22
6.624200
 13
2.972640
 23
6.625960
  0
POLYLINE
  8
0
  6
CONTINUOUS
 66
     1
 40
0.000000
 41
0.000000
  0
VERTEX
  8
0
  6
CONTINUOUS
 10
2.234320
 20
6.691520
  0
VERTEX
  8
0
  6
CONTINUOUS
 10
2.984080
 20
6.693280
  0
VERTEX
  8
0
  6
CONTINUOUS
 10
2.972640
 20
6.625960
  0
VERTEX
  8
0
  6
CONTINUOUS
 10
2.222880
 20
6.624200
  0
VERTEX
  8
0
  6
CONTINUOUS
 10
2.234320
 20
6.691520
  0
SEQEND
  8
0
  0
SOLID
  8
0
 62
    15
 10
2.222880
 20
6.624200
 11
2.972640
 21
6.625960
 12
2.201760
 22
6.558640
 13
2.951080
 23
6.560840
  0
POLYLINE
  8
0
  6
CONTINUOUS
 66
     1
 40
0.000000
 41
0.000000
  0
VERTEX
  8
0
  6
CONTINUOUS
 10
2.222880
 20
6.624200
  0
VERTEX
  8
0
  6
CONTINUOUS
 10
2.972640
 20
6.625960
  0
VERTEX
  8
0
  6
CONTINUOUS
 10
2.951080
 20
6.560840
  0
VERTEX
  8
0
  6
CONTINUOUS
 10
2.201760
 20
6.558640
  0
VERTEX
  8
0
  6
CONTINUOUS
 10
2.222880
 20
6.624200
  0
SEQEND
  8
0
  0
SOLID
  8
0
 62
    15
 10
2.201760
 20
6.558640
 11
2.951080
 21
6.560840
 12
2.170080
 22
6.497480
 13
2.919400
 23
6.499240
  0
POLYLINE
  8
0
  6
CONTINUOUS
 66
     1
 40
0.000000
 41
0.000000
  0
VERTEX
  8
0
  6
CONTINUOUS
 10
2.201760
 20
6.558640
  0
VERTEX
  8
0
  6
CONTINUOUS
 10
2.951080
 20
6.560840
  0
VERTEX
  8
0
  6
CONTINUOUS
 10
2.919400
 20
6.499240
  0
VERTEX
  8
0
  6
CONTINUOUS
 10
2.170080
 20
6.497480
  0
VERTEX
  8
0
  6
CONTINUOUS
 10
2.201760
 20
6.558640
  0
SEQEND
  8
0
  0
SOLID
  8
0
 62
    15
 10
2.170080
 20
6.497480
 11
2.919400
 21
6.499240
 12
2.127400
 22
6.441160
 13
2.876720
 23
6.443360
  0
POLYLINE
  8
0
  6
CONTINUOUS
 66
     1
 40
0.000000
 41
0.000000
  0
VERTEX
  8
0
  6
CONTINUOUS
 10
2.170080
 20
6.497480
  0
VERTEX
  8
0
  6
CONTINUOUS
 10
2.919400
 20
6.499240
  0
VERTEX
  8
0
  6
CONTINUOUS
 10
2.876720
 20
6.443360
  0
VERTEX
  8
0
  6
CONTINUOUS
 10
2.127400
 20
6.441160
  0
VERTEX
  8
0
  6
CONTINUOUS
 10
2.170080
 20
6.497480
  0
SEQEND
  8
0
  0
SOLID
  8
0
 62
    15
 10
2.127400
 20
6.441160
 11
2.876720
 21
6.443360
 12
2.073280
 22
6.392320
 13
2.822600
 23
6.394080
  0
POLYLINE
  8
0
  6
CONTINUOUS
 66
     1
 40
0.000000
 41
0.000000
  0
VERTEX
  8
0
  6
CONTINUOUS
 10
2.127400
 20
6.441160
  0
VERTEX
  8
0
  6
CONTINUOUS
 10
2.876720
 20
6.443360
  0
VERTEX
  8
0
  6
CONTINUOUS
 10
2.822600
 20
6.394080
  0
VERTEX
  8
0
  6
CONTINUOUS
 10
2.073280
 20
6.392320
  0
VERTEX
  8
0
  6
CONTINUOUS
 10
2.127400
 20
6.441160
  0
SEQEND
  8
0
  0
SOLID
  8
0
 62
    15
 10
2.073280
 20
6.392320
 11
2.822600
 21
6.394080
 12
2.006840
 22
6.352280
 13
2.756160
 23
6.354480
  0
POLYLINE
  8
0
  6
CONTINUOUS
 66
     1
 40
0.000000
 41
0.000000
  0
VERTEX
  8
0
  6
CONTINUOUS
 10
2.073280
 20
6.392320
  0
VERTEX
  8
0
  6
CONTINUOUS
 10
2.822600
 20
6.394080
  0
VERTEX
  8
0
  6
CONTINUOUS
 10
2.756160
 20
6.354480
  0
VERTEX
  8
0
  6
CONTINUOUS
 10
2.006840
 20
6.352280
  0
VERTEX
  8
0
  6
CONTINUOUS
 10
2.073280
 20
6.392320
  0
SEQEND
  8
0
  0
SOLID
  8
0
 62
    15
 10
2.006840
 20
6.352280
 11
2.756160
 21
6.354480
 12
1.927640
 22
6.323240
 13
2.677400
 23
6.325000
  0
POLYLINE
  8
0
  6
CONTINUOUS
 66
     1
 40
0.000000
 41
0.000000
  0
VERTEX
  8
0
  6
CONTINUOUS
 10
2.006840
 20
6.352280
  0
VERTEX
  8
0
  6
CONTINUOUS
 10
2.756160
 20
6.354480
  0
VERTEX
  8
0
  6
CONTINUOUS
 10
2.677400
 20
6.325000
  0
VERTEX
  8
0
  6
CONTINUOUS
 10
1.927640
 20
6.323240
  0
VERTEX
  8
0
  6
CONTINUOUS
 10
2.006840
 20
6.352280
  0
SEQEND
  8
0
  0
SOLID
  8
0
 62
    15
 10
1.835680
 20
6.306080
 11
2.585000
 21
6.308280
 12
1.729640
 22
6.303440
 13
2.479400
 23
6.305200
  0
POLYLINE
  8
0
  6
CONTINUOUS
 66
     1
 40
0.000000
 41
0.000000
  0
VERTEX
  8
0
  6
CONTINUOUS
 10
1.835680
 20
6.306080
  0
VERTEX
  8
0
  6
CONTINUOUS
 10
2.585000
 20
6.308280
  0
VERTEX
  8
0
  6
CONTINUOUS
 10
2.479400
 20
6.305200
  0
VERTEX
  8
0
  6
CONTINUOUS
 10
1.729640
 20
6.303440
  0
VERTEX
  8
0
  6
CONTINUOUS
 10
1.835680
 20
6.306080
  0
SEQEND
  8
0
  0
SOLID
  8
0
 62
    15
 10
1.927640
 20
6.323240
 11
2.677400
 21
6.325000
 12
1.835680
 22
6.306080
 13
2.585000
 23
6.308280
  0
POLYLINE
  8
0
  6
CONTINUOUS
 66
     1
 40
0.000000
 41
0.000000
  0
VERTEX
  8
0
  6
CONTINUOUS
 10
1.927640
 20
6.323240
  0
VERTEX
  8
0
  6
CONTINUOUS
 10
2.677400
 20
6.325000
  0
VERTEX
  8
0
  6
CONTINUOUS
 10
2.585000
 20
6.308280
  0
VERTEX
  8
0
  6
CONTINUOUS
 10
1.835680
 20
6.306080
  0
VERTEX
  8
0
  6
CONTINUOUS
 10
1.927640
 20
6.323240
  0
SEQEND
  8
0
  0
POLYLINE
  8
0
  6
CONTINUOUS
 66
     1
 40
0.000000
 41
0.000000
  0
VERTEX
  8
0
  6
CONTINUOUS
 10
1.729640
 20
6.303880
  0
VERTEX
  8
0
  6
CONTINUOUS
 10
1.729640
 20
6.807680
  0
VERTEX
  8
0
  6
CONTINUOUS
 10
0.992200
 20
6.807680
  0
VERTEX
  8
0
  6
CONTINUOUS
 10
0.992200
 20
7.753680
  0
VERTEX
  8
0
  6
CONTINUOUS
 10
2.241360
 20
7.753680
  0
VERTEX
  8
0
  6
CONTINUOUS
 10
2.241360
 20
7.198400
  0
VERTEX
  8
0
  6
CONTINUOUS
 10
2.084280
 20
7.198400
  0
VERTEX
  8
0
  6
CONTINUOUS
 10
2.084280
 20
7.073880
  0
VERTEX
  8
0
  6
CONTINUOUS
 10
2.085160
 20
7.073880
  0
VERTEX
  8
0
  6
CONTINUOUS
 10
2.127400
 20
7.040880
  0
VERTEX
  8
0
  6
CONTINUOUS
 10
2.163040
 20
6.997760
  0
VERTEX
  8
0
  6
CONTINUOUS
 10
2.192520
 20
6.946280
  0
VERTEX
  8
0
  6
CONTINUOUS
 10
2.214960
 20
6.888200
  0
VERTEX
  8
0
  6
CONTINUOUS
 10
2.229920
 20
6.825280
  0
VERTEX
  8
0
  6
CONTINUOUS
 10
2.236520
 20
6.758840
  0
VERTEX
  8
0
  6
CONTINUOUS
 10
2.234320
 20
6.691520
  0
VERTEX
  8
0
  6
CONTINUOUS
 10
2.222880
 20
6.624200
  0
VERTEX
  8
0
  6
CONTINUOUS
 10
2.201760
 20
6.558640
  0
VERTEX
  8
0
  6
CONTINUOUS
 10
2.170080
 20
6.497480
  0
VERTEX
  8
0
  6
CONTINUOUS
 10
2.127400
 20
6.441160
  0
VERTEX
  8
0
  6
CONTINUOUS
 10
2.073280
 20
6.392320
  0
VERTEX
  8
0
  6
CONTINUOUS
 10
2.006840
 20
6.352280
  0
VERTEX
  8
0
  6
CONTINUOUS
 10
1.927640
 20
6.323240
  0
VERTEX
  8
0
  6
CONTINUOUS
 10
1.835680
 20
6.306080
  0
VERTEX
  8
0
  6
CONTINUOUS
 10
1.729640
 20
6.303440
  0
VERTEX
  8
0
  6
CONTINUOUS
 10
1.729640
 20
6.303880
  0
SEQEND
  8
0
  0
ENDSEC
  0
EOF
