  0
SECTION
  2
HEADER
  9
$ACADVER
  1
AC1006
  9
$EXTMIN
 10
2.603040
 20
0.357720
  9
$EXTMAX
 10
8.072240
 20
3.777400
  9
$LTSCALE
 40
0.044000
  9
$PDMODE
 70
    35
  9
$PDSIZE
 40
0.035200
  0
ENDSEC
  0
SECTION
  2
TABLES
  0
TABLE
  2
LTYPE
 70
     9
  0
LTYPE
  2
CONTINUOUS
 70
    64
  3
Solid line
 72
    65
 73
     0
 40
0.000000
  0
LTYPE
  2
DASHED
 70
    64
  3
__ __ __ __ __ __ __ __ __ __ __ __ __ __ __
 72
    65
 73
     2
 40
0.000330
 49
0.000220
 49
-0.000110
  0
LTYPE
  2
HIDDEN
 70
    64
  3
 _ _ _ _ _ _ _ _ _ _ _ _ _ _ _ _ _ _ _ _ _ _
 72
    65
 73
     2
 40
0.000165
 49
0.000110
 49
-0.000055
  0
LTYPE
  2
CENTER
 70
    64
  3
____ _ ____ _ ____ _ ____ _ ____ _ ____ _ ____
 72
    65
 73
     4
 40
0.000880
 49
0.000550
 49
-0.000110
 49
0.000110
 49
-0.000110
  0
LTYPE
  2
PHANTOM
 70
    64
  3
_____ _ _ _____ _ _ _____ _ _ _____ _ _ ____
 72
    65
 73
     6
 40
0.001100
 49
0.000550
 49
-0.000110
 49
0.000110
 49
-0.000110
 49
0.000110
 49
-0.000110
  0
LTYPE
  2
DOT
 70
    64
  3
...............................................
 72
    65
 73
     2
 40
0.000110
 49
0.000000
 49
-0.000110
  0
LTYPE
  2
DASHDOT
 70
    64
  3
__ . __ . __ . __ . __ . __ . __ . __ . __ . __
 72
    65
 73
     4
 40
0.000440
 49
0.000220
 49
-0.000110
 49
0.000000
 49
-0.000110
  0
LTYPE
  2
BORDER
 70
    64
  3
__ __ . __ __ . __ __ . __ __ . __ __ . __ __
 72
    65
 73
     6
 40
0.000770
 49
0.000220
 49
-0.000110
 49
0.000220
 49
-0.000110
 49
0.000000
 49
-0.000110
  0
LTYPE
  2
DIVIDE
 70
    64
  3
__ . . __ . . __ . . __ . . __ . . __ . . __
 72
    65
 73
     6
 40
0.000550
 49
0.000220
 49
-0.000110
 49
0.000000
 49
-0.000110
 49
0.000000
 49
-0.000110
  0
LTYPE
  2
DOTDOT
 70
    64
  3
 . .  . .  . .  . .  . .  . . 
 72
    65
 73
     5
 40
0.000242
 49
-0.000110
 49
0.000000
 49
-0.000110
 49
0.000000
 49
-0.000110
  0
ENDTAB
  0
TABLE
  2
STYLE
 70
     2
  0
STYLE
 70
     0
  2
SN0
 40
0.000000
 41
0.000440
 50
0.000000
 71
     0
 42
0.000000
  3
ROMAND
  0
STYLE
 70
    68
  2
SV0
 40
0.000000
 41
0.000440
 50
0.000000
 71
     0
 42
0.000000
  3
ROMAND
  0
ENDTAB
  0
TABLE
  2
LAYER
 70
     3
  0
LAYER
  2
FOREGROUND
 70
    64
 62
     7
  6
CONTINUOUS
  0
LAYER
  2
BACKGROUND
 70
    65
 62
    -7
  6
CONTINUOUS
  0
LAYER
  2
0
 70
    64
 62
     7
  6
CONTINUOUS
  0
ENDTAB
  0
ENDSEC
  0
SECTION
  2
ENTITIES
  0
POLYLINE
  8
FOREGROUND
  6
CONTINUOUS
 66
     1
 40
0.000000
 41
0.000000
  0
VERTEX
  8
FOREGROUND
  6
CONTINUOUS
 10
0.000000
 20
4.135120
  0
VERTEX
  8
FOREGROUND
  6
CONTINUOUS
 10
8.499920
 20
4.135120
  0
VERTEX
  8
FOREGROUND
  6
CONTINUOUS
 10
8.499920
 20
-6.864880
  0
VERTEX
  8
FOREGROUND
  6
CONTINUOUS
 10
0.000000
 20
-6.864880
  0
VERTEX
  8
FOREGROUND
  6
CONTINUOUS
 10
0.000000
 20
4.135120
  0
SEQEND
  8
0
  0
POLYLINE
  8
FOREGROUND
  6
CONTINUOUS
 66
     1
 40
0.000000
 41
0.000000
  0
VERTEX
  8
FOREGROUND
  6
CONTINUOUS
 10
0.000000
 20
4.135120
  0
VERTEX
  8
FOREGROUND
  6
CONTINUOUS
 10
8.499920
 20
4.135120
  0
VERTEX
  8
FOREGROUND
  6
CONTINUOUS
 10
8.499920
 20
-6.864880
  0
VERTEX
  8
FOREGROUND
  6
CONTINUOUS
 10
0.000000
 20
-6.864880
  0
VERTEX
  8
FOREGROUND
  6
CONTINUOUS
 10
0.000000
 20
4.135120
  0
SEQEND
  8
0
  0
TEXT
  8
0
 10
2.604360
 20
0.592240
 40
0.138125
  1
BA  1014  3/4" x 2"
 41
1.000000
  7
SN0
 71
     0
 72
     5
 11
3.995451
 21
0.592240
  0
TEXT
  8
0
 10
2.604360
 20
0.400840
 40
0.138125
  1
BA  1015  1-1/4" x 1-1/2"
 41
1.000000
  7
SN0
 71
     0
 72
     5
 11
4.429159
 21
0.400840
  0
SOLID
  8
0
 62
    15
 10
2.930400
 20
1.029600
 11
3.666080
 21
1.024760
 12
2.927760
 22
0.991320
 13
3.663440
 23
0.986480
  0
POLYLINE
  8
0
  6
CONTINUOUS
 66
     1
 40
0.000000
 41
0.000000
  0
VERTEX
  8
0
  6
CONTINUOUS
 10
2.930400
 20
1.029600
  0
VERTEX
  8
0
  6
CONTINUOUS
 10
3.666080
 20
1.024760
  0
VERTEX
  8
0
  6
CONTINUOUS
 10
3.663440
 20
0.986480
  0
VERTEX
  8
0
  6
CONTINUOUS
 10
2.927760
 20
0.991320
  0
VERTEX
  8
0
  6
CONTINUOUS
 10
2.930400
 20
1.029600
  0
SEQEND
  8
0
  0
SOLID
  8
0
 62
    15
 10
3.433760
 20
2.226400
 11
4.169440
 21
2.221560
 12
3.402960
 22
2.223760
 13
4.138640
 23
2.218920
  0
POLYLINE
  8
0
  6
CONTINUOUS
 66
     1
 40
0.000000
 41
0.000000
  0
VERTEX
  8
0
  6
CONTINUOUS
 10
3.433760
 20
2.226400
  0
VERTEX
  8
0
  6
CONTINUOUS
 10
4.169440
 20
2.221560
  0
VERTEX
  8
0
  6
CONTINUOUS
 10
4.138640
 20
2.218920
  0
VERTEX
  8
0
  6
CONTINUOUS
 10
3.402960
 20
2.223760
  0
VERTEX
  8
0
  6
CONTINUOUS
 10
3.433760
 20
2.226400
  0
SEQEND
  8
0
  0
SOLID
  8
0
 62
    15
 10
3.402960
 20
2.223760
 11
4.138640
 21
2.218920
 12
3.370400
 22
2.214960
 13
4.105640
 23
2.210120
  0
POLYLINE
  8
0
  6
CONTINUOUS
 66
     1
 40
0.000000
 41
0.000000
  0
VERTEX
  8
0
  6
CONTINUOUS
 10
3.402960
 20
2.223760
  0
VERTEX
  8
0
  6
CONTINUOUS
 10
4.138640
 20
2.218920
  0
VERTEX
  8
0
  6
CONTINUOUS
 10
4.105640
 20
2.210120
  0
VERTEX
  8
0
  6
CONTINUOUS
 10
3.370400
 20
2.214960
  0
VERTEX
  8
0
  6
CONTINUOUS
 10
3.402960
 20
2.223760
  0
SEQEND
  8
0
  0
SOLID
  8
0
 62
    15
 10
3.370400
 20
2.214960
 11
4.105640
 21
2.210120
 12
3.336080
 22
2.200440
 13
4.071760
 23
2.195600
  0
POLYLINE
  8
0
  6
CONTINUOUS
 66
     1
 40
0.000000
 41
0.000000
  0
VERTEX
  8
0
  6
CONTINUOUS
 10
3.370400
 20
2.214960
  0
VERTEX
  8
0
  6
CONTINUOUS
 10
4.105640
 20
2.210120
  0
VERTEX
  8
0
  6
CONTINUOUS
 10
4.071760
 20
2.195600
  0
VERTEX
  8
0
  6
CONTINUOUS
 10
3.336080
 20
2.200440
  0
VERTEX
  8
0
  6
CONTINUOUS
 10
3.370400
 20
2.214960
  0
SEQEND
  8
0
  0
SOLID
  8
0
 62
    15
 10
3.336080
 20
2.200440
 11
4.071760
 21
2.195600
 12
3.300880
 22
2.180200
 13
4.036120
 23
2.175360
  0
POLYLINE
  8
0
  6
CONTINUOUS
 66
     1
 40
0.000000
 41
0.000000
  0
VERTEX
  8
0
  6
CONTINUOUS
 10
3.336080
 20
2.200440
  0
VERTEX
  8
0
  6
CONTINUOUS
 10
4.071760
 20
2.195600
  0
VERTEX
  8
0
  6
CONTINUOUS
 10
4.036120
 20
2.175360
  0
VERTEX
  8
0
  6
CONTINUOUS
 10
3.300880
 20
2.180200
  0
VERTEX
  8
0
  6
CONTINUOUS
 10
3.336080
 20
2.200440
  0
SEQEND
  8
0
  0
SOLID
  8
0
 62
    15
 10
3.300880
 20
2.180200
 11
4.036120
 21
2.175360
 12
3.228720
 22
2.121240
 13
3.964400
 23
2.116400
  0
POLYLINE
  8
0
  6
CONTINUOUS
 66
     1
 40
0.000000
 41
0.000000
  0
VERTEX
  8
0
  6
CONTINUOUS
 10
3.300880
 20
2.180200
  0
VERTEX
  8
0
  6
CONTINUOUS
 10
4.036120
 20
2.175360
  0
VERTEX
  8
0
  6
CONTINUOUS
 10
3.964400
 20
2.116400
  0
VERTEX
  8
0
  6
CONTINUOUS
 10
3.228720
 20
2.121240
  0
VERTEX
  8
0
  6
CONTINUOUS
 10
3.300880
 20
2.180200
  0
SEQEND
  8
0
  0
SOLID
  8
0
 62
    15
 10
3.228720
 20
2.121240
 11
3.964400
 21
2.116400
 12
3.193080
 22
2.082520
 13
3.928760
 23
2.077680
  0
POLYLINE
  8
0
  6
CONTINUOUS
 66
     1
 40
0.000000
 41
0.000000
  0
VERTEX
  8
0
  6
CONTINUOUS
 10
3.228720
 20
2.121240
  0
VERTEX
  8
0
  6
CONTINUOUS
 10
3.964400
 20
2.116400
  0
VERTEX
  8
0
  6
CONTINUOUS
 10
3.928760
 20
2.077680
  0
VERTEX
  8
0
  6
CONTINUOUS
 10
3.193080
 20
2.082520
  0
VERTEX
  8
0
  6
CONTINUOUS
 10
3.228720
 20
2.121240
  0
SEQEND
  8
0
  0
SOLID
  8
0
 62
    15
 10
3.193080
 20
2.082520
 11
3.928760
 21
2.077680
 12
3.157880
 22
2.037640
 13
3.893560
 23
2.032800
  0
POLYLINE
  8
0
  6
CONTINUOUS
 66
     1
 40
0.000000
 41
0.000000
  0
VERTEX
  8
0
  6
CONTINUOUS
 10
3.193080
 20
2.082520
  0
VERTEX
  8
0
  6
CONTINUOUS
 10
3.928760
 20
2.077680
  0
VERTEX
  8
0
  6
CONTINUOUS
 10
3.893560
 20
2.032800
  0
VERTEX
  8
0
  6
CONTINUOUS
 10
3.157880
 20
2.037640
  0
VERTEX
  8
0
  6
CONTINUOUS
 10
3.193080
 20
2.082520
  0
SEQEND
  8
0
  0
SOLID
  8
0
 62
    15
 10
3.157880
 20
2.037640
 11
3.893560
 21
2.032800
 12
3.124000
 22
1.986600
 13
3.859680
 23
1.981760
  0
POLYLINE
  8
0
  6
CONTINUOUS
 66
     1
 40
0.000000
 41
0.000000
  0
VERTEX
  8
0
  6
CONTINUOUS
 10
3.157880
 20
2.037640
  0
VERTEX
  8
0
  6
CONTINUOUS
 10
3.893560
 20
2.032800
  0
VERTEX
  8
0
  6
CONTINUOUS
 10
3.859680
 20
1.981760
  0
VERTEX
  8
0
  6
CONTINUOUS
 10
3.124000
 20
1.986600
  0
VERTEX
  8
0
  6
CONTINUOUS
 10
3.157880
 20
2.037640
  0
SEQEND
  8
0
  0
SOLID
  8
0
 62
    15
 10
3.124000
 20
1.986600
 11
3.859680
 21
1.981760
 12
3.091880
 22
1.928960
 13
3.827560
 23
1.924120
  0
POLYLINE
  8
0
  6
CONTINUOUS
 66
     1
 40
0.000000
 41
0.000000
  0
VERTEX
  8
0
  6
CONTINUOUS
 10
3.124000
 20
1.986600
  0
VERTEX
  8
0
  6
CONTINUOUS
 10
3.859680
 20
1.981760
  0
VERTEX
  8
0
  6
CONTINUOUS
 10
3.827560
 20
1.924120
  0
VERTEX
  8
0
  6
CONTINUOUS
 10
3.091880
 20
1.928960
  0
VERTEX
  8
0
  6
CONTINUOUS
 10
3.124000
 20
1.986600
  0
SEQEND
  8
0
  0
SOLID
  8
0
 62
    15
 10
3.091880
 20
1.928960
 11
3.827560
 21
1.924120
 12
3.061960
 22
1.865160
 13
3.797640
 23
1.860320
  0
POLYLINE
  8
0
  6
CONTINUOUS
 66
     1
 40
0.000000
 41
0.000000
  0
VERTEX
  8
0
  6
CONTINUOUS
 10
3.091880
 20
1.928960
  0
VERTEX
  8
0
  6
CONTINUOUS
 10
3.827560
 20
1.924120
  0
VERTEX
  8
0
  6
CONTINUOUS
 10
3.797640
 20
1.860320
  0
VERTEX
  8
0
  6
CONTINUOUS
 10
3.061960
 20
1.865160
  0
VERTEX
  8
0
  6
CONTINUOUS
 10
3.091880
 20
1.928960
  0
SEQEND
  8
0
  0
SOLID
  8
0
 62
    15
 10
3.061960
 20
1.865160
 11
3.797640
 21
1.860320
 12
3.034240
 22
1.794320
 13
3.769920
 23
1.789480
  0
POLYLINE
  8
0
  6
CONTINUOUS
 66
     1
 40
0.000000
 41
0.000000
  0
VERTEX
  8
0
  6
CONTINUOUS
 10
3.061960
 20
1.865160
  0
VERTEX
  8
0
  6
CONTINUOUS
 10
3.797640
 20
1.860320
  0
VERTEX
  8
0
  6
CONTINUOUS
 10
3.769920
 20
1.789480
  0
VERTEX
  8
0
  6
CONTINUOUS
 10
3.034240
 20
1.794320
  0
VERTEX
  8
0
  6
CONTINUOUS
 10
3.061960
 20
1.865160
  0
SEQEND
  8
0
  0
SOLID
  8
0
 62
    15
 10
3.034240
 20
1.794320
 11
3.769920
 21
1.789480
 12
3.010040
 22
1.717320
 13
3.745280
 23
1.712480
  0
POLYLINE
  8
0
  6
CONTINUOUS
 66
     1
 40
0.000000
 41
0.000000
  0
VERTEX
  8
0
  6
CONTINUOUS
 10
3.034240
 20
1.794320
  0
VERTEX
  8
0
  6
CONTINUOUS
 10
3.769920
 20
1.789480
  0
VERTEX
  8
0
  6
CONTINUOUS
 10
3.745280
 20
1.712480
  0
VERTEX
  8
0
  6
CONTINUOUS
 10
3.010040
 20
1.717320
  0
VERTEX
  8
0
  6
CONTINUOUS
 10
3.034240
 20
1.794320
  0
SEQEND
  8
0
  0
SOLID
  8
0
 62
    15
 10
3.010040
 20
1.717320
 11
3.745280
 21
1.712480
 12
2.988920
 22
1.633280
 13
3.724160
 23
1.628440
  0
POLYLINE
  8
0
  6
CONTINUOUS
 66
     1
 40
0.000000
 41
0.000000
  0
VERTEX
  8
0
  6
CONTINUOUS
 10
3.010040
 20
1.717320
  0
VERTEX
  8
0
  6
CONTINUOUS
 10
3.745280
 20
1.712480
  0
VERTEX
  8
0
  6
CONTINUOUS
 10
3.724160
 20
1.628440
  0
VERTEX
  8
0
  6
CONTINUOUS
 10
2.988920
 20
1.633280
  0
VERTEX
  8
0
  6
CONTINUOUS
 10
3.010040
 20
1.717320
  0
SEQEND
  8
0
  0
SOLID
  8
0
 62
    15
 10
2.988920
 20
1.633280
 11
3.724160
 21
1.628440
 12
2.971760
 22
1.542640
 13
3.707000
 23
1.537800
  0
POLYLINE
  8
0
  6
CONTINUOUS
 66
     1
 40
0.000000
 41
0.000000
  0
VERTEX
  8
0
  6
CONTINUOUS
 10
2.988920
 20
1.633280
  0
VERTEX
  8
0
  6
CONTINUOUS
 10
3.724160
 20
1.628440
  0
VERTEX
  8
0
  6
CONTINUOUS
 10
3.707000
 20
1.537800
  0
VERTEX
  8
0
  6
CONTINUOUS
 10
2.971760
 20
1.542640
  0
VERTEX
  8
0
  6
CONTINUOUS
 10
2.988920
 20
1.633280
  0
SEQEND
  8
0
  0
SOLID
  8
0
 62
    15
 10
2.971760
 20
1.542640
 11
3.707000
 21
1.537800
 12
2.958560
 22
1.444960
 13
3.694240
 23
1.440120
  0
POLYLINE
  8
0
  6
CONTINUOUS
 66
     1
 40
0.000000
 41
0.000000
  0
VERTEX
  8
0
  6
CONTINUOUS
 10
2.971760
 20
1.542640
  0
VERTEX
  8
0
  6
CONTINUOUS
 10
3.707000
 20
1.537800
  0
VERTEX
  8
0
  6
CONTINUOUS
 10
3.694240
 20
1.440120
  0
VERTEX
  8
0
  6
CONTINUOUS
 10
2.958560
 20
1.444960
  0
VERTEX
  8
0
  6
CONTINUOUS
 10
2.971760
 20
1.542640
  0
SEQEND
  8
0
  0
SOLID
  8
0
 62
    15
 10
2.958560
 20
1.444960
 11
3.694240
 21
1.440120
 12
3.002560
 22
1.440560
 13
3.738240
 23
1.435720
  0
POLYLINE
  8
0
  6
CONTINUOUS
 66
     1
 40
0.000000
 41
0.000000
  0
VERTEX
  8
0
  6
CONTINUOUS
 10
2.958560
 20
1.444960
  0
VERTEX
  8
0
  6
CONTINUOUS
 10
3.694240
 20
1.440120
  0
VERTEX
  8
0
  6
CONTINUOUS
 10
3.738240
 20
1.435720
  0
VERTEX
  8
0
  6
CONTINUOUS
 10
3.002560
 20
1.440560
  0
VERTEX
  8
0
  6
CONTINUOUS
 10
2.958560
 20
1.444960
  0
SEQEND
  8
0
  0
SOLID
  8
0
 62
    15
 10
3.002560
 20
1.440560
 11
3.738240
 21
1.435720
 12
3.040840
 22
1.427360
 13
3.776080
 23
1.422520
  0
POLYLINE
  8
0
  6
CONTINUOUS
 66
     1
 40
0.000000
 41
0.000000
  0
VERTEX
  8
0
  6
CONTINUOUS
 10
3.002560
 20
1.440560
  0
VERTEX
  8
0
  6
CONTINUOUS
 10
3.738240
 20
1.435720
  0
VERTEX
  8
0
  6
CONTINUOUS
 10
3.776080
 20
1.422520
  0
VERTEX
  8
0
  6
CONTINUOUS
 10
3.040840
 20
1.427360
  0
VERTEX
  8
0
  6
CONTINUOUS
 10
3.002560
 20
1.440560
  0
SEQEND
  8
0
  0
SOLID
  8
0
 62
    15
 10
3.040840
 20
1.427360
 11
3.776080
 21
1.422520
 12
3.072960
 22
1.406680
 13
3.808200
 23
1.401840
  0
POLYLINE
  8
0
  6
CONTINUOUS
 66
     1
 40
0.000000
 41
0.000000
  0
VERTEX
  8
0
  6
CONTINUOUS
 10
3.040840
 20
1.427360
  0
VERTEX
  8
0
  6
CONTINUOUS
 10
3.776080
 20
1.422520
  0
VERTEX
  8
0
  6
CONTINUOUS
 10
3.808200
 20
1.401840
  0
VERTEX
  8
0
  6
CONTINUOUS
 10
3.072960
 20
1.406680
  0
VERTEX
  8
0
  6
CONTINUOUS
 10
3.040840
 20
1.427360
  0
SEQEND
  8
0
  0
SOLID
  8
0
 62
    15
 10
3.072960
 20
1.406680
 11
3.808200
 21
1.401840
 12
3.098920
 22
1.380280
 13
3.834160
 23
1.375440
  0
POLYLINE
  8
0
  6
CONTINUOUS
 66
     1
 40
0.000000
 41
0.000000
  0
VERTEX
  8
0
  6
CONTINUOUS
 10
3.072960
 20
1.406680
  0
VERTEX
  8
0
  6
CONTINUOUS
 10
3.808200
 20
1.401840
  0
VERTEX
  8
0
  6
CONTINUOUS
 10
3.834160
 20
1.375440
  0
VERTEX
  8
0
  6
CONTINUOUS
 10
3.098920
 20
1.380280
  0
VERTEX
  8
0
  6
CONTINUOUS
 10
3.072960
 20
1.406680
  0
SEQEND
  8
0
  0
SOLID
  8
0
 62
    15
 10
3.098920
 20
1.380280
 11
3.834160
 21
1.375440
 12
3.118720
 22
1.348600
 13
3.854400
 23
1.343760
  0
POLYLINE
  8
0
  6
CONTINUOUS
 66
     1
 40
0.000000
 41
0.000000
  0
VERTEX
  8
0
  6
CONTINUOUS
 10
3.098920
 20
1.380280
  0
VERTEX
  8
0
  6
CONTINUOUS
 10
3.834160
 20
1.375440
  0
VERTEX
  8
0
  6
CONTINUOUS
 10
3.854400
 20
1.343760
  0
VERTEX
  8
0
  6
CONTINUOUS
 10
3.118720
 20
1.348600
  0
VERTEX
  8
0
  6
CONTINUOUS
 10
3.098920
 20
1.380280
  0
SEQEND
  8
0
  0
SOLID
  8
0
 62
    15
 10
3.118720
 20
1.348600
 11
3.854400
 21
1.343760
 12
3.132800
 22
1.313840
 13
3.868480
 23
1.309000
  0
POLYLINE
  8
0
  6
CONTINUOUS
 66
     1
 40
0.000000
 41
0.000000
  0
VERTEX
  8
0
  6
CONTINUOUS
 10
3.118720
 20
1.348600
  0
VERTEX
  8
0
  6
CONTINUOUS
 10
3.854400
 20
1.343760
  0
VERTEX
  8
0
  6
CONTINUOUS
 10
3.868480
 20
1.309000
  0
VERTEX
  8
0
  6
CONTINUOUS
 10
3.132800
 20
1.313840
  0
VERTEX
  8
0
  6
CONTINUOUS
 10
3.118720
 20
1.348600
  0
SEQEND
  8
0
  0
SOLID
  8
0
 62
    15
 10
3.132800
 20
1.313840
 11
3.868480
 21
1.309000
 12
3.140720
 22
1.276000
 13
3.876400
 23
1.271160
  0
POLYLINE
  8
0
  6
CONTINUOUS
 66
     1
 40
0.000000
 41
0.000000
  0
VERTEX
  8
0
  6
CONTINUOUS
 10
3.132800
 20
1.313840
  0
VERTEX
  8
0
  6
CONTINUOUS
 10
3.868480
 20
1.309000
  0
VERTEX
  8
0
  6
CONTINUOUS
 10
3.876400
 20
1.271160
  0
VERTEX
  8
0
  6
CONTINUOUS
 10
3.140720
 20
1.276000
  0
VERTEX
  8
0
  6
CONTINUOUS
 10
3.132800
 20
1.313840
  0
SEQEND
  8
0
  0
SOLID
  8
0
 62
    15
 10
3.140720
 20
1.276000
 11
3.876400
 21
1.271160
 12
3.142480
 22
1.237280
 13
3.878160
 23
1.232440
  0
POLYLINE
  8
0
  6
CONTINUOUS
 66
     1
 40
0.000000
 41
0.000000
  0
VERTEX
  8
0
  6
CONTINUOUS
 10
3.140720
 20
1.276000
  0
VERTEX
  8
0
  6
CONTINUOUS
 10
3.876400
 20
1.271160
  0
VERTEX
  8
0
  6
CONTINUOUS
 10
3.878160
 20
1.232440
  0
VERTEX
  8
0
  6
CONTINUOUS
 10
3.142480
 20
1.237280
  0
VERTEX
  8
0
  6
CONTINUOUS
 10
3.140720
 20
1.276000
  0
SEQEND
  8
0
  0
SOLID
  8
0
 62
    15
 10
3.142480
 20
1.237280
 11
3.878160
 21
1.232440
 12
3.138080
 22
1.198560
 13
3.873760
 23
1.193720
  0
POLYLINE
  8
0
  6
CONTINUOUS
 66
     1
 40
0.000000
 41
0.000000
  0
VERTEX
  8
0
  6
CONTINUOUS
 10
3.142480
 20
1.237280
  0
VERTEX
  8
0
  6
CONTINUOUS
 10
3.878160
 20
1.232440
  0
VERTEX
  8
0
  6
CONTINUOUS
 10
3.873760
 20
1.193720
  0
VERTEX
  8
0
  6
CONTINUOUS
 10
3.138080
 20
1.198560
  0
VERTEX
  8
0
  6
CONTINUOUS
 10
3.142480
 20
1.237280
  0
SEQEND
  8
0
  0
SOLID
  8
0
 62
    15
 10
3.138080
 20
1.198560
 11
3.873760
 21
1.193720
 12
3.127520
 22
1.161160
 13
3.863200
 23
1.156320
  0
POLYLINE
  8
0
  6
CONTINUOUS
 66
     1
 40
0.000000
 41
0.000000
  0
VERTEX
  8
0
  6
CONTINUOUS
 10
3.138080
 20
1.198560
  0
VERTEX
  8
0
  6
CONTINUOUS
 10
3.873760
 20
1.193720
  0
VERTEX
  8
0
  6
CONTINUOUS
 10
3.863200
 20
1.156320
  0
VERTEX
  8
0
  6
CONTINUOUS
 10
3.127520
 20
1.161160
  0
VERTEX
  8
0
  6
CONTINUOUS
 10
3.138080
 20
1.198560
  0
SEQEND
  8
0
  0
SOLID
  8
0
 62
    15
 10
3.127520
 20
1.161160
 11
3.863200
 21
1.156320
 12
3.110800
 22
1.125960
 13
3.846040
 23
1.121120
  0
POLYLINE
  8
0
  6
CONTINUOUS
 66
     1
 40
0.000000
 41
0.000000
  0
VERTEX
  8
0
  6
CONTINUOUS
 10
3.127520
 20
1.161160
  0
VERTEX
  8
0
  6
CONTINUOUS
 10
3.863200
 20
1.156320
  0
VERTEX
  8
0
  6
CONTINUOUS
 10
3.846040
 20
1.121120
  0
VERTEX
  8
0
  6
CONTINUOUS
 10
3.110800
 20
1.125960
  0
VERTEX
  8
0
  6
CONTINUOUS
 10
3.127520
 20
1.161160
  0
SEQEND
  8
0
  0
SOLID
  8
0
 62
    15
 10
3.110800
 20
1.125960
 11
3.846040
 21
1.121120
 12
3.087480
 22
1.094720
 13
3.823160
 23
1.089880
  0
POLYLINE
  8
0
  6
CONTINUOUS
 66
     1
 40
0.000000
 41
0.000000
  0
VERTEX
  8
0
  6
CONTINUOUS
 10
3.110800
 20
1.125960
  0
VERTEX
  8
0
  6
CONTINUOUS
 10
3.846040
 20
1.121120
  0
VERTEX
  8
0
  6
CONTINUOUS
 10
3.823160
 20
1.089880
  0
VERTEX
  8
0
  6
CONTINUOUS
 10
3.087480
 20
1.094720
  0
VERTEX
  8
0
  6
CONTINUOUS
 10
3.110800
 20
1.125960
  0
SEQEND
  8
0
  0
SOLID
  8
0
 62
    15
 10
3.087480
 20
1.094720
 11
3.823160
 21
1.089880
 12
3.058000
 22
1.068320
 13
3.793240
 23
1.063480
  0
POLYLINE
  8
0
  6
CONTINUOUS
 66
     1
 40
0.000000
 41
0.000000
  0
VERTEX
  8
0
  6
CONTINUOUS
 10
3.087480
 20
1.094720
  0
VERTEX
  8
0
  6
CONTINUOUS
 10
3.823160
 20
1.089880
  0
VERTEX
  8
0
  6
CONTINUOUS
 10
3.793240
 20
1.063480
  0
VERTEX
  8
0
  6
CONTINUOUS
 10
3.058000
 20
1.068320
  0
VERTEX
  8
0
  6
CONTINUOUS
 10
3.087480
 20
1.094720
  0
SEQEND
  8
0
  0
SOLID
  8
0
 62
    15
 10
3.058000
 20
1.068320
 11
3.793240
 21
1.063480
 12
3.021920
 22
1.047640
 13
3.757600
 23
1.042800
  0
POLYLINE
  8
0
  6
CONTINUOUS
 66
     1
 40
0.000000
 41
0.000000
  0
VERTEX
  8
0
  6
CONTINUOUS
 10
3.058000
 20
1.068320
  0
VERTEX
  8
0
  6
CONTINUOUS
 10
3.793240
 20
1.063480
  0
VERTEX
  8
0
  6
CONTINUOUS
 10
3.757600
 20
1.042800
  0
VERTEX
  8
0
  6
CONTINUOUS
 10
3.021920
 20
1.047640
  0
VERTEX
  8
0
  6
CONTINUOUS
 10
3.058000
 20
1.068320
  0
SEQEND
  8
0
  0
SOLID
  8
0
 62
    15
 10
3.433320
 20
2.827000
 11
4.168560
 21
2.822160
 12
2.668600
 22
2.827000
 13
3.404280
 23
2.822160
  0
POLYLINE
  8
0
  6
CONTINUOUS
 66
     1
 40
0.000000
 41
0.000000
  0
VERTEX
  8
0
  6
CONTINUOUS
 10
3.433320
 20
2.827000
  0
VERTEX
  8
0
  6
CONTINUOUS
 10
4.168560
 20
2.822160
  0
VERTEX
  8
0
  6
CONTINUOUS
 10
3.404280
 20
2.822160
  0
VERTEX
  8
0
  6
CONTINUOUS
 10
2.668600
 20
2.827000
  0
VERTEX
  8
0
  6
CONTINUOUS
 10
3.433320
 20
2.827000
  0
SEQEND
  8
0
  0
SOLID
  8
0
 62
    15
 10
3.433760
 20
2.827000
 11
4.169440
 21
2.822160
 12
3.433760
 22
2.323640
 13
4.169440
 23
2.318800
  0
POLYLINE
  8
0
  6
CONTINUOUS
 66
     1
 40
0.000000
 41
0.000000
  0
VERTEX
  8
0
  6
CONTINUOUS
 10
3.433760
 20
2.827000
  0
VERTEX
  8
0
  6
CONTINUOUS
 10
4.169440
 20
2.822160
  0
VERTEX
  8
0
  6
CONTINUOUS
 10
4.169440
 20
2.318800
  0
VERTEX
  8
0
  6
CONTINUOUS
 10
3.433760
 20
2.323640
  0
VERTEX
  8
0
  6
CONTINUOUS
 10
3.433760
 20
2.827000
  0
SEQEND
  8
0
  0
SOLID
  8
0
 62
    15
 10
2.979680
 20
1.034440
 11
3.714920
 21
1.029600
 12
2.930400
 22
1.029600
 13
3.666080
 23
1.024760
  0
POLYLINE
  8
0
  6
CONTINUOUS
 66
     1
 40
0.000000
 41
0.000000
  0
VERTEX
  8
0
  6
CONTINUOUS
 10
2.979680
 20
1.034440
  0
VERTEX
  8
0
  6
CONTINUOUS
 10
3.714920
 20
1.029600
  0
VERTEX
  8
0
  6
CONTINUOUS
 10
3.666080
 20
1.024760
  0
VERTEX
  8
0
  6
CONTINUOUS
 10
2.930400
 20
1.029600
  0
VERTEX
  8
0
  6
CONTINUOUS
 10
2.979680
 20
1.034440
  0
SEQEND
  8
0
  0
SOLID
  8
0
 62
    15
 10
3.021920
 20
1.047640
 11
3.757600
 21
1.042800
 12
2.979680
 22
1.034440
 13
3.714920
 23
1.029600
  0
POLYLINE
  8
0
  6
CONTINUOUS
 66
     1
 40
0.000000
 41
0.000000
  0
VERTEX
  8
0
  6
CONTINUOUS
 10
3.021920
 20
1.047640
  0
VERTEX
  8
0
  6
CONTINUOUS
 10
3.757600
 20
1.042800
  0
VERTEX
  8
0
  6
CONTINUOUS
 10
3.714920
 20
1.029600
  0
VERTEX
  8
0
  6
CONTINUOUS
 10
2.979680
 20
1.034440
  0
VERTEX
  8
0
  6
CONTINUOUS
 10
3.021920
 20
1.047640
  0
SEQEND
  8
0
  0
SOLID
  8
0
 62
    15
 10
2.927760
 20
0.991320
 11
3.663440
 21
0.986480
 12
2.918960
 22
0.955240
 13
3.654200
 23
0.949960
  0
POLYLINE
  8
0
  6
CONTINUOUS
 66
     1
 40
0.000000
 41
0.000000
  0
VERTEX
  8
0
  6
CONTINUOUS
 10
2.927760
 20
0.991320
  0
VERTEX
  8
0
  6
CONTINUOUS
 10
3.663440
 20
0.986480
  0
VERTEX
  8
0
  6
CONTINUOUS
 10
3.654200
 20
0.949960
  0
VERTEX
  8
0
  6
CONTINUOUS
 10
2.918960
 20
0.955240
  0
VERTEX
  8
0
  6
CONTINUOUS
 10
2.927760
 20
0.991320
  0
SEQEND
  8
0
  0
SOLID
  8
0
 62
    15
 10
2.918960
 20
0.955240
 11
3.654200
 21
0.949960
 12
2.902680
 22
0.922240
 13
3.638360
 23
0.917400
  0
POLYLINE
  8
0
  6
CONTINUOUS
 66
     1
 40
0.000000
 41
0.000000
  0
VERTEX
  8
0
  6
CONTINUOUS
 10
2.918960
 20
0.955240
  0
VERTEX
  8
0
  6
CONTINUOUS
 10
3.654200
 20
0.949960
  0
VERTEX
  8
0
  6
CONTINUOUS
 10
3.638360
 20
0.917400
  0
VERTEX
  8
0
  6
CONTINUOUS
 10
2.902680
 20
0.922240
  0
VERTEX
  8
0
  6
CONTINUOUS
 10
2.918960
 20
0.955240
  0
SEQEND
  8
0
  0
SOLID
  8
0
 62
    15
 10
2.902680
 20
0.922240
 11
3.638360
 21
0.917400
 12
2.878480
 22
0.893640
 13
3.614160
 23
0.888360
  0
POLYLINE
  8
0
  6
CONTINUOUS
 66
     1
 40
0.000000
 41
0.000000
  0
VERTEX
  8
0
  6
CONTINUOUS
 10
2.902680
 20
0.922240
  0
VERTEX
  8
0
  6
CONTINUOUS
 10
3.638360
 20
0.917400
  0
VERTEX
  8
0
  6
CONTINUOUS
 10
3.614160
 20
0.888360
  0
VERTEX
  8
0
  6
CONTINUOUS
 10
2.878480
 20
0.893640
  0
VERTEX
  8
0
  6
CONTINUOUS
 10
2.902680
 20
0.922240
  0
SEQEND
  8
0
  0
SOLID
  8
0
 62
    15
 10
2.878480
 20
0.893640
 11
3.614160
 21
0.888360
 12
2.845480
 22
0.869880
 13
3.581160
 23
0.864600
  0
POLYLINE
  8
0
  6
CONTINUOUS
 66
     1
 40
0.000000
 41
0.000000
  0
VERTEX
  8
0
  6
CONTINUOUS
 10
2.878480
 20
0.893640
  0
VERTEX
  8
0
  6
CONTINUOUS
 10
3.614160
 20
0.888360
  0
VERTEX
  8
0
  6
CONTINUOUS
 10
3.581160
 20
0.864600
  0
VERTEX
  8
0
  6
CONTINUOUS
 10
2.845480
 20
0.869880
  0
VERTEX
  8
0
  6
CONTINUOUS
 10
2.878480
 20
0.893640
  0
SEQEND
  8
0
  0
SOLID
  8
0
 62
    15
 10
2.845480
 20
0.869880
 11
3.581160
 21
0.864600
 12
2.802800
 22
0.851400
 13
3.538480
 23
0.846560
  0
POLYLINE
  8
0
  6
CONTINUOUS
 66
     1
 40
0.000000
 41
0.000000
  0
VERTEX
  8
0
  6
CONTINUOUS
 10
2.845480
 20
0.869880
  0
VERTEX
  8
0
  6
CONTINUOUS
 10
3.581160
 20
0.864600
  0
VERTEX
  8
0
  6
CONTINUOUS
 10
3.538480
 20
0.846560
  0
VERTEX
  8
0
  6
CONTINUOUS
 10
2.802800
 20
0.851400
  0
VERTEX
  8
0
  6
CONTINUOUS
 10
2.845480
 20
0.869880
  0
SEQEND
  8
0
  0
SOLID
  8
0
 62
    15
 10
2.749120
 20
0.840400
 11
3.484800
 21
0.835120
 12
2.684000
 22
0.836000
 13
3.419680
 23
0.831160
  0
POLYLINE
  8
0
  6
CONTINUOUS
 66
     1
 40
0.000000
 41
0.000000
  0
VERTEX
  8
0
  6
CONTINUOUS
 10
2.749120
 20
0.840400
  0
VERTEX
  8
0
  6
CONTINUOUS
 10
3.484800
 20
0.835120
  0
VERTEX
  8
0
  6
CONTINUOUS
 10
3.419680
 20
0.831160
  0
VERTEX
  8
0
  6
CONTINUOUS
 10
2.684000
 20
0.836000
  0
VERTEX
  8
0
  6
CONTINUOUS
 10
2.749120
 20
0.840400
  0
SEQEND
  8
0
  0
SOLID
  8
0
 62
    15
 10
2.802800
 20
0.851400
 11
3.538480
 21
0.846560
 12
2.749120
 22
0.840400
 13
3.484800
 23
0.835120
  0
POLYLINE
  8
0
  6
CONTINUOUS
 66
     1
 40
0.000000
 41
0.000000
  0
VERTEX
  8
0
  6
CONTINUOUS
 10
2.802800
 20
0.851400
  0
VERTEX
  8
0
  6
CONTINUOUS
 10
3.538480
 20
0.846560
  0
VERTEX
  8
0
  6
CONTINUOUS
 10
3.484800
 20
0.835120
  0
VERTEX
  8
0
  6
CONTINUOUS
 10
2.749120
 20
0.840400
  0
VERTEX
  8
0
  6
CONTINUOUS
 10
2.802800
 20
0.851400
  0
SEQEND
  8
0
  0
SOLID
  8
0
 62
    15
 10
2.684000
 20
0.836000
 11
3.419680
 21
0.831160
 12
2.673440
 22
0.836000
 13
3.409120
 23
0.831160
  0
POLYLINE
  8
0
  6
CONTINUOUS
 66
     1
 40
0.000000
 41
0.000000
  0
VERTEX
  8
0
  6
CONTINUOUS
 10
2.684000
 20
0.836000
  0
VERTEX
  8
0
  6
CONTINUOUS
 10
3.419680
 20
0.831160
  0
VERTEX
  8
0
  6
CONTINUOUS
 10
3.409120
 20
0.831160
  0
VERTEX
  8
0
  6
CONTINUOUS
 10
2.673440
 20
0.836000
  0
VERTEX
  8
0
  6
CONTINUOUS
 10
2.684000
 20
0.836000
  0
SEQEND
  8
0
  0
SOLID
  8
0
 62
    15
 10
3.941080
 20
3.773880
 11
4.676760
 21
3.769040
 12
3.941080
 22
3.218600
 13
4.676760
 23
3.213760
  0
POLYLINE
  8
0
  6
CONTINUOUS
 66
     1
 40
0.000000
 41
0.000000
  0
VERTEX
  8
0
  6
CONTINUOUS
 10
3.941080
 20
3.773880
  0
VERTEX
  8
0
  6
CONTINUOUS
 10
4.676760
 20
3.769040
  0
VERTEX
  8
0
  6
CONTINUOUS
 10
4.676760
 20
3.213760
  0
VERTEX
  8
0
  6
CONTINUOUS
 10
3.941080
 20
3.218600
  0
VERTEX
  8
0
  6
CONTINUOUS
 10
3.941080
 20
3.773880
  0
SEQEND
  8
0
  0
SOLID
  8
0
 62
    15
 10
3.941080
 20
3.218600
 11
4.676760
 21
3.213760
 12
3.785320
 22
3.218600
 13
4.520560
 23
3.213760
  0
POLYLINE
  8
0
  6
CONTINUOUS
 66
     1
 40
0.000000
 41
0.000000
  0
VERTEX
  8
0
  6
CONTINUOUS
 10
3.941080
 20
3.218600
  0
VERTEX
  8
0
  6
CONTINUOUS
 10
4.676760
 20
3.213760
  0
VERTEX
  8
0
  6
CONTINUOUS
 10
4.520560
 20
3.213760
  0
VERTEX
  8
0
  6
CONTINUOUS
 10
3.785320
 20
3.218600
  0
VERTEX
  8
0
  6
CONTINUOUS
 10
3.941080
 20
3.218600
  0
SEQEND
  8
0
  0
SOLID
  8
0
 62
    15
 10
3.785320
 20
3.218600
 11
4.520560
 21
3.213760
 12
3.785320
 22
3.094080
 13
4.520560
 23
3.089240
  0
POLYLINE
  8
0
  6
CONTINUOUS
 66
     1
 40
0.000000
 41
0.000000
  0
VERTEX
  8
0
  6
CONTINUOUS
 10
3.785320
 20
3.218600
  0
VERTEX
  8
0
  6
CONTINUOUS
 10
4.520560
 20
3.213760
  0
VERTEX
  8
0
  6
CONTINUOUS
 10
4.520560
 20
3.089240
  0
VERTEX
  8
0
  6
CONTINUOUS
 10
3.785320
 20
3.094080
  0
VERTEX
  8
0
  6
CONTINUOUS
 10
3.785320
 20
3.218600
  0
SEQEND
  8
0
  0
SOLID
  8
0
 62
    15
 10
3.786200
 20
3.094080
 11
4.521880
 21
3.089240
 12
3.828000
 22
3.061080
 13
4.563240
 23
3.056240
  0
POLYLINE
  8
0
  6
CONTINUOUS
 66
     1
 40
0.000000
 41
0.000000
  0
VERTEX
  8
0
  6
CONTINUOUS
 10
3.786200
 20
3.094080
  0
VERTEX
  8
0
  6
CONTINUOUS
 10
4.521880
 20
3.089240
  0
VERTEX
  8
0
  6
CONTINUOUS
 10
4.563240
 20
3.056240
  0
VERTEX
  8
0
  6
CONTINUOUS
 10
3.828000
 20
3.061080
  0
VERTEX
  8
0
  6
CONTINUOUS
 10
3.786200
 20
3.094080
  0
SEQEND
  8
0
  0
SOLID
  8
0
 62
    15
 10
3.828000
 20
3.061080
 11
4.563240
 21
3.056240
 12
3.863640
 22
3.017960
 13
4.598880
 23
3.012680
  0
POLYLINE
  8
0
  6
CONTINUOUS
 66
     1
 40
0.000000
 41
0.000000
  0
VERTEX
  8
0
  6
CONTINUOUS
 10
3.828000
 20
3.061080
  0
VERTEX
  8
0
  6
CONTINUOUS
 10
4.563240
 20
3.056240
  0
VERTEX
  8
0
  6
CONTINUOUS
 10
4.598880
 20
3.012680
  0
VERTEX
  8
0
  6
CONTINUOUS
 10
3.863640
 20
3.017960
  0
VERTEX
  8
0
  6
CONTINUOUS
 10
3.828000
 20
3.061080
  0
SEQEND
  8
0
  0
SOLID
  8
0
 62
    15
 10
3.863640
 20
3.017960
 11
4.598880
 21
3.012680
 12
3.892680
 22
2.966480
 13
4.628360
 23
2.961200
  0
POLYLINE
  8
0
  6
CONTINUOUS
 66
     1
 40
0.000000
 41
0.000000
  0
VERTEX
  8
0
  6
CONTINUOUS
 10
3.863640
 20
3.017960
  0
VERTEX
  8
0
  6
CONTINUOUS
 10
4.598880
 20
3.012680
  0
VERTEX
  8
0
  6
CONTINUOUS
 10
4.628360
 20
2.961200
  0
VERTEX
  8
0
  6
CONTINUOUS
 10
3.892680
 20
2.966480
  0
VERTEX
  8
0
  6
CONTINUOUS
 10
3.863640
 20
3.017960
  0
SEQEND
  8
0
  0
SOLID
  8
0
 62
    15
 10
3.892680
 20
2.966480
 11
4.628360
 21
2.961200
 12
3.915120
 22
2.908400
 13
4.650360
 23
2.903560
  0
POLYLINE
  8
0
  6
CONTINUOUS
 66
     1
 40
0.000000
 41
0.000000
  0
VERTEX
  8
0
  6
CONTINUOUS
 10
3.892680
 20
2.966480
  0
VERTEX
  8
0
  6
CONTINUOUS
 10
4.628360
 20
2.961200
  0
VERTEX
  8
0
  6
CONTINUOUS
 10
4.650360
 20
2.903560
  0
VERTEX
  8
0
  6
CONTINUOUS
 10
3.915120
 20
2.908400
  0
VERTEX
  8
0
  6
CONTINUOUS
 10
3.892680
 20
2.966480
  0
SEQEND
  8
0
  0
SOLID
  8
0
 62
    15
 10
3.915120
 20
2.908400
 11
4.650360
 21
2.903560
 12
3.929640
 22
2.845040
 13
4.665320
 23
2.840200
  0
POLYLINE
  8
0
  6
CONTINUOUS
 66
     1
 40
0.000000
 41
0.000000
  0
VERTEX
  8
0
  6
CONTINUOUS
 10
3.915120
 20
2.908400
  0
VERTEX
  8
0
  6
CONTINUOUS
 10
4.650360
 20
2.903560
  0
VERTEX
  8
0
  6
CONTINUOUS
 10
4.665320
 20
2.840200
  0
VERTEX
  8
0
  6
CONTINUOUS
 10
3.929640
 20
2.845040
  0
VERTEX
  8
0
  6
CONTINUOUS
 10
3.915120
 20
2.908400
  0
SEQEND
  8
0
  0
SOLID
  8
0
 62
    15
 10
3.929640
 20
2.845040
 11
4.665320
 21
2.840200
 12
3.936240
 22
2.779040
 13
4.671920
 23
2.774200
  0
POLYLINE
  8
0
  6
CONTINUOUS
 66
     1
 40
0.000000
 41
0.000000
  0
VERTEX
  8
0
  6
CONTINUOUS
 10
3.929640
 20
2.845040
  0
VERTEX
  8
0
  6
CONTINUOUS
 10
4.665320
 20
2.840200
  0
VERTEX
  8
0
  6
CONTINUOUS
 10
4.671920
 20
2.774200
  0
VERTEX
  8
0
  6
CONTINUOUS
 10
3.936240
 20
2.779040
  0
VERTEX
  8
0
  6
CONTINUOUS
 10
3.929640
 20
2.845040
  0
SEQEND
  8
0
  0
SOLID
  8
0
 62
    15
 10
3.936240
 20
2.779040
 11
4.671920
 21
2.774200
 12
3.934040
 22
2.711720
 13
4.669720
 23
2.706440
  0
POLYLINE
  8
0
  6
CONTINUOUS
 66
     1
 40
0.000000
 41
0.000000
  0
VERTEX
  8
0
  6
CONTINUOUS
 10
3.936240
 20
2.779040
  0
VERTEX
  8
0
  6
CONTINUOUS
 10
4.671920
 20
2.774200
  0
VERTEX
  8
0
  6
CONTINUOUS
 10
4.669720
 20
2.706440
  0
VERTEX
  8
0
  6
CONTINUOUS
 10
3.934040
 20
2.711720
  0
VERTEX
  8
0
  6
CONTINUOUS
 10
3.936240
 20
2.779040
  0
SEQEND
  8
0
  0
SOLID
  8
0
 62
    15
 10
3.934040
 20
2.711720
 11
4.669720
 21
2.706440
 12
3.923040
 22
2.644400
 13
4.658280
 23
2.639120
  0
POLYLINE
  8
0
  6
CONTINUOUS
 66
     1
 40
0.000000
 41
0.000000
  0
VERTEX
  8
0
  6
CONTINUOUS
 10
3.934040
 20
2.711720
  0
VERTEX
  8
0
  6
CONTINUOUS
 10
4.669720
 20
2.706440
  0
VERTEX
  8
0
  6
CONTINUOUS
 10
4.658280
 20
2.639120
  0
VERTEX
  8
0
  6
CONTINUOUS
 10
3.923040
 20
2.644400
  0
VERTEX
  8
0
  6
CONTINUOUS
 10
3.934040
 20
2.711720
  0
SEQEND
  8
0
  0
SOLID
  8
0
 62
    15
 10
3.923040
 20
2.644400
 11
4.658280
 21
2.639120
 12
3.901480
 22
2.578840
 13
4.637160
 23
2.574000
  0
POLYLINE
  8
0
  6
CONTINUOUS
 66
     1
 40
0.000000
 41
0.000000
  0
VERTEX
  8
0
  6
CONTINUOUS
 10
3.923040
 20
2.644400
  0
VERTEX
  8
0
  6
CONTINUOUS
 10
4.658280
 20
2.639120
  0
VERTEX
  8
0
  6
CONTINUOUS
 10
4.637160
 20
2.574000
  0
VERTEX
  8
0
  6
CONTINUOUS
 10
3.901480
 20
2.578840
  0
VERTEX
  8
0
  6
CONTINUOUS
 10
3.923040
 20
2.644400
  0
SEQEND
  8
0
  0
SOLID
  8
0
 62
    15
 10
3.901480
 20
2.578840
 11
4.637160
 21
2.574000
 12
3.870240
 22
2.517240
 13
4.605920
 23
2.512400
  0
POLYLINE
  8
0
  6
CONTINUOUS
 66
     1
 40
0.000000
 41
0.000000
  0
VERTEX
  8
0
  6
CONTINUOUS
 10
3.901480
 20
2.578840
  0
VERTEX
  8
0
  6
CONTINUOUS
 10
4.637160
 20
2.574000
  0
VERTEX
  8
0
  6
CONTINUOUS
 10
4.605920
 20
2.512400
  0
VERTEX
  8
0
  6
CONTINUOUS
 10
3.870240
 20
2.517240
  0
VERTEX
  8
0
  6
CONTINUOUS
 10
3.901480
 20
2.578840
  0
SEQEND
  8
0
  0
SOLID
  8
0
 62
    15
 10
3.870240
 20
2.517240
 11
4.605920
 21
2.512400
 12
3.828000
 22
2.461360
 13
4.563240
 23
2.456520
  0
POLYLINE
  8
0
  6
CONTINUOUS
 66
     1
 40
0.000000
 41
0.000000
  0
VERTEX
  8
0
  6
CONTINUOUS
 10
3.870240
 20
2.517240
  0
VERTEX
  8
0
  6
CONTINUOUS
 10
4.605920
 20
2.512400
  0
VERTEX
  8
0
  6
CONTINUOUS
 10
4.563240
 20
2.456520
  0
VERTEX
  8
0
  6
CONTINUOUS
 10
3.828000
 20
2.461360
  0
VERTEX
  8
0
  6
CONTINUOUS
 10
3.870240
 20
2.517240
  0
SEQEND
  8
0
  0
SOLID
  8
0
 62
    15
 10
3.828000
 20
2.461360
 11
4.563240
 21
2.456520
 12
3.773880
 22
2.412520
 13
4.509560
 23
2.407680
  0
POLYLINE
  8
0
  6
CONTINUOUS
 66
     1
 40
0.000000
 41
0.000000
  0
VERTEX
  8
0
  6
CONTINUOUS
 10
3.828000
 20
2.461360
  0
VERTEX
  8
0
  6
CONTINUOUS
 10
4.563240
 20
2.456520
  0
VERTEX
  8
0
  6
CONTINUOUS
 10
4.509560
 20
2.407680
  0
VERTEX
  8
0
  6
CONTINUOUS
 10
3.773880
 20
2.412520
  0
VERTEX
  8
0
  6
CONTINUOUS
 10
3.828000
 20
2.461360
  0
SEQEND
  8
0
  0
SOLID
  8
0
 62
    15
 10
3.773880
 20
2.412520
 11
4.509560
 21
2.407680
 12
3.708320
 22
2.372480
 13
4.443560
 23
2.367640
  0
POLYLINE
  8
0
  6
CONTINUOUS
 66
     1
 40
0.000000
 41
0.000000
  0
VERTEX
  8
0
  6
CONTINUOUS
 10
3.773880
 20
2.412520
  0
VERTEX
  8
0
  6
CONTINUOUS
 10
4.509560
 20
2.407680
  0
VERTEX
  8
0
  6
CONTINUOUS
 10
4.443560
 20
2.367640
  0
VERTEX
  8
0
  6
CONTINUOUS
 10
3.708320
 20
2.372480
  0
VERTEX
  8
0
  6
CONTINUOUS
 10
3.773880
 20
2.412520
  0
SEQEND
  8
0
  0
SOLID
  8
0
 62
    15
 10
3.708320
 20
2.372480
 11
4.443560
 21
2.367640
 12
3.630000
 22
2.343440
 13
4.365240
 23
2.338600
  0
POLYLINE
  8
0
  6
CONTINUOUS
 66
     1
 40
0.000000
 41
0.000000
  0
VERTEX
  8
0
  6
CONTINUOUS
 10
3.708320
 20
2.372480
  0
VERTEX
  8
0
  6
CONTINUOUS
 10
4.443560
 20
2.367640
  0
VERTEX
  8
0
  6
CONTINUOUS
 10
4.365240
 20
2.338600
  0
VERTEX
  8
0
  6
CONTINUOUS
 10
3.630000
 20
2.343440
  0
VERTEX
  8
0
  6
CONTINUOUS
 10
3.708320
 20
2.372480
  0
SEQEND
  8
0
  0
SOLID
  8
0
 62
    15
 10
3.630000
 20
2.343440
 11
4.365240
 21
2.338600
 12
3.538480
 22
2.326280
 13
4.274160
 23
2.321440
  0
POLYLINE
  8
0
  6
CONTINUOUS
 66
     1
 40
0.000000
 41
0.000000
  0
VERTEX
  8
0
  6
CONTINUOUS
 10
3.630000
 20
2.343440
  0
VERTEX
  8
0
  6
CONTINUOUS
 10
4.365240
 20
2.338600
  0
VERTEX
  8
0
  6
CONTINUOUS
 10
4.274160
 20
2.321440
  0
VERTEX
  8
0
  6
CONTINUOUS
 10
3.538480
 20
2.326280
  0
VERTEX
  8
0
  6
CONTINUOUS
 10
3.630000
 20
2.343440
  0
SEQEND
  8
0
  0
SOLID
  8
0
 62
    15
 10
3.538480
 20
2.326280
 11
4.274160
 21
2.321440
 12
3.433320
 22
2.323640
 13
4.169000
 23
2.318800
  0
POLYLINE
  8
0
  6
CONTINUOUS
 66
     1
 40
0.000000
 41
0.000000
  0
VERTEX
  8
0
  6
CONTINUOUS
 10
3.538480
 20
2.326280
  0
VERTEX
  8
0
  6
CONTINUOUS
 10
4.274160
 20
2.321440
  0
VERTEX
  8
0
  6
CONTINUOUS
 10
4.169000
 20
2.318800
  0
VERTEX
  8
0
  6
CONTINUOUS
 10
3.433320
 20
2.323640
  0
VERTEX
  8
0
  6
CONTINUOUS
 10
3.538480
 20
2.326280
  0
SEQEND
  8
0
  0
SOLID
  8
0
 62
    15
 10
4.169440
 20
2.318800
 11
4.169440
 21
2.221560
 12
3.433760
 22
2.323640
 13
3.433760
 23
2.226400
  0
POLYLINE
  8
0
  6
CONTINUOUS
 66
     1
 40
0.000000
 41
0.000000
  0
VERTEX
  8
0
  6
CONTINUOUS
 10
4.169440
 20
2.318800
  0
VERTEX
  8
0
  6
CONTINUOUS
 10
4.169440
 20
2.221560
  0
VERTEX
  8
0
  6
CONTINUOUS
 10
3.433760
 20
2.226400
  0
VERTEX
  8
0
  6
CONTINUOUS
 10
3.433760
 20
2.323640
  0
VERTEX
  8
0
  6
CONTINUOUS
 10
4.169440
 20
2.318800
  0
SEQEND
  8
0
  0
POLYLINE
  8
0
  6
CONTINUOUS
 66
     1
 40
0.000000
 41
0.000000
  0
VERTEX
  8
0
  6
CONTINUOUS
 10
2.670800
 20
0.837320
  0
VERTEX
  8
0
  6
CONTINUOUS
 10
2.670800
 20
2.827000
  0
VERTEX
  8
0
  6
CONTINUOUS
 10
3.433760
 20
2.827000
  0
VERTEX
  8
0
  6
CONTINUOUS
 10
3.433760
 20
2.226400
  0
VERTEX
  8
0
  6
CONTINUOUS
 10
3.402960
 20
2.223760
  0
VERTEX
  8
0
  6
CONTINUOUS
 10
3.370400
 20
2.214960
  0
VERTEX
  8
0
  6
CONTINUOUS
 10
3.336080
 20
2.200440
  0
VERTEX
  8
0
  6
CONTINUOUS
 10
3.300880
 20
2.180200
  0
VERTEX
  8
0
  6
CONTINUOUS
 10
3.228720
 20
2.121240
  0
VERTEX
  8
0
  6
CONTINUOUS
 10
3.193080
 20
2.082520
  0
VERTEX
  8
0
  6
CONTINUOUS
 10
3.157880
 20
2.037640
  0
VERTEX
  8
0
  6
CONTINUOUS
 10
3.124000
 20
1.986600
  0
VERTEX
  8
0
  6
CONTINUOUS
 10
3.091880
 20
1.928960
  0
VERTEX
  8
0
  6
CONTINUOUS
 10
3.061960
 20
1.865160
  0
VERTEX
  8
0
  6
CONTINUOUS
 10
3.034240
 20
1.794320
  0
VERTEX
  8
0
  6
CONTINUOUS
 10
3.010040
 20
1.717320
  0
VERTEX
  8
0
  6
CONTINUOUS
 10
2.988920
 20
1.633280
  0
VERTEX
  8
0
  6
CONTINUOUS
 10
2.971760
 20
1.542640
  0
VERTEX
  8
0
  6
CONTINUOUS
 10
2.958560
 20
1.444960
  0
VERTEX
  8
0
  6
CONTINUOUS
 10
3.002560
 20
1.440560
  0
VERTEX
  8
0
  6
CONTINUOUS
 10
3.040840
 20
1.427360
  0
VERTEX
  8
0
  6
CONTINUOUS
 10
3.072960
 20
1.406680
  0
VERTEX
  8
0
  6
CONTINUOUS
 10
3.098920
 20
1.380280
  0
VERTEX
  8
0
  6
CONTINUOUS
 10
3.118720
 20
1.348600
  0
VERTEX
  8
0
  6
CONTINUOUS
 10
3.132800
 20
1.313840
  0
VERTEX
  8
0
  6
CONTINUOUS
 10
3.140720
 20
1.276000
  0
VERTEX
  8
0
  6
CONTINUOUS
 10
3.142480
 20
1.237280
  0
VERTEX
  8
0
  6
CONTINUOUS
 10
3.138080
 20
1.198560
  0
VERTEX
  8
0
  6
CONTINUOUS
 10
3.127520
 20
1.161160
  0
VERTEX
  8
0
  6
CONTINUOUS
 10
3.110800
 20
1.125960
  0
VERTEX
  8
0
  6
CONTINUOUS
 10
3.087480
 20
1.094720
  0
VERTEX
  8
0
  6
CONTINUOUS
 10
3.058000
 20
1.068320
  0
VERTEX
  8
0
  6
CONTINUOUS
 10
3.021920
 20
1.047640
  0
VERTEX
  8
0
  6
CONTINUOUS
 10
2.979680
 20
1.034440
  0
VERTEX
  8
0
  6
CONTINUOUS
 10
2.930400
 20
1.029600
  0
VERTEX
  8
0
  6
CONTINUOUS
 10
2.927760
 20
0.991320
  0
VERTEX
  8
0
  6
CONTINUOUS
 10
2.918960
 20
0.955240
  0
VERTEX
  8
0
  6
CONTINUOUS
 10
2.902680
 20
0.922240
  0
VERTEX
  8
0
  6
CONTINUOUS
 10
2.878480
 20
0.893640
  0
VERTEX
  8
0
  6
CONTINUOUS
 10
2.845480
 20
0.869880
  0
VERTEX
  8
0
  6
CONTINUOUS
 10
2.802800
 20
0.851400
  0
VERTEX
  8
0
  6
CONTINUOUS
 10
2.749120
 20
0.840400
  0
VERTEX
  8
0
  6
CONTINUOUS
 10
2.684000
 20
0.836000
  0
VERTEX
  8
0
  6
CONTINUOUS
 10
2.673440
 20
0.836000
  0
VERTEX
  8
0
  6
CONTINUOUS
 10
2.670800
 20
0.837320
  0
SEQEND
  8
0
  0
POLYLINE
  8
0
  6
CONTINUOUS
 66
     1
 40
0.000000
 41
0.000000
  0
VERTEX
  8
0
  6
CONTINUOUS
 10
2.668600
 20
3.773880
  0
VERTEX
  8
0
  6
CONTINUOUS
 10
3.941080
 20
3.773880
  0
VERTEX
  8
0
  6
CONTINUOUS
 10
3.941080
 20
3.218600
  0
VERTEX
  8
0
  6
CONTINUOUS
 10
3.785320
 20
3.218600
  0
VERTEX
  8
0
  6
CONTINUOUS
 10
3.785320
 20
3.094080
  0
VERTEX
  8
0
  6
CONTINUOUS
 10
3.786200
 20
3.094080
  0
VERTEX
  8
0
  6
CONTINUOUS
 10
3.828000
 20
3.061080
  0
VERTEX
  8
0
  6
CONTINUOUS
 10
3.863640
 20
3.017960
  0
VERTEX
  8
0
  6
CONTINUOUS
 10
3.892680
 20
2.966480
  0
VERTEX
  8
0
  6
CONTINUOUS
 10
3.915120
 20
2.908400
  0
VERTEX
  8
0
  6
CONTINUOUS
 10
3.929640
 20
2.845040
  0
VERTEX
  8
0
  6
CONTINUOUS
 10
3.936240
 20
2.779040
  0
VERTEX
  8
0
  6
CONTINUOUS
 10
3.934040
 20
2.711720
  0
VERTEX
  8
0
  6
CONTINUOUS
 10
3.923040
 20
2.644400
  0
VERTEX
  8
0
  6
CONTINUOUS
 10
3.901480
 20
2.578840
  0
VERTEX
  8
0
  6
CONTINUOUS
 10
3.870240
 20
2.517240
  0
VERTEX
  8
0
  6
CONTINUOUS
 10
3.828000
 20
2.461360
  0
VERTEX
  8
0
  6
CONTINUOUS
 10
3.773880
 20
2.412520
  0
VERTEX
  8
0
  6
CONTINUOUS
 10
3.708320
 20
2.372480
  0
VERTEX
  8
0
  6
CONTINUOUS
 10
3.630000
 20
2.343440
  0
VERTEX
  8
0
  6
CONTINUOUS
 10
3.538480
 20
2.326280
  0
VERTEX
  8
0
  6
CONTINUOUS
 10
3.433320
 20
2.323640
  0
VERTEX
  8
0
  6
CONTINUOUS
 10
3.433320
 20
2.324080
  0
VERTEX
  8
0
  6
CONTINUOUS
 10
3.433320
 20
2.827000
  0
VERTEX
  8
0
  6
CONTINUOUS
 10
2.668600
 20
2.827000
  0
VERTEX
  8
0
  6
CONTINUOUS
 10
2.668600
 20
3.773880
  0
SEQEND
  8
0
  0
POLYLINE
  8
0
  6
CONTINUOUS
 66
     1
 40
0.014080
 41
0.014080
  0
VERTEX
  8
0
  6
CONTINUOUS
 10
8.065200
 20
2.502280
  0
VERTEX
  8
0
  6
CONTINUOUS
 10
8.064320
 20
2.546720
  0
VERTEX
  8
0
  6
CONTINUOUS
 10
8.059040
 20
2.592480
  0
VERTEX
  8
0
  6
CONTINUOUS
 10
8.049800
 20
2.631640
  0
VERTEX
  8
0
  6
CONTINUOUS
 10
8.037040
 20
2.664640
  0
VERTEX
  8
0
  6
CONTINUOUS
 10
8.020760
 20
2.691920
  0
VERTEX
  8
0
  6
CONTINUOUS
 10
8.001400
 20
2.713920
  0
VERTEX
  8
0
  6
CONTINUOUS
 10
7.979400
 20
2.731520
  0
VERTEX
  8
0
  6
CONTINUOUS
 10
7.963120
 20
2.740320
  0
VERTEX
  8
0
  6
CONTINUOUS
 10
7.946400
 20
2.747360
  0
VERTEX
  8
0
  6
CONTINUOUS
 10
7.910320
 20
2.756600
  0
VERTEX
  8
0
  6
CONTINUOUS
 10
7.871600
 20
2.759240
  0
VERTEX
  8
0
  6
CONTINUOUS
 10
7.868960
 20
2.796640
  0
VERTEX
  8
0
  6
CONTINUOUS
 10
7.861480
 20
2.830080
  0
VERTEX
  8
0
  6
CONTINUOUS
 10
7.844320
 20
2.869240
  0
VERTEX
  8
0
  6
CONTINUOUS
 10
7.833320
 20
2.886400
  0
VERTEX
  8
0
  6
CONTINUOUS
 10
7.820560
 20
2.902240
  0
VERTEX
  8
0
  6
CONTINUOUS
 10
7.791520
 20
2.928640
  0
VERTEX
  8
0
  6
CONTINUOUS
 10
7.758080
 20
2.948440
  0
VERTEX
  8
0
  6
CONTINUOUS
 10
7.740040
 20
2.956360
  0
VERTEX
  8
0
  6
CONTINUOUS
 10
7.721560
 20
2.962520
  0
VERTEX
  8
0
  6
CONTINUOUS
 10
7.683280
 20
2.970000
  0
VERTEX
  8
0
  6
CONTINUOUS
 10
7.644560
 20
2.971320
  0
VERTEX
  8
0
  6
CONTINUOUS
 10
7.606280
 20
2.966480
  0
VERTEX
  8
0
  6
CONTINUOUS
 10
7.569760
 20
2.955480
  0
VERTEX
  8
0
  6
CONTINUOUS
 10
7.536320
 20
2.938320
  0
VERTEX
  8
0
  6
CONTINUOUS
 10
7.507280
 20
2.915440
  0
VERTEX
  8
0
  6
CONTINUOUS
 10
7.494520
 20
2.901360
  0
VERTEX
  8
0
  6
CONTINUOUS
 10
7.483520
 20
2.885960
  0
VERTEX
  8
0
  6
CONTINUOUS
 10
7.466360
 20
2.851200
  0
VERTEX
  8
0
  6
CONTINUOUS
 10
7.458880
 20
2.820840
  0
VERTEX
  8
0
  6
CONTINUOUS
 10
7.456240
 20
2.787400
  0
VERTEX
  8
0
  6
CONTINUOUS
 10
7.406520
 20
2.793120
  0
VERTEX
  8
0
  6
CONTINUOUS
 10
7.358560
 20
2.800160
  0
VERTEX
  8
0
  6
CONTINUOUS
 10
7.267920
 20
2.817320
  0
VERTEX
  8
0
  6
CONTINUOUS
 10
7.184320
 20
2.838440
  0
VERTEX
  8
0
  6
CONTINUOUS
 10
7.106880
 20
2.863080
  0
VERTEX
  8
0
  6
CONTINUOUS
 10
7.036480
 20
2.890800
  0
VERTEX
  8
0
  6
CONTINUOUS
 10
6.972240
 20
2.920720
  0
VERTEX
  8
0
  6
CONTINUOUS
 10
6.914600
 20
2.952840
  0
VERTEX
  8
0
  6
CONTINUOUS
 10
6.863560
 20
2.986720
  0
VERTEX
  8
0
  6
CONTINUOUS
 10
6.818680
 20
3.021920
  0
VERTEX
  8
0
  6
CONTINUOUS
 10
6.779960
 20
3.057560
  0
VERTEX
  8
0
  6
CONTINUOUS
 10
6.747400
 20
3.093640
  0
VERTEX
  8
0
  6
CONTINUOUS
 10
6.721000
 20
3.129280
  0
VERTEX
  8
0
  6
CONTINUOUS
 10
6.700760
 20
3.164920
  0
VERTEX
  8
0
  6
CONTINUOUS
 10
6.686240
 20
3.198800
  0
VERTEX
  8
0
  6
CONTINUOUS
 10
6.677440
 20
3.231800
  0
VERTEX
  8
0
  6
CONTINUOUS
 10
6.674800
 20
3.262600
  0
VERTEX
  8
0
  6
CONTINUOUS
 10
6.074640
 20
3.262600
  0
VERTEX
  8
0
  6
CONTINUOUS
 10
6.074640
 20
2.499200
  0
VERTEX
  8
0
  6
CONTINUOUS
 10
8.064320
 20
2.499200
  0
VERTEX
  8
0
  6
CONTINUOUS
 10
8.065200
 20
2.502280
  0
SEQEND
  8
0
  0
POLYLINE
  8
0
  6
CONTINUOUS
 66
     1
 40
0.014080
 41
0.014080
  0
VERTEX
  8
0
  6
CONTINUOUS
 10
5.127320
 20
2.497440
  0
VERTEX
  8
0
  6
CONTINUOUS
 10
5.127320
 20
3.769480
  0
VERTEX
  8
0
  6
CONTINUOUS
 10
5.682600
 20
3.769480
  0
VERTEX
  8
0
  6
CONTINUOUS
 10
5.682600
 20
3.613720
  0
VERTEX
  8
0
  6
CONTINUOUS
 10
5.807560
 20
3.613720
  0
VERTEX
  8
0
  6
CONTINUOUS
 10
5.822520
 20
3.636160
  0
VERTEX
  8
0
  6
CONTINUOUS
 10
5.840560
 20
3.656400
  0
VERTEX
  8
0
  6
CONTINUOUS
 10
5.872240
 20
3.683680
  0
VERTEX
  8
0
  6
CONTINUOUS
 10
5.908320
 20
3.707440
  0
VERTEX
  8
0
  6
CONTINUOUS
 10
5.935160
 20
3.721080
  0
VERTEX
  8
0
  6
CONTINUOUS
 10
5.963320
 20
3.733400
  0
VERTEX
  8
0
  6
CONTINUOUS
 10
5.993240
 20
3.743520
  0
VERTEX
  8
0
  6
CONTINUOUS
 10
6.024040
 20
3.751880
  0
VERTEX
  8
0
  6
CONTINUOUS
 10
6.056160
 20
3.758040
  0
VERTEX
  8
0
  6
CONTINUOUS
 10
6.088720
 20
3.762440
  0
VERTEX
  8
0
  6
CONTINUOUS
 10
6.122160
 20
3.764640
  0
VERTEX
  8
0
  6
CONTINUOUS
 10
6.156040
 20
3.764640
  0
VERTEX
  8
0
  6
CONTINUOUS
 10
6.189920
 20
3.762440
  0
VERTEX
  8
0
  6
CONTINUOUS
 10
6.223800
 20
3.758040
  0
VERTEX
  8
0
  6
CONTINUOUS
 10
6.273520
 20
3.747040
  0
VERTEX
  8
0
  6
CONTINUOUS
 10
6.322360
 20
3.730320
  0
VERTEX
  8
0
  6
CONTINUOUS
 10
6.369000
 20
3.707440
  0
VERTEX
  8
0
  6
CONTINUOUS
 10
6.398480
 20
3.689400
  0
VERTEX
  8
0
  6
CONTINUOUS
 10
6.439840
 20
3.656400
  0
VERTEX
  8
0
  6
CONTINUOUS
 10
6.477680
 20
3.617240
  0
VERTEX
  8
0
  6
CONTINUOUS
 10
6.499680
 20
3.587320
  0
VERTEX
  8
0
  6
CONTINUOUS
 10
6.519920
 20
3.554320
  0
VERTEX
  8
0
  6
CONTINUOUS
 10
6.545000
 20
3.499320
  0
VERTEX
  8
0
  6
CONTINUOUS
 10
6.558200
 20
3.458400
  0
VERTEX
  8
0
  6
CONTINUOUS
 10
6.568320
 20
3.414400
  0
VERTEX
  8
0
  6
CONTINUOUS
 10
6.575360
 20
3.366880
  0
VERTEX
  8
0
  6
CONTINUOUS
 10
6.578440
 20
3.315840
  0
VERTEX
  8
0
  6
CONTINUOUS
 10
6.578880
 20
3.289440
  0
VERTEX
  8
0
  6
CONTINUOUS
 10
6.578000
 20
3.261720
  0
VERTEX
  8
0
  6
CONTINUOUS
 10
6.074640
 20
3.261720
  0
VERTEX
  8
0
  6
CONTINUOUS
 10
6.074640
 20
2.497440
  0
VERTEX
  8
0
  6
CONTINUOUS
 10
5.127320
 20
2.497440
  0
SEQEND
  8
0
  0
TEXT
  8
0
 10
5.513200
 20
2.285800
 40
0.138125
  1
BA  1014  3/4" x 2"
 41
1.000000
  7
SN0
 71
     0
 72
     5
 11
6.904291
 21
2.285800
  0
TEXT
  8
0
 10
5.513200
 20
2.094400
 40
0.138125
  1
BA  1015  1-1/4" x 1-1/2"
 41
1.000000
  7
SN0
 71
     0
 72
     5
 11
7.337999
 21
2.094400
  0
ENDSEC
  0
EOF
