  0
SECTION
  2
HEADER
  9
$ACADVER
  1
AC1006
  9
$EXTMIN
 10
4.744520
 20
0.683320
  9
$EXTMAX
 10
7.678440
 20
3.022800
  9
$LTSCALE
 40
0.044000
  9
$PDMODE
 70
    35
  9
$PDSIZE
 40
0.035200
  0
ENDSEC
  0
SECTION
  2
TABLES
  0
TABLE
  2
LTYPE
 70
     9
  0
LTYPE
  2
CONTINUOUS
 70
    64
  3
Solid line
 72
    65
 73
     0
 40
0.000000
  0
LTYPE
  2
DASHED
 70
    64
  3
__ __ __ __ __ __ __ __ __ __ __ __ __ __ __
 72
    65
 73
     2
 40
0.000330
 49
0.000220
 49
-0.000110
  0
LTYPE
  2
HIDDEN
 70
    64
  3
 _ _ _ _ _ _ _ _ _ _ _ _ _ _ _ _ _ _ _ _ _ _
 72
    65
 73
     2
 40
0.000165
 49
0.000110
 49
-0.000055
  0
LTYPE
  2
CENTER
 70
    64
  3
____ _ ____ _ ____ _ ____ _ ____ _ ____ _ ____
 72
    65
 73
     4
 40
0.000880
 49
0.000550
 49
-0.000110
 49
0.000110
 49
-0.000110
  0
LTYPE
  2
PHANTOM
 70
    64
  3
_____ _ _ _____ _ _ _____ _ _ _____ _ _ ____
 72
    65
 73
     6
 40
0.001100
 49
0.000550
 49
-0.000110
 49
0.000110
 49
-0.000110
 49
0.000110
 49
-0.000110
  0
LTYPE
  2
DOT
 70
    64
  3
...............................................
 72
    65
 73
     2
 40
0.000110
 49
0.000000
 49
-0.000110
  0
LTYPE
  2
DASHDOT
 70
    64
  3
__ . __ . __ . __ . __ . __ . __ . __ . __ . __
 72
    65
 73
     4
 40
0.000440
 49
0.000220
 49
-0.000110
 49
0.000000
 49
-0.000110
  0
LTYPE
  2
BORDER
 70
    64
  3
__ __ . __ __ . __ __ . __ __ . __ __ . __ __
 72
    65
 73
     6
 40
0.000770
 49
0.000220
 49
-0.000110
 49
0.000220
 49
-0.000110
 49
0.000000
 49
-0.000110
  0
LTYPE
  2
DIVIDE
 70
    64
  3
__ . . __ . . __ . . __ . . __ . . __ . . __
 72
    65
 73
     6
 40
0.000550
 49
0.000220
 49
-0.000110
 49
0.000000
 49
-0.000110
 49
0.000000
 49
-0.000110
  0
LTYPE
  2
DOTDOT
 70
    64
  3
 . .  . .  . .  . .  . .  . . 
 72
    65
 73
     5
 40
0.000242
 49
-0.000110
 49
0.000000
 49
-0.000110
 49
0.000000
 49
-0.000110
  0
ENDTAB
  0
TABLE
  2
STYLE
 70
     2
  0
STYLE
 70
     0
  2
SN0
 40
0.000000
 41
0.000440
 50
0.000000
 71
     0
 42
0.000000
  3
ROMAND
  0
STYLE
 70
    68
  2
SV0
 40
0.000000
 41
0.000440
 50
0.000000
 71
     0
 42
0.000000
  3
ROMAND
  0
ENDTAB
  0
TABLE
  2
LAYER
 70
     3
  0
LAYER
  2
FOREGROUND
 70
    64
 62
     7
  6
CONTINUOUS
  0
LAYER
  2
BACKGROUND
 70
    65
 62
    -7
  6
CONTINUOUS
  0
LAYER
  2
0
 70
    64
 62
     7
  6
CONTINUOUS
  0
ENDTAB
  0
ENDSEC
  0
SECTION
  2
ENTITIES
  0
POLYLINE
  8
FOREGROUND
  6
CONTINUOUS
 66
     1
 40
0.000000
 41
0.000000
  0
VERTEX
  8
FOREGROUND
  6
CONTINUOUS
 10
0.000000
 20
3.706120
  0
VERTEX
  8
FOREGROUND
  6
CONTINUOUS
 10
8.499920
 20
3.706120
  0
VERTEX
  8
FOREGROUND
  6
CONTINUOUS
 10
8.499920
 20
-7.293880
  0
VERTEX
  8
FOREGROUND
  6
CONTINUOUS
 10
0.000000
 20
-7.293880
  0
VERTEX
  8
FOREGROUND
  6
CONTINUOUS
 10
0.000000
 20
3.706120
  0
SEQEND
  8
0
  0
POLYLINE
  8
FOREGROUND
  6
CONTINUOUS
 66
     1
 40
0.000000
 41
0.000000
  0
VERTEX
  8
FOREGROUND
  6
CONTINUOUS
 10
0.000000
 20
3.706120
  0
VERTEX
  8
FOREGROUND
  6
CONTINUOUS
 10
8.499920
 20
3.706120
  0
VERTEX
  8
FOREGROUND
  6
CONTINUOUS
 10
8.499920
 20
-7.293880
  0
VERTEX
  8
FOREGROUND
  6
CONTINUOUS
 10
0.000000
 20
-7.293880
  0
VERTEX
  8
FOREGROUND
  6
CONTINUOUS
 10
0.000000
 20
3.706120
  0
SEQEND
  8
0
  0
SOLID
  8
0
 62
    15
 10
5.256240
 20
1.866480
 11
5.903920
 21
2.237400
 12
5.322680
 22
1.824240
 13
5.970360
 23
2.195600
  0
POLYLINE
  8
0
  6
CONTINUOUS
 66
     1
 40
0.000000
 41
0.000000
  0
VERTEX
  8
0
  6
CONTINUOUS
 10
5.256240
 20
1.866480
  0
VERTEX
  8
0
  6
CONTINUOUS
 10
5.903920
 20
2.237400
  0
VERTEX
  8
0
  6
CONTINUOUS
 10
5.970360
 20
2.195600
  0
VERTEX
  8
0
  6
CONTINUOUS
 10
5.322680
 20
1.824240
  0
VERTEX
  8
0
  6
CONTINUOUS
 10
5.256240
 20
1.866480
  0
SEQEND
  8
0
  0
SOLID
  8
0
 62
    15
 10
4.836040
 20
2.650560
 11
5.483720
 21
3.021920
 12
5.010280
 22
2.494360
 13
5.657960
 23
2.865720
  0
POLYLINE
  8
0
  6
CONTINUOUS
 66
     1
 40
0.000000
 41
0.000000
  0
VERTEX
  8
0
  6
CONTINUOUS
 10
4.836040
 20
2.650560
  0
VERTEX
  8
0
  6
CONTINUOUS
 10
5.483720
 20
3.021920
  0
VERTEX
  8
0
  6
CONTINUOUS
 10
5.657960
 20
2.865720
  0
VERTEX
  8
0
  6
CONTINUOUS
 10
5.010280
 20
2.494360
  0
VERTEX
  8
0
  6
CONTINUOUS
 10
4.836040
 20
2.650560
  0
SEQEND
  8
0
  0
SOLID
  8
0
 62
    15
 10
5.010280
 20
2.494360
 11
5.657960
 21
2.865720
 12
5.010280
 22
2.388760
 13
5.657960
 23
2.759680
  0
POLYLINE
  8
0
  6
CONTINUOUS
 66
     1
 40
0.000000
 41
0.000000
  0
VERTEX
  8
0
  6
CONTINUOUS
 10
5.010280
 20
2.494360
  0
VERTEX
  8
0
  6
CONTINUOUS
 10
5.657960
 20
2.865720
  0
VERTEX
  8
0
  6
CONTINUOUS
 10
5.657960
 20
2.759680
  0
VERTEX
  8
0
  6
CONTINUOUS
 10
5.010280
 20
2.388760
  0
VERTEX
  8
0
  6
CONTINUOUS
 10
5.010280
 20
2.494360
  0
SEQEND
  8
0
  0
SOLID
  8
0
 62
    15
 10
5.010280
 20
2.388760
 11
5.657960
 21
2.759680
 12
4.988720
 22
2.360600
 13
5.636400
 23
2.731520
  0
POLYLINE
  8
0
  6
CONTINUOUS
 66
     1
 40
0.000000
 41
0.000000
  0
VERTEX
  8
0
  6
CONTINUOUS
 10
5.010280
 20
2.388760
  0
VERTEX
  8
0
  6
CONTINUOUS
 10
5.657960
 20
2.759680
  0
VERTEX
  8
0
  6
CONTINUOUS
 10
5.636400
 20
2.731520
  0
VERTEX
  8
0
  6
CONTINUOUS
 10
4.988720
 20
2.360600
  0
VERTEX
  8
0
  6
CONTINUOUS
 10
5.010280
 20
2.388760
  0
SEQEND
  8
0
  0
SOLID
  8
0
 62
    15
 10
4.988720
 20
2.360600
 11
5.636400
 21
2.731520
 12
4.972000
 22
2.331120
 13
5.619680
 23
2.702480
  0
POLYLINE
  8
0
  6
CONTINUOUS
 66
     1
 40
0.000000
 41
0.000000
  0
VERTEX
  8
0
  6
CONTINUOUS
 10
4.988720
 20
2.360600
  0
VERTEX
  8
0
  6
CONTINUOUS
 10
5.636400
 20
2.731520
  0
VERTEX
  8
0
  6
CONTINUOUS
 10
5.619680
 20
2.702480
  0
VERTEX
  8
0
  6
CONTINUOUS
 10
4.972000
 20
2.331120
  0
VERTEX
  8
0
  6
CONTINUOUS
 10
4.988720
 20
2.360600
  0
SEQEND
  8
0
  0
SOLID
  8
0
 62
    15
 10
4.972000
 20
2.331120
 11
5.619680
 21
2.702480
 12
4.960120
 22
2.301200
 13
5.607800
 23
2.672120
  0
POLYLINE
  8
0
  6
CONTINUOUS
 66
     1
 40
0.000000
 41
0.000000
  0
VERTEX
  8
0
  6
CONTINUOUS
 10
4.972000
 20
2.331120
  0
VERTEX
  8
0
  6
CONTINUOUS
 10
5.619680
 20
2.702480
  0
VERTEX
  8
0
  6
CONTINUOUS
 10
5.607800
 20
2.672120
  0
VERTEX
  8
0
  6
CONTINUOUS
 10
4.960120
 20
2.301200
  0
VERTEX
  8
0
  6
CONTINUOUS
 10
4.972000
 20
2.331120
  0
SEQEND
  8
0
  0
SOLID
  8
0
 62
    15
 10
4.960120
 20
2.301200
 11
5.607800
 21
2.672120
 12
4.953080
 22
2.269960
 13
5.600760
 23
2.641320
  0
POLYLINE
  8
0
  6
CONTINUOUS
 66
     1
 40
0.000000
 41
0.000000
  0
VERTEX
  8
0
  6
CONTINUOUS
 10
4.960120
 20
2.301200
  0
VERTEX
  8
0
  6
CONTINUOUS
 10
5.607800
 20
2.672120
  0
VERTEX
  8
0
  6
CONTINUOUS
 10
5.600760
 20
2.641320
  0
VERTEX
  8
0
  6
CONTINUOUS
 10
4.953080
 20
2.269960
  0
VERTEX
  8
0
  6
CONTINUOUS
 10
4.960120
 20
2.301200
  0
SEQEND
  8
0
  0
SOLID
  8
0
 62
    15
 10
4.953080
 20
2.269960
 11
5.600760
 21
2.641320
 12
4.951320
 22
2.237840
 13
5.599000
 23
2.609200
  0
POLYLINE
  8
0
  6
CONTINUOUS
 66
     1
 40
0.000000
 41
0.000000
  0
VERTEX
  8
0
  6
CONTINUOUS
 10
4.953080
 20
2.269960
  0
VERTEX
  8
0
  6
CONTINUOUS
 10
5.600760
 20
2.641320
  0
VERTEX
  8
0
  6
CONTINUOUS
 10
5.599000
 20
2.609200
  0
VERTEX
  8
0
  6
CONTINUOUS
 10
4.951320
 20
2.237840
  0
VERTEX
  8
0
  6
CONTINUOUS
 10
4.953080
 20
2.269960
  0
SEQEND
  8
0
  0
SOLID
  8
0
 62
    15
 10
4.951320
 20
2.237840
 11
5.599000
 21
2.609200
 12
4.954840
 22
2.204840
 13
5.602520
 23
2.575760
  0
POLYLINE
  8
0
  6
CONTINUOUS
 66
     1
 40
0.000000
 41
0.000000
  0
VERTEX
  8
0
  6
CONTINUOUS
 10
4.951320
 20
2.237840
  0
VERTEX
  8
0
  6
CONTINUOUS
 10
5.599000
 20
2.609200
  0
VERTEX
  8
0
  6
CONTINUOUS
 10
5.602520
 20
2.575760
  0
VERTEX
  8
0
  6
CONTINUOUS
 10
4.954840
 20
2.204840
  0
VERTEX
  8
0
  6
CONTINUOUS
 10
4.951320
 20
2.237840
  0
SEQEND
  8
0
  0
SOLID
  8
0
 62
     7
 10
4.954840
 20
2.204840
 11
5.602520
 21
2.575760
 12
4.964080
 22
2.170520
 13
5.611760
 23
2.541880
  0
POLYLINE
  8
0
  6
CONTINUOUS
 66
     1
 40
0.000000
 41
0.000000
  0
VERTEX
  8
0
  6
CONTINUOUS
 10
4.954840
 20
2.204840
  0
VERTEX
  8
0
  6
CONTINUOUS
 10
5.602520
 20
2.575760
  0
VERTEX
  8
0
  6
CONTINUOUS
 10
5.611760
 20
2.541880
  0
VERTEX
  8
0
  6
CONTINUOUS
 10
4.964080
 20
2.170520
  0
VERTEX
  8
0
  6
CONTINUOUS
 10
4.954840
 20
2.204840
  0
SEQEND
  8
0
  0
SOLID
  8
0
 62
     7
 10
4.964080
 20
2.170520
 11
5.611760
 21
2.541880
 12
4.978600
 22
2.135760
 13
5.626280
 23
2.507120
  0
POLYLINE
  8
0
  6
CONTINUOUS
 66
     1
 40
0.000000
 41
0.000000
  0
VERTEX
  8
0
  6
CONTINUOUS
 10
4.964080
 20
2.170520
  0
VERTEX
  8
0
  6
CONTINUOUS
 10
5.611760
 20
2.541880
  0
VERTEX
  8
0
  6
CONTINUOUS
 10
5.626280
 20
2.507120
  0
VERTEX
  8
0
  6
CONTINUOUS
 10
4.978600
 20
2.135760
  0
VERTEX
  8
0
  6
CONTINUOUS
 10
4.964080
 20
2.170520
  0
SEQEND
  8
0
  0
SOLID
  8
0
 62
     7
 10
4.978600
 20
2.135760
 11
5.626280
 21
2.507120
 12
4.999280
 22
2.100120
 13
5.646960
 23
2.471040
  0
POLYLINE
  8
0
  6
CONTINUOUS
 66
     1
 40
0.000000
 41
0.000000
  0
VERTEX
  8
0
  6
CONTINUOUS
 10
4.978600
 20
2.135760
  0
VERTEX
  8
0
  6
CONTINUOUS
 10
5.626280
 20
2.507120
  0
VERTEX
  8
0
  6
CONTINUOUS
 10
5.646960
 20
2.471040
  0
VERTEX
  8
0
  6
CONTINUOUS
 10
4.999280
 20
2.100120
  0
VERTEX
  8
0
  6
CONTINUOUS
 10
4.978600
 20
2.135760
  0
SEQEND
  8
0
  0
SOLID
  8
0
 62
     7
 10
4.999280
 20
2.100120
 11
5.646960
 21
2.471040
 12
5.026120
 22
2.063160
 13
5.673800
 23
2.434520
  0
POLYLINE
  8
0
  6
CONTINUOUS
 66
     1
 40
0.000000
 41
0.000000
  0
VERTEX
  8
0
  6
CONTINUOUS
 10
4.999280
 20
2.100120
  0
VERTEX
  8
0
  6
CONTINUOUS
 10
5.646960
 20
2.471040
  0
VERTEX
  8
0
  6
CONTINUOUS
 10
5.673800
 20
2.434520
  0
VERTEX
  8
0
  6
CONTINUOUS
 10
5.026120
 20
2.063160
  0
VERTEX
  8
0
  6
CONTINUOUS
 10
4.999280
 20
2.100120
  0
SEQEND
  8
0
  0
SOLID
  8
0
 62
     7
 10
5.026120
 20
2.063160
 11
5.673800
 21
2.434520
 12
5.059120
 22
2.025760
 13
5.706360
 23
2.396680
  0
POLYLINE
  8
0
  6
CONTINUOUS
 66
     1
 40
0.000000
 41
0.000000
  0
VERTEX
  8
0
  6
CONTINUOUS
 10
5.026120
 20
2.063160
  0
VERTEX
  8
0
  6
CONTINUOUS
 10
5.673800
 20
2.434520
  0
VERTEX
  8
0
  6
CONTINUOUS
 10
5.706360
 20
2.396680
  0
VERTEX
  8
0
  6
CONTINUOUS
 10
5.059120
 20
2.025760
  0
VERTEX
  8
0
  6
CONTINUOUS
 10
5.026120
 20
2.063160
  0
SEQEND
  8
0
  0
SOLID
  8
0
 62
     7
 10
5.059120
 20
2.025760
 11
5.706360
 21
2.396680
 12
5.098280
 22
1.987040
 13
5.745960
 23
2.358400
  0
POLYLINE
  8
0
  6
CONTINUOUS
 66
     1
 40
0.000000
 41
0.000000
  0
VERTEX
  8
0
  6
CONTINUOUS
 10
5.059120
 20
2.025760
  0
VERTEX
  8
0
  6
CONTINUOUS
 10
5.706360
 20
2.396680
  0
VERTEX
  8
0
  6
CONTINUOUS
 10
5.745960
 20
2.358400
  0
VERTEX
  8
0
  6
CONTINUOUS
 10
5.098280
 20
1.987040
  0
VERTEX
  8
0
  6
CONTINUOUS
 10
5.059120
 20
2.025760
  0
SEQEND
  8
0
  0
SOLID
  8
0
 62
     7
 10
5.098280
 20
1.987040
 11
5.745960
 21
2.358400
 12
5.144040
 22
1.947880
 13
5.791720
 23
2.318800
  0
POLYLINE
  8
0
  6
CONTINUOUS
 66
     1
 40
0.000000
 41
0.000000
  0
VERTEX
  8
0
  6
CONTINUOUS
 10
5.098280
 20
1.987040
  0
VERTEX
  8
0
  6
CONTINUOUS
 10
5.745960
 20
2.358400
  0
VERTEX
  8
0
  6
CONTINUOUS
 10
5.791720
 20
2.318800
  0
VERTEX
  8
0
  6
CONTINUOUS
 10
5.144040
 20
1.947880
  0
VERTEX
  8
0
  6
CONTINUOUS
 10
5.098280
 20
1.987040
  0
SEQEND
  8
0
  0
SOLID
  8
0
 62
    15
 10
5.144040
 20
1.947880
 11
5.791720
 21
2.318800
 12
5.196840
 22
1.907400
 13
5.844520
 23
2.278760
  0
POLYLINE
  8
0
  6
CONTINUOUS
 66
     1
 40
0.000000
 41
0.000000
  0
VERTEX
  8
0
  6
CONTINUOUS
 10
5.144040
 20
1.947880
  0
VERTEX
  8
0
  6
CONTINUOUS
 10
5.791720
 20
2.318800
  0
VERTEX
  8
0
  6
CONTINUOUS
 10
5.844520
 20
2.278760
  0
VERTEX
  8
0
  6
CONTINUOUS
 10
5.196840
 20
1.907400
  0
VERTEX
  8
0
  6
CONTINUOUS
 10
5.144040
 20
1.947880
  0
SEQEND
  8
0
  0
SOLID
  8
0
 62
    15
 10
5.196840
 20
1.907400
 11
5.844520
 21
2.278760
 12
5.256240
 22
1.866480
 13
5.903920
 23
2.237400
  0
POLYLINE
  8
0
  6
CONTINUOUS
 66
     1
 40
0.000000
 41
0.000000
  0
VERTEX
  8
0
  6
CONTINUOUS
 10
5.196840
 20
1.907400
  0
VERTEX
  8
0
  6
CONTINUOUS
 10
5.844520
 20
2.278760
  0
VERTEX
  8
0
  6
CONTINUOUS
 10
5.903920
 20
2.237400
  0
VERTEX
  8
0
  6
CONTINUOUS
 10
5.256240
 20
1.866480
  0
VERTEX
  8
0
  6
CONTINUOUS
 10
5.196840
 20
1.907400
  0
SEQEND
  8
0
  0
SOLID
  8
0
 62
    15
 10
4.748040
 20
2.650560
 11
5.395720
 21
3.021920
 12
4.836040
 22
2.650560
 13
5.483720
 23
3.021920
  0
POLYLINE
  8
0
  6
CONTINUOUS
 66
     1
 40
0.000000
 41
0.000000
  0
VERTEX
  8
0
  6
CONTINUOUS
 10
4.748040
 20
2.650560
  0
VERTEX
  8
0
  6
CONTINUOUS
 10
5.395720
 20
3.021920
  0
VERTEX
  8
0
  6
CONTINUOUS
 10
5.483720
 20
3.021920
  0
VERTEX
  8
0
  6
CONTINUOUS
 10
4.836040
 20
2.650560
  0
VERTEX
  8
0
  6
CONTINUOUS
 10
4.748040
 20
2.650560
  0
SEQEND
  8
0
  0
SOLID
  8
0
 62
    15
 10
5.322680
 20
1.824240
 11
5.970360
 21
2.195600
 12
5.356120
 22
1.802680
 13
6.003800
 23
2.174040
  0
POLYLINE
  8
0
  6
CONTINUOUS
 66
     1
 40
0.000000
 41
0.000000
  0
VERTEX
  8
0
  6
CONTINUOUS
 10
5.322680
 20
1.824240
  0
VERTEX
  8
0
  6
CONTINUOUS
 10
5.970360
 20
2.195600
  0
VERTEX
  8
0
  6
CONTINUOUS
 10
6.003800
 20
2.174040
  0
VERTEX
  8
0
  6
CONTINUOUS
 10
5.356120
 20
1.802680
  0
VERTEX
  8
0
  6
CONTINUOUS
 10
5.322680
 20
1.824240
  0
SEQEND
  8
0
  0
SOLID
  8
0
 62
    15
 10
5.356120
 20
1.802680
 11
6.003800
 21
2.174040
 12
5.386040
 22
1.780680
 13
6.033720
 23
2.151600
  0
POLYLINE
  8
0
  6
CONTINUOUS
 66
     1
 40
0.000000
 41
0.000000
  0
VERTEX
  8
0
  6
CONTINUOUS
 10
5.356120
 20
1.802680
  0
VERTEX
  8
0
  6
CONTINUOUS
 10
6.003800
 20
2.174040
  0
VERTEX
  8
0
  6
CONTINUOUS
 10
6.033720
 20
2.151600
  0
VERTEX
  8
0
  6
CONTINUOUS
 10
5.386040
 20
1.780680
  0
VERTEX
  8
0
  6
CONTINUOUS
 10
5.356120
 20
1.802680
  0
SEQEND
  8
0
  0
SOLID
  8
0
 62
     7
 10
5.386040
 20
1.780680
 11
6.033720
 21
2.151600
 12
5.435320
 22
1.734480
 13
6.083000
 23
2.105400
  0
POLYLINE
  8
0
  6
CONTINUOUS
 66
     1
 40
0.000000
 41
0.000000
  0
VERTEX
  8
0
  6
CONTINUOUS
 10
5.386040
 20
1.780680
  0
VERTEX
  8
0
  6
CONTINUOUS
 10
6.033720
 20
2.151600
  0
VERTEX
  8
0
  6
CONTINUOUS
 10
6.083000
 20
2.105400
  0
VERTEX
  8
0
  6
CONTINUOUS
 10
5.435320
 20
1.734480
  0
VERTEX
  8
0
  6
CONTINUOUS
 10
5.386040
 20
1.780680
  0
SEQEND
  8
0
  0
SOLID
  8
0
 62
     7
 10
5.435320
 20
1.734480
 11
6.083000
 21
2.105400
 12
5.472280
 22
1.686080
 13
6.119960
 23
2.057440
  0
POLYLINE
  8
0
  6
CONTINUOUS
 66
     1
 40
0.000000
 41
0.000000
  0
VERTEX
  8
0
  6
CONTINUOUS
 10
5.435320
 20
1.734480
  0
VERTEX
  8
0
  6
CONTINUOUS
 10
6.083000
 20
2.105400
  0
VERTEX
  8
0
  6
CONTINUOUS
 10
6.119960
 20
2.057440
  0
VERTEX
  8
0
  6
CONTINUOUS
 10
5.472280
 20
1.686080
  0
VERTEX
  8
0
  6
CONTINUOUS
 10
5.435320
 20
1.734480
  0
SEQEND
  8
0
  0
SOLID
  8
0
 62
     7
 10
5.472280
 20
1.686080
 11
6.119960
 21
2.057440
 12
5.497360
 22
1.637240
 13
6.145040
 23
2.008160
  0
POLYLINE
  8
0
  6
CONTINUOUS
 66
     1
 40
0.000000
 41
0.000000
  0
VERTEX
  8
0
  6
CONTINUOUS
 10
5.472280
 20
1.686080
  0
VERTEX
  8
0
  6
CONTINUOUS
 10
6.119960
 20
2.057440
  0
VERTEX
  8
0
  6
CONTINUOUS
 10
6.145040
 20
2.008160
  0
VERTEX
  8
0
  6
CONTINUOUS
 10
5.497360
 20
1.637240
  0
VERTEX
  8
0
  6
CONTINUOUS
 10
5.472280
 20
1.686080
  0
SEQEND
  8
0
  0
SOLID
  8
0
 62
    15
 10
5.497360
 20
1.637240
 11
6.145040
 21
2.008160
 12
5.512320
 22
1.587520
 13
6.160000
 23
1.958880
  0
POLYLINE
  8
0
  6
CONTINUOUS
 66
     1
 40
0.000000
 41
0.000000
  0
VERTEX
  8
0
  6
CONTINUOUS
 10
5.497360
 20
1.637240
  0
VERTEX
  8
0
  6
CONTINUOUS
 10
6.145040
 20
2.008160
  0
VERTEX
  8
0
  6
CONTINUOUS
 10
6.160000
 20
1.958880
  0
VERTEX
  8
0
  6
CONTINUOUS
 10
5.512320
 20
1.587520
  0
VERTEX
  8
0
  6
CONTINUOUS
 10
5.497360
 20
1.637240
  0
SEQEND
  8
0
  0
SOLID
  8
0
 62
    15
 10
5.512320
 20
1.587520
 11
6.160000
 21
1.958880
 12
5.518040
 22
1.538680
 13
6.165720
 23
1.910040
  0
POLYLINE
  8
0
  6
CONTINUOUS
 66
     1
 40
0.000000
 41
0.000000
  0
VERTEX
  8
0
  6
CONTINUOUS
 10
5.512320
 20
1.587520
  0
VERTEX
  8
0
  6
CONTINUOUS
 10
6.160000
 20
1.958880
  0
VERTEX
  8
0
  6
CONTINUOUS
 10
6.165720
 20
1.910040
  0
VERTEX
  8
0
  6
CONTINUOUS
 10
5.518040
 20
1.538680
  0
VERTEX
  8
0
  6
CONTINUOUS
 10
5.512320
 20
1.587520
  0
SEQEND
  8
0
  0
SOLID
  8
0
 62
    15
 10
5.518040
 20
1.538680
 11
6.165720
 21
1.910040
 12
5.515400
 22
1.490720
 13
6.163080
 23
1.862080
  0
POLYLINE
  8
0
  6
CONTINUOUS
 66
     1
 40
0.000000
 41
0.000000
  0
VERTEX
  8
0
  6
CONTINUOUS
 10
5.518040
 20
1.538680
  0
VERTEX
  8
0
  6
CONTINUOUS
 10
6.165720
 20
1.910040
  0
VERTEX
  8
0
  6
CONTINUOUS
 10
6.163080
 20
1.862080
  0
VERTEX
  8
0
  6
CONTINUOUS
 10
5.515400
 20
1.490720
  0
VERTEX
  8
0
  6
CONTINUOUS
 10
5.518040
 20
1.538680
  0
SEQEND
  8
0
  0
SOLID
  8
0
 62
    15
 10
5.515400
 20
1.490720
 11
6.163080
 21
1.862080
 12
5.505280
 22
1.444520
 13
6.152960
 23
1.815880
  0
POLYLINE
  8
0
  6
CONTINUOUS
 66
     1
 40
0.000000
 41
0.000000
  0
VERTEX
  8
0
  6
CONTINUOUS
 10
5.515400
 20
1.490720
  0
VERTEX
  8
0
  6
CONTINUOUS
 10
6.163080
 20
1.862080
  0
VERTEX
  8
0
  6
CONTINUOUS
 10
6.152960
 20
1.815880
  0
VERTEX
  8
0
  6
CONTINUOUS
 10
5.505280
 20
1.444520
  0
VERTEX
  8
0
  6
CONTINUOUS
 10
5.515400
 20
1.490720
  0
SEQEND
  8
0
  0
SOLID
  8
0
 62
    15
 10
5.505280
 20
1.444520
 11
6.152960
 21
1.815880
 12
5.489000
 22
1.400960
 13
6.136680
 23
1.772320
  0
POLYLINE
  8
0
  6
CONTINUOUS
 66
     1
 40
0.000000
 41
0.000000
  0
VERTEX
  8
0
  6
CONTINUOUS
 10
5.505280
 20
1.444520
  0
VERTEX
  8
0
  6
CONTINUOUS
 10
6.152960
 20
1.815880
  0
VERTEX
  8
0
  6
CONTINUOUS
 10
6.136680
 20
1.772320
  0
VERTEX
  8
0
  6
CONTINUOUS
 10
5.489000
 20
1.400960
  0
VERTEX
  8
0
  6
CONTINUOUS
 10
5.505280
 20
1.444520
  0
SEQEND
  8
0
  0
SOLID
  8
0
 62
    15
 10
5.489000
 20
1.400960
 11
6.136680
 21
1.772320
 12
5.467440
 22
1.360920
 13
6.115120
 23
1.732280
  0
POLYLINE
  8
0
  6
CONTINUOUS
 66
     1
 40
0.000000
 41
0.000000
  0
VERTEX
  8
0
  6
CONTINUOUS
 10
5.489000
 20
1.400960
  0
VERTEX
  8
0
  6
CONTINUOUS
 10
6.136680
 20
1.772320
  0
VERTEX
  8
0
  6
CONTINUOUS
 10
6.115120
 20
1.732280
  0
VERTEX
  8
0
  6
CONTINUOUS
 10
5.467440
 20
1.360920
  0
VERTEX
  8
0
  6
CONTINUOUS
 10
5.489000
 20
1.400960
  0
SEQEND
  8
0
  0
SOLID
  8
0
 62
    15
 10
5.467440
 20
1.360920
 11
6.115120
 21
1.732280
 12
5.441920
 22
1.324400
 13
6.089600
 23
1.695760
  0
POLYLINE
  8
0
  6
CONTINUOUS
 66
     1
 40
0.000000
 41
0.000000
  0
VERTEX
  8
0
  6
CONTINUOUS
 10
5.467440
 20
1.360920
  0
VERTEX
  8
0
  6
CONTINUOUS
 10
6.115120
 20
1.732280
  0
VERTEX
  8
0
  6
CONTINUOUS
 10
6.089600
 20
1.695760
  0
VERTEX
  8
0
  6
CONTINUOUS
 10
5.441920
 20
1.324400
  0
VERTEX
  8
0
  6
CONTINUOUS
 10
5.467440
 20
1.360920
  0
SEQEND
  8
0
  0
SOLID
  8
0
 62
    15
 10
5.290560
 20
1.227160
 11
5.938240
 21
1.598520
 12
5.290560
 22
1.156320
 13
5.938240
 23
1.527240
  0
POLYLINE
  8
0
  6
CONTINUOUS
 66
     1
 40
0.000000
 41
0.000000
  0
VERTEX
  8
0
  6
CONTINUOUS
 10
5.290560
 20
1.227160
  0
VERTEX
  8
0
  6
CONTINUOUS
 10
5.938240
 20
1.598520
  0
VERTEX
  8
0
  6
CONTINUOUS
 10
5.938240
 20
1.527240
  0
VERTEX
  8
0
  6
CONTINUOUS
 10
5.290560
 20
1.156320
  0
VERTEX
  8
0
  6
CONTINUOUS
 10
5.290560
 20
1.227160
  0
SEQEND
  8
0
  0
SOLID
  8
0
 62
    15
 10
5.413760
 20
1.292720
 11
6.061440
 21
1.664080
 12
5.382960
 22
1.266760
 13
6.030640
 23
1.637680
  0
POLYLINE
  8
0
  6
CONTINUOUS
 66
     1
 40
0.000000
 41
0.000000
  0
VERTEX
  8
0
  6
CONTINUOUS
 10
5.413760
 20
1.292720
  0
VERTEX
  8
0
  6
CONTINUOUS
 10
6.061440
 20
1.664080
  0
VERTEX
  8
0
  6
CONTINUOUS
 10
6.030640
 20
1.637680
  0
VERTEX
  8
0
  6
CONTINUOUS
 10
5.382960
 20
1.266760
  0
VERTEX
  8
0
  6
CONTINUOUS
 10
5.413760
 20
1.292720
  0
SEQEND
  8
0
  0
SOLID
  8
0
 62
    15
 10
5.382960
 20
1.266760
 11
6.030640
 21
1.637680
 12
5.351720
 22
1.246520
 13
5.999400
 23
1.617440
  0
POLYLINE
  8
0
  6
CONTINUOUS
 66
     1
 40
0.000000
 41
0.000000
  0
VERTEX
  8
0
  6
CONTINUOUS
 10
5.382960
 20
1.266760
  0
VERTEX
  8
0
  6
CONTINUOUS
 10
6.030640
 20
1.637680
  0
VERTEX
  8
0
  6
CONTINUOUS
 10
5.999400
 20
1.617440
  0
VERTEX
  8
0
  6
CONTINUOUS
 10
5.351720
 20
1.246520
  0
VERTEX
  8
0
  6
CONTINUOUS
 10
5.382960
 20
1.266760
  0
SEQEND
  8
0
  0
SOLID
  8
0
 62
    15
 10
5.441920
 20
1.324400
 11
6.089600
 21
1.695760
 12
5.413760
 22
1.292720
 13
6.061440
 23
1.664080
  0
POLYLINE
  8
0
  6
CONTINUOUS
 66
     1
 40
0.000000
 41
0.000000
  0
VERTEX
  8
0
  6
CONTINUOUS
 10
5.441920
 20
1.324400
  0
VERTEX
  8
0
  6
CONTINUOUS
 10
6.089600
 20
1.695760
  0
VERTEX
  8
0
  6
CONTINUOUS
 10
6.061440
 20
1.664080
  0
VERTEX
  8
0
  6
CONTINUOUS
 10
5.413760
 20
1.292720
  0
VERTEX
  8
0
  6
CONTINUOUS
 10
5.441920
 20
1.324400
  0
SEQEND
  8
0
  0
SOLID
  8
0
 62
    15
 10
4.744960
 20
2.651000
 11
5.392640
 21
3.022360
 12
4.748040
 22
2.650560
 13
5.395720
 23
3.021920
  0
POLYLINE
  8
0
  6
CONTINUOUS
 66
     1
 40
0.000000
 41
0.000000
  0
VERTEX
  8
0
  6
CONTINUOUS
 10
4.744960
 20
2.651000
  0
VERTEX
  8
0
  6
CONTINUOUS
 10
5.392640
 20
3.022360
  0
VERTEX
  8
0
  6
CONTINUOUS
 10
5.395720
 20
3.021920
  0
VERTEX
  8
0
  6
CONTINUOUS
 10
4.748040
 20
2.650560
  0
VERTEX
  8
0
  6
CONTINUOUS
 10
4.744960
 20
2.651000
  0
SEQEND
  8
0
  0
POLYLINE
  8
0
  6
CONTINUOUS
 66
     1
 40
0.000000
 41
0.000000
  0
VERTEX
  8
0
  6
CONTINUOUS
 10
4.748040
 20
2.650560
  0
VERTEX
  8
0
  6
CONTINUOUS
 10
4.836040
 20
2.650560
  0
VERTEX
  8
0
  6
CONTINUOUS
 10
5.010280
 20
2.494360
  0
VERTEX
  8
0
  6
CONTINUOUS
 10
5.010280
 20
2.388760
  0
VERTEX
  8
0
  6
CONTINUOUS
 10
4.988720
 20
2.360600
  0
VERTEX
  8
0
  6
CONTINUOUS
 10
4.972000
 20
2.331120
  0
VERTEX
  8
0
  6
CONTINUOUS
 10
4.960120
 20
2.301200
  0
VERTEX
  8
0
  6
CONTINUOUS
 10
4.953080
 20
2.269960
  0
VERTEX
  8
0
  6
CONTINUOUS
 10
4.951320
 20
2.237840
  0
VERTEX
  8
0
  6
CONTINUOUS
 10
4.954840
 20
2.204840
  0
VERTEX
  8
0
  6
CONTINUOUS
 10
4.964080
 20
2.170520
  0
VERTEX
  8
0
  6
CONTINUOUS
 10
4.978600
 20
2.135760
  0
VERTEX
  8
0
  6
CONTINUOUS
 10
4.999280
 20
2.100120
  0
VERTEX
  8
0
  6
CONTINUOUS
 10
5.026120
 20
2.063160
  0
VERTEX
  8
0
  6
CONTINUOUS
 10
5.059120
 20
2.025760
  0
VERTEX
  8
0
  6
CONTINUOUS
 10
5.098280
 20
1.987040
  0
VERTEX
  8
0
  6
CONTINUOUS
 10
5.144040
 20
1.947880
  0
VERTEX
  8
0
  6
CONTINUOUS
 10
5.196840
 20
1.907400
  0
VERTEX
  8
0
  6
CONTINUOUS
 10
5.256240
 20
1.866480
  0
VERTEX
  8
0
  6
CONTINUOUS
 10
5.322680
 20
1.824240
  0
VERTEX
  8
0
  6
CONTINUOUS
 10
5.356120
 20
1.802680
  0
VERTEX
  8
0
  6
CONTINUOUS
 10
5.386040
 20
1.780680
  0
VERTEX
  8
0
  6
CONTINUOUS
 10
5.435320
 20
1.734480
  0
VERTEX
  8
0
  6
CONTINUOUS
 10
5.472280
 20
1.686080
  0
VERTEX
  8
0
  6
CONTINUOUS
 10
5.497360
 20
1.637240
  0
VERTEX
  8
0
  6
CONTINUOUS
 10
5.512320
 20
1.587520
  0
VERTEX
  8
0
  6
CONTINUOUS
 10
5.518040
 20
1.538680
  0
VERTEX
  8
0
  6
CONTINUOUS
 10
5.515400
 20
1.490720
  0
VERTEX
  8
0
  6
CONTINUOUS
 10
5.505280
 20
1.444520
  0
VERTEX
  8
0
  6
CONTINUOUS
 10
5.489000
 20
1.400960
  0
VERTEX
  8
0
  6
CONTINUOUS
 10
5.467440
 20
1.360920
  0
VERTEX
  8
0
  6
CONTINUOUS
 10
5.441920
 20
1.324400
  0
VERTEX
  8
0
  6
CONTINUOUS
 10
5.413760
 20
1.292720
  0
VERTEX
  8
0
  6
CONTINUOUS
 10
5.382960
 20
1.266760
  0
VERTEX
  8
0
  6
CONTINUOUS
 10
5.351720
 20
1.246520
  0
VERTEX
  8
0
  6
CONTINUOUS
 10
5.320480
 20
1.232880
  0
VERTEX
  8
0
  6
CONTINUOUS
 10
5.290560
 20
1.227160
  0
VERTEX
  8
0
  6
CONTINUOUS
 10
5.290560
 20
1.156320
  0
VERTEX
  8
0
  6
CONTINUOUS
 10
4.744960
 20
1.156320
  0
VERTEX
  8
0
  6
CONTINUOUS
 10
4.744960
 20
2.651000
  0
VERTEX
  8
0
  6
CONTINUOUS
 10
4.748040
 20
2.650560
  0
SEQEND
  8
0
  0
TEXT
  8
0
 10
5.113680
 20
0.918280
 40
0.138107
  1
BA  1013
 41
1.000000
  7
SN0
 71
     0
 72
     5
 11
5.796403
 21
0.918280
  0
TEXT
  8
0
 10
5.004120
 20
0.726880
 40
0.138107
  1
3/4" x 1-1/2"
 41
1.000000
  7
SN0
 71
     0
 72
     5
 11
5.905274
 21
0.726880
  0
POLYLINE
  8
0
  6
CONTINUOUS
 66
     1
 40
0.014080
 41
0.014080
  0
VERTEX
  8
0
  6
CONTINUOUS
 10
6.734640
 20
2.989800
  0
VERTEX
  8
0
  6
CONTINUOUS
 10
6.822640
 20
2.989800
  0
VERTEX
  8
0
  6
CONTINUOUS
 10
6.996880
 20
2.833600
  0
VERTEX
  8
0
  6
CONTINUOUS
 10
6.996880
 20
2.728000
  0
VERTEX
  8
0
  6
CONTINUOUS
 10
6.975320
 20
2.699840
  0
VERTEX
  8
0
  6
CONTINUOUS
 10
6.958600
 20
2.670360
  0
VERTEX
  8
0
  6
CONTINUOUS
 10
6.946720
 20
2.640440
  0
VERTEX
  8
0
  6
CONTINUOUS
 10
6.939680
 20
2.609200
  0
VERTEX
  8
0
  6
CONTINUOUS
 10
6.937920
 20
2.577080
  0
VERTEX
  8
0
  6
CONTINUOUS
 10
6.941440
 20
2.544080
  0
VERTEX
  8
0
  6
CONTINUOUS
 10
6.950680
 20
2.510200
  0
VERTEX
  8
0
  6
CONTINUOUS
 10
6.965200
 20
2.475000
  0
VERTEX
  8
0
  6
CONTINUOUS
 10
6.985880
 20
2.439360
  0
VERTEX
  8
0
  6
CONTINUOUS
 10
7.012720
 20
2.402400
  0
VERTEX
  8
0
  6
CONTINUOUS
 10
7.045280
 20
2.365000
  0
VERTEX
  8
0
  6
CONTINUOUS
 10
7.084880
 20
2.326280
  0
VERTEX
  8
0
  6
CONTINUOUS
 10
7.130640
 20
2.286680
  0
VERTEX
  8
0
  6
CONTINUOUS
 10
7.212040
 20
2.225960
  0
VERTEX
  8
0
  6
CONTINUOUS
 10
7.342720
 20
2.141920
  0
VERTEX
  8
0
  6
CONTINUOUS
 10
7.385840
 20
2.108480
  0
VERTEX
  8
0
  6
CONTINUOUS
 10
7.421920
 20
2.073280
  0
VERTEX
  8
0
  6
CONTINUOUS
 10
7.450520
 20
2.037640
  0
VERTEX
  8
0
  6
CONTINUOUS
 10
7.472520
 20
2.001120
  0
VERTEX
  8
0
  6
CONTINUOUS
 10
7.483960
 20
1.976480
  0
VERTEX
  8
0
  6
CONTINUOUS
 10
7.492760
 20
1.951840
  0
VERTEX
  8
0
  6
CONTINUOUS
 10
7.498920
 20
1.926760
  0
VERTEX
  8
0
  6
CONTINUOUS
 10
7.502880
 20
1.902120
  0
VERTEX
  8
0
  6
CONTINUOUS
 10
7.504640
 20
1.877920
  0
VERTEX
  8
0
  6
CONTINUOUS
 10
7.504200
 20
1.853720
  0
VERTEX
  8
0
  6
CONTINUOUS
 10
7.497600
 20
1.806640
  0
VERTEX
  8
0
  6
CONTINUOUS
 10
7.491880
 20
1.783760
  0
VERTEX
  8
0
  6
CONTINUOUS
 10
7.475600
 20
1.740200
  0
VERTEX
  8
0
  6
CONTINUOUS
 10
7.454040
 20
1.700160
  0
VERTEX
  8
0
  6
CONTINUOUS
 10
7.428520
 20
1.663640
  0
VERTEX
  8
0
  6
CONTINUOUS
 10
7.400360
 20
1.631960
  0
VERTEX
  8
0
  6
CONTINUOUS
 10
7.369560
 20
1.605560
  0
VERTEX
  8
0
  6
CONTINUOUS
 10
7.338320
 20
1.585760
  0
VERTEX
  8
0
  6
CONTINUOUS
 10
7.322480
 20
1.577840
  0
VERTEX
  8
0
  6
CONTINUOUS
 10
7.292120
 20
1.568160
  0
VERTEX
  8
0
  6
CONTINUOUS
 10
7.277160
 20
1.566400
  0
VERTEX
  8
0
  6
CONTINUOUS
 10
7.277160
 20
1.495560
  0
VERTEX
  8
0
  6
CONTINUOUS
 10
6.731560
 20
1.495560
  0
VERTEX
  8
0
  6
CONTINUOUS
 10
6.731560
 20
2.990240
  0
VERTEX
  8
0
  6
CONTINUOUS
 10
6.734640
 20
2.989800
  0
SEQEND
  8
0
  0
TEXT
  8
0
 10
6.782600
 20
1.094720
 40
0.138107
  1
BA  1013
 41
1.000000
  7
SN0
 71
     0
 72
     5
 11
7.465323
 21
1.094720
  0
TEXT
  8
0
 10
6.673040
 20
0.902880
 40
0.138107
  1
3/4" x 1-1/2"
 41
1.000000
  7
SN0
 71
     0
 72
     5
 11
7.574194
 21
0.902880
  0
ENDSEC
  0
EOF
