  0
SECTION
  2
HEADER
  9
$ACADVER
  1
AC1006
  9
$EXTMIN
 10
1.321760
 20
0.697400
  9
$EXTMAX
 10
7.964880
 20
4.496800
  9
$LTSCALE
 40
0.044000
  9
$PDMODE
 70
    35
  9
$PDSIZE
 40
0.035200
  0
ENDSEC
  0
SECTION
  2
TABLES
  0
TABLE
  2
LTYPE
 70
     9
  0
LTYPE
  2
CONTINUOUS
 70
    64
  3
Solid line
 72
    65
 73
     0
 40
0.000000
  0
LTYPE
  2
DASHED
 70
    64
  3
__ __ __ __ __ __ __ __ __ __ __ __ __ __ __
 72
    65
 73
     2
 40
0.000330
 49
0.000220
 49
-0.000110
  0
LTYPE
  2
HIDDEN
 70
    64
  3
 _ _ _ _ _ _ _ _ _ _ _ _ _ _ _ _ _ _ _ _ _ _
 72
    65
 73
     2
 40
0.000165
 49
0.000110
 49
-0.000055
  0
LTYPE
  2
CENTER
 70
    64
  3
____ _ ____ _ ____ _ ____ _ ____ _ ____ _ ____
 72
    65
 73
     4
 40
0.000880
 49
0.000550
 49
-0.000110
 49
0.000110
 49
-0.000110
  0
LTYPE
  2
PHANTOM
 70
    64
  3
_____ _ _ _____ _ _ _____ _ _ _____ _ _ ____
 72
    65
 73
     6
 40
0.001100
 49
0.000550
 49
-0.000110
 49
0.000110
 49
-0.000110
 49
0.000110
 49
-0.000110
  0
LTYPE
  2
DOT
 70
    64
  3
...............................................
 72
    65
 73
     2
 40
0.000110
 49
0.000000
 49
-0.000110
  0
LTYPE
  2
DASHDOT
 70
    64
  3
__ . __ . __ . __ . __ . __ . __ . __ . __ . __
 72
    65
 73
     4
 40
0.000440
 49
0.000220
 49
-0.000110
 49
0.000000
 49
-0.000110
  0
LTYPE
  2
BORDER
 70
    64
  3
__ __ . __ __ . __ __ . __ __ . __ __ . __ __
 72
    65
 73
     6
 40
0.000770
 49
0.000220
 49
-0.000110
 49
0.000220
 49
-0.000110
 49
0.000000
 49
-0.000110
  0
LTYPE
  2
DIVIDE
 70
    64
  3
__ . . __ . . __ . . __ . . __ . . __ . . __
 72
    65
 73
     6
 40
0.000550
 49
0.000220
 49
-0.000110
 49
0.000000
 49
-0.000110
 49
0.000000
 49
-0.000110
  0
LTYPE
  2
DOTDOT
 70
    64
  3
 . .  . .  . .  . .  . .  . . 
 72
    65
 73
     5
 40
0.000242
 49
-0.000110
 49
0.000000
 49
-0.000110
 49
0.000000
 49
-0.000110
  0
ENDTAB
  0
TABLE
  2
STYLE
 70
     2
  0
STYLE
 70
     0
  2
SN0
 40
0.000000
 41
0.000440
 50
0.000000
 71
     0
 42
0.000000
  3
ROMAND
  0
STYLE
 70
    68
  2
SV0
 40
0.000000
 41
0.000440
 50
0.000000
 71
     0
 42
0.000000
  3
ROMAND
  0
ENDTAB
  0
TABLE
  2
LAYER
 70
     3
  0
LAYER
  2
FOREGROUND
 70
    64
 62
     7
  6
CONTINUOUS
  0
LAYER
  2
BACKGROUND
 70
    65
 62
    -7
  6
CONTINUOUS
  0
LAYER
  2
0
 70
    64
 62
     7
  6
CONTINUOUS
  0
ENDTAB
  0
ENDSEC
  0
SECTION
  2
ENTITIES
  0
POLYLINE
  8
FOREGROUND
  6
CONTINUOUS
 66
     1
 40
0.000000
 41
0.000000
  0
VERTEX
  8
FOREGROUND
  6
CONTINUOUS
 10
0.000000
 20
5.194200
  0
VERTEX
  8
FOREGROUND
  6
CONTINUOUS
 10
8.499920
 20
5.194200
  0
VERTEX
  8
FOREGROUND
  6
CONTINUOUS
 10
8.499920
 20
-5.805800
  0
VERTEX
  8
FOREGROUND
  6
CONTINUOUS
 10
0.000000
 20
-5.805800
  0
VERTEX
  8
FOREGROUND
  6
CONTINUOUS
 10
0.000000
 20
5.194200
  0
SEQEND
  8
0
  0
POLYLINE
  8
FOREGROUND
  6
CONTINUOUS
 66
     1
 40
0.000000
 41
0.000000
  0
VERTEX
  8
FOREGROUND
  6
CONTINUOUS
 10
0.000000
 20
5.194200
  0
VERTEX
  8
FOREGROUND
  6
CONTINUOUS
 10
8.499920
 20
5.194200
  0
VERTEX
  8
FOREGROUND
  6
CONTINUOUS
 10
8.499920
 20
-5.805800
  0
VERTEX
  8
FOREGROUND
  6
CONTINUOUS
 10
0.000000
 20
-5.805800
  0
VERTEX
  8
FOREGROUND
  6
CONTINUOUS
 10
0.000000
 20
5.194200
  0
SEQEND
  8
0
  0
SOLID
  8
0
 62
    15
 10
6.349640
 20
2.110240
 11
6.358440
 21
2.768040
 12
6.376920
 22
2.128280
 13
6.385280
 23
2.785640
  0
POLYLINE
  8
0
  6
CONTINUOUS
 66
     1
 40
0.000000
 41
0.000000
  0
VERTEX
  8
0
  6
CONTINUOUS
 10
6.349640
 20
2.110240
  0
VERTEX
  8
0
  6
CONTINUOUS
 10
6.358440
 20
2.768040
  0
VERTEX
  8
0
  6
CONTINUOUS
 10
6.385280
 20
2.785640
  0
VERTEX
  8
0
  6
CONTINUOUS
 10
6.376920
 20
2.128280
  0
VERTEX
  8
0
  6
CONTINUOUS
 10
6.349640
 20
2.110240
  0
SEQEND
  8
0
  0
SOLID
  8
0
 62
    15
 10
4.341480
 20
2.189000
 11
4.349840
 21
2.846360
 12
4.368760
 22
2.137520
 13
4.377120
 23
2.794880
  0
POLYLINE
  8
0
  6
CONTINUOUS
 66
     1
 40
0.000000
 41
0.000000
  0
VERTEX
  8
0
  6
CONTINUOUS
 10
4.341480
 20
2.189000
  0
VERTEX
  8
0
  6
CONTINUOUS
 10
4.349840
 20
2.846360
  0
VERTEX
  8
0
  6
CONTINUOUS
 10
4.377120
 20
2.794880
  0
VERTEX
  8
0
  6
CONTINUOUS
 10
4.368760
 20
2.137520
  0
VERTEX
  8
0
  6
CONTINUOUS
 10
4.341480
 20
2.189000
  0
SEQEND
  8
0
  0
SOLID
  8
0
 62
    15
 10
4.368760
 20
2.137520
 11
4.377120
 21
2.794880
 12
4.400440
 22
2.096600
 13
4.408800
 23
2.753960
  0
POLYLINE
  8
0
  6
CONTINUOUS
 66
     1
 40
0.000000
 41
0.000000
  0
VERTEX
  8
0
  6
CONTINUOUS
 10
4.368760
 20
2.137520
  0
VERTEX
  8
0
  6
CONTINUOUS
 10
4.377120
 20
2.794880
  0
VERTEX
  8
0
  6
CONTINUOUS
 10
4.408800
 20
2.753960
  0
VERTEX
  8
0
  6
CONTINUOUS
 10
4.400440
 20
2.096600
  0
VERTEX
  8
0
  6
CONTINUOUS
 10
4.368760
 20
2.137520
  0
SEQEND
  8
0
  0
SOLID
  8
0
 62
    15
 10
4.400440
 20
2.096600
 11
4.408800
 21
2.753960
 12
4.435640
 22
2.065360
 13
4.444000
 23
2.722720
  0
POLYLINE
  8
0
  6
CONTINUOUS
 66
     1
 40
0.000000
 41
0.000000
  0
VERTEX
  8
0
  6
CONTINUOUS
 10
4.400440
 20
2.096600
  0
VERTEX
  8
0
  6
CONTINUOUS
 10
4.408800
 20
2.753960
  0
VERTEX
  8
0
  6
CONTINUOUS
 10
4.444000
 20
2.722720
  0
VERTEX
  8
0
  6
CONTINUOUS
 10
4.435640
 20
2.065360
  0
VERTEX
  8
0
  6
CONTINUOUS
 10
4.400440
 20
2.096600
  0
SEQEND
  8
0
  0
SOLID
  8
0
 62
    15
 10
4.435640
 20
2.065360
 11
4.444000
 21
2.722720
 12
4.473480
 22
2.042920
 13
4.481840
 23
2.700720
  0
POLYLINE
  8
0
  6
CONTINUOUS
 66
     1
 40
0.000000
 41
0.000000
  0
VERTEX
  8
0
  6
CONTINUOUS
 10
4.435640
 20
2.065360
  0
VERTEX
  8
0
  6
CONTINUOUS
 10
4.444000
 20
2.722720
  0
VERTEX
  8
0
  6
CONTINUOUS
 10
4.481840
 20
2.700720
  0
VERTEX
  8
0
  6
CONTINUOUS
 10
4.473480
 20
2.042920
  0
VERTEX
  8
0
  6
CONTINUOUS
 10
4.435640
 20
2.065360
  0
SEQEND
  8
0
  0
SOLID
  8
0
 62
    15
 10
4.473480
 20
2.042920
 11
4.481840
 21
2.700720
 12
4.513080
 22
2.029720
 13
4.521440
 23
2.687080
  0
POLYLINE
  8
0
  6
CONTINUOUS
 66
     1
 40
0.000000
 41
0.000000
  0
VERTEX
  8
0
  6
CONTINUOUS
 10
4.473480
 20
2.042920
  0
VERTEX
  8
0
  6
CONTINUOUS
 10
4.481840
 20
2.700720
  0
VERTEX
  8
0
  6
CONTINUOUS
 10
4.521440
 20
2.687080
  0
VERTEX
  8
0
  6
CONTINUOUS
 10
4.513080
 20
2.029720
  0
VERTEX
  8
0
  6
CONTINUOUS
 10
4.473480
 20
2.042920
  0
SEQEND
  8
0
  0
SOLID
  8
0
 62
    15
 10
4.513080
 20
2.029720
 11
4.521440
 21
2.687080
 12
4.553560
 22
2.024440
 13
4.561920
 23
2.681800
  0
POLYLINE
  8
0
  6
CONTINUOUS
 66
     1
 40
0.000000
 41
0.000000
  0
VERTEX
  8
0
  6
CONTINUOUS
 10
4.513080
 20
2.029720
  0
VERTEX
  8
0
  6
CONTINUOUS
 10
4.521440
 20
2.687080
  0
VERTEX
  8
0
  6
CONTINUOUS
 10
4.561920
 20
2.681800
  0
VERTEX
  8
0
  6
CONTINUOUS
 10
4.553560
 20
2.024440
  0
VERTEX
  8
0
  6
CONTINUOUS
 10
4.513080
 20
2.029720
  0
SEQEND
  8
0
  0
SOLID
  8
0
 62
    15
 10
4.553560
 20
2.024440
 11
4.561920
 21
2.681800
 12
4.594480
 22
2.026640
 13
4.602840
 23
2.684000
  0
POLYLINE
  8
0
  6
CONTINUOUS
 66
     1
 40
0.000000
 41
0.000000
  0
VERTEX
  8
0
  6
CONTINUOUS
 10
4.553560
 20
2.024440
  0
VERTEX
  8
0
  6
CONTINUOUS
 10
4.561920
 20
2.681800
  0
VERTEX
  8
0
  6
CONTINUOUS
 10
4.602840
 20
2.684000
  0
VERTEX
  8
0
  6
CONTINUOUS
 10
4.594480
 20
2.026640
  0
VERTEX
  8
0
  6
CONTINUOUS
 10
4.553560
 20
2.024440
  0
SEQEND
  8
0
  0
SOLID
  8
0
 62
    15
 10
4.594480
 20
2.026640
 11
4.602840
 21
2.684000
 12
4.634520
 22
2.035880
 13
4.642880
 23
2.693240
  0
POLYLINE
  8
0
  6
CONTINUOUS
 66
     1
 40
0.000000
 41
0.000000
  0
VERTEX
  8
0
  6
CONTINUOUS
 10
4.594480
 20
2.026640
  0
VERTEX
  8
0
  6
CONTINUOUS
 10
4.602840
 20
2.684000
  0
VERTEX
  8
0
  6
CONTINUOUS
 10
4.642880
 20
2.693240
  0
VERTEX
  8
0
  6
CONTINUOUS
 10
4.634520
 20
2.035880
  0
VERTEX
  8
0
  6
CONTINUOUS
 10
4.594480
 20
2.026640
  0
SEQEND
  8
0
  0
SOLID
  8
0
 62
    15
 10
4.634520
 20
2.035880
 11
4.642880
 21
2.693240
 12
4.673240
 22
2.051280
 13
4.681600
 23
2.709080
  0
POLYLINE
  8
0
  6
CONTINUOUS
 66
     1
 40
0.000000
 41
0.000000
  0
VERTEX
  8
0
  6
CONTINUOUS
 10
4.634520
 20
2.035880
  0
VERTEX
  8
0
  6
CONTINUOUS
 10
4.642880
 20
2.693240
  0
VERTEX
  8
0
  6
CONTINUOUS
 10
4.681600
 20
2.709080
  0
VERTEX
  8
0
  6
CONTINUOUS
 10
4.673240
 20
2.051280
  0
VERTEX
  8
0
  6
CONTINUOUS
 10
4.634520
 20
2.035880
  0
SEQEND
  8
0
  0
SOLID
  8
0
 62
    15
 10
4.673240
 20
2.051280
 11
4.681600
 21
2.709080
 12
4.709760
 22
2.072840
 13
4.718120
 23
2.730640
  0
POLYLINE
  8
0
  6
CONTINUOUS
 66
     1
 40
0.000000
 41
0.000000
  0
VERTEX
  8
0
  6
CONTINUOUS
 10
4.673240
 20
2.051280
  0
VERTEX
  8
0
  6
CONTINUOUS
 10
4.681600
 20
2.709080
  0
VERTEX
  8
0
  6
CONTINUOUS
 10
4.718120
 20
2.730640
  0
VERTEX
  8
0
  6
CONTINUOUS
 10
4.709760
 20
2.072840
  0
VERTEX
  8
0
  6
CONTINUOUS
 10
4.673240
 20
2.051280
  0
SEQEND
  8
0
  0
SOLID
  8
0
 62
    15
 10
4.709760
 20
2.072840
 11
4.718120
 21
2.730640
 12
4.743200
 22
2.100120
 13
4.751560
 23
2.757480
  0
POLYLINE
  8
0
  6
CONTINUOUS
 66
     1
 40
0.000000
 41
0.000000
  0
VERTEX
  8
0
  6
CONTINUOUS
 10
4.709760
 20
2.072840
  0
VERTEX
  8
0
  6
CONTINUOUS
 10
4.718120
 20
2.730640
  0
VERTEX
  8
0
  6
CONTINUOUS
 10
4.751560
 20
2.757480
  0
VERTEX
  8
0
  6
CONTINUOUS
 10
4.743200
 20
2.100120
  0
VERTEX
  8
0
  6
CONTINUOUS
 10
4.709760
 20
2.072840
  0
SEQEND
  8
0
  0
SOLID
  8
0
 62
    15
 10
4.743200
 20
2.100120
 11
4.751560
 21
2.757480
 12
4.772680
 22
2.131800
 13
4.781040
 23
2.789160
  0
POLYLINE
  8
0
  6
CONTINUOUS
 66
     1
 40
0.000000
 41
0.000000
  0
VERTEX
  8
0
  6
CONTINUOUS
 10
4.743200
 20
2.100120
  0
VERTEX
  8
0
  6
CONTINUOUS
 10
4.751560
 20
2.757480
  0
VERTEX
  8
0
  6
CONTINUOUS
 10
4.781040
 20
2.789160
  0
VERTEX
  8
0
  6
CONTINUOUS
 10
4.772680
 20
2.131800
  0
VERTEX
  8
0
  6
CONTINUOUS
 10
4.743200
 20
2.100120
  0
SEQEND
  8
0
  0
SOLID
  8
0
 62
    15
 10
4.772680
 20
2.131800
 11
4.781040
 21
2.789160
 12
4.797760
 22
2.167880
 13
4.806120
 23
2.825240
  0
POLYLINE
  8
0
  6
CONTINUOUS
 66
     1
 40
0.000000
 41
0.000000
  0
VERTEX
  8
0
  6
CONTINUOUS
 10
4.772680
 20
2.131800
  0
VERTEX
  8
0
  6
CONTINUOUS
 10
4.781040
 20
2.789160
  0
VERTEX
  8
0
  6
CONTINUOUS
 10
4.806120
 20
2.825240
  0
VERTEX
  8
0
  6
CONTINUOUS
 10
4.797760
 20
2.167880
  0
VERTEX
  8
0
  6
CONTINUOUS
 10
4.772680
 20
2.131800
  0
SEQEND
  8
0
  0
SOLID
  8
0
 62
    15
 10
4.797760
 20
2.167880
 11
4.806120
 21
2.825240
 12
4.817120
 22
2.207920
 13
4.825480
 23
2.865280
  0
POLYLINE
  8
0
  6
CONTINUOUS
 66
     1
 40
0.000000
 41
0.000000
  0
VERTEX
  8
0
  6
CONTINUOUS
 10
4.797760
 20
2.167880
  0
VERTEX
  8
0
  6
CONTINUOUS
 10
4.806120
 20
2.825240
  0
VERTEX
  8
0
  6
CONTINUOUS
 10
4.825480
 20
2.865280
  0
VERTEX
  8
0
  6
CONTINUOUS
 10
4.817120
 20
2.207920
  0
VERTEX
  8
0
  6
CONTINUOUS
 10
4.797760
 20
2.167880
  0
SEQEND
  8
0
  0
SOLID
  8
0
 62
    15
 10
4.817120
 20
2.207920
 11
4.825480
 21
2.865280
 12
4.829880
 22
2.250600
 13
4.838240
 23
2.907960
  0
POLYLINE
  8
0
  6
CONTINUOUS
 66
     1
 40
0.000000
 41
0.000000
  0
VERTEX
  8
0
  6
CONTINUOUS
 10
4.817120
 20
2.207920
  0
VERTEX
  8
0
  6
CONTINUOUS
 10
4.825480
 20
2.865280
  0
VERTEX
  8
0
  6
CONTINUOUS
 10
4.838240
 20
2.907960
  0
VERTEX
  8
0
  6
CONTINUOUS
 10
4.829880
 20
2.250600
  0
VERTEX
  8
0
  6
CONTINUOUS
 10
4.817120
 20
2.207920
  0
SEQEND
  8
0
  0
SOLID
  8
0
 62
    15
 10
4.829880
 20
2.250600
 11
4.838240
 21
2.907960
 12
5.205640
 22
2.250600
 13
5.214000
 23
2.907960
  0
POLYLINE
  8
0
  6
CONTINUOUS
 66
     1
 40
0.000000
 41
0.000000
  0
VERTEX
  8
0
  6
CONTINUOUS
 10
4.829880
 20
2.250600
  0
VERTEX
  8
0
  6
CONTINUOUS
 10
4.838240
 20
2.907960
  0
VERTEX
  8
0
  6
CONTINUOUS
 10
5.214000
 20
2.907960
  0
VERTEX
  8
0
  6
CONTINUOUS
 10
5.205640
 20
2.250600
  0
VERTEX
  8
0
  6
CONTINUOUS
 10
4.829880
 20
2.250600
  0
SEQEND
  8
0
  0
SOLID
  8
0
 62
    15
 10
5.205640
 20
2.250600
 11
5.214000
 21
2.907960
 12
5.219280
 22
2.199560
 13
5.228080
 23
2.856920
  0
POLYLINE
  8
0
  6
CONTINUOUS
 66
     1
 40
0.000000
 41
0.000000
  0
VERTEX
  8
0
  6
CONTINUOUS
 10
5.205640
 20
2.250600
  0
VERTEX
  8
0
  6
CONTINUOUS
 10
5.214000
 20
2.907960
  0
VERTEX
  8
0
  6
CONTINUOUS
 10
5.228080
 20
2.856920
  0
VERTEX
  8
0
  6
CONTINUOUS
 10
5.219280
 20
2.199560
  0
VERTEX
  8
0
  6
CONTINUOUS
 10
5.205640
 20
2.250600
  0
SEQEND
  8
0
  0
SOLID
  8
0
 62
    15
 10
5.219280
 20
2.199560
 11
5.228080
 21
2.856920
 12
5.239960
 22
2.155120
 13
5.248320
 23
2.812480
  0
POLYLINE
  8
0
  6
CONTINUOUS
 66
     1
 40
0.000000
 41
0.000000
  0
VERTEX
  8
0
  6
CONTINUOUS
 10
5.219280
 20
2.199560
  0
VERTEX
  8
0
  6
CONTINUOUS
 10
5.228080
 20
2.856920
  0
VERTEX
  8
0
  6
CONTINUOUS
 10
5.248320
 20
2.812480
  0
VERTEX
  8
0
  6
CONTINUOUS
 10
5.239960
 20
2.155120
  0
VERTEX
  8
0
  6
CONTINUOUS
 10
5.219280
 20
2.199560
  0
SEQEND
  8
0
  0
SOLID
  8
0
 62
    15
 10
5.239960
 20
2.155120
 11
5.248320
 21
2.812480
 12
5.265920
 22
2.117720
 13
5.274280
 23
2.775080
  0
POLYLINE
  8
0
  6
CONTINUOUS
 66
     1
 40
0.000000
 41
0.000000
  0
VERTEX
  8
0
  6
CONTINUOUS
 10
5.239960
 20
2.155120
  0
VERTEX
  8
0
  6
CONTINUOUS
 10
5.248320
 20
2.812480
  0
VERTEX
  8
0
  6
CONTINUOUS
 10
5.274280
 20
2.775080
  0
VERTEX
  8
0
  6
CONTINUOUS
 10
5.265920
 20
2.117720
  0
VERTEX
  8
0
  6
CONTINUOUS
 10
5.239960
 20
2.155120
  0
SEQEND
  8
0
  0
SOLID
  8
0
 62
    15
 10
5.265920
 20
2.117720
 11
5.274280
 21
2.775080
 12
5.296720
 22
2.086920
 13
5.305080
 23
2.744280
  0
POLYLINE
  8
0
  6
CONTINUOUS
 66
     1
 40
0.000000
 41
0.000000
  0
VERTEX
  8
0
  6
CONTINUOUS
 10
5.265920
 20
2.117720
  0
VERTEX
  8
0
  6
CONTINUOUS
 10
5.274280
 20
2.775080
  0
VERTEX
  8
0
  6
CONTINUOUS
 10
5.305080
 20
2.744280
  0
VERTEX
  8
0
  6
CONTINUOUS
 10
5.296720
 20
2.086920
  0
VERTEX
  8
0
  6
CONTINUOUS
 10
5.265920
 20
2.117720
  0
SEQEND
  8
0
  0
SOLID
  8
0
 62
    15
 10
5.296720
 20
2.086920
 11
5.305080
 21
2.744280
 12
5.331040
 22
2.063160
 13
5.339400
 23
2.720520
  0
POLYLINE
  8
0
  6
CONTINUOUS
 66
     1
 40
0.000000
 41
0.000000
  0
VERTEX
  8
0
  6
CONTINUOUS
 10
5.296720
 20
2.086920
  0
VERTEX
  8
0
  6
CONTINUOUS
 10
5.305080
 20
2.744280
  0
VERTEX
  8
0
  6
CONTINUOUS
 10
5.339400
 20
2.720520
  0
VERTEX
  8
0
  6
CONTINUOUS
 10
5.331040
 20
2.063160
  0
VERTEX
  8
0
  6
CONTINUOUS
 10
5.296720
 20
2.086920
  0
SEQEND
  8
0
  0
SOLID
  8
0
 62
    15
 10
5.331040
 20
2.063160
 11
5.339400
 21
2.720520
 12
5.368440
 22
2.046000
 13
5.376800
 23
2.703800
  0
POLYLINE
  8
0
  6
CONTINUOUS
 66
     1
 40
0.000000
 41
0.000000
  0
VERTEX
  8
0
  6
CONTINUOUS
 10
5.331040
 20
2.063160
  0
VERTEX
  8
0
  6
CONTINUOUS
 10
5.339400
 20
2.720520
  0
VERTEX
  8
0
  6
CONTINUOUS
 10
5.376800
 20
2.703800
  0
VERTEX
  8
0
  6
CONTINUOUS
 10
5.368440
 20
2.046000
  0
VERTEX
  8
0
  6
CONTINUOUS
 10
5.331040
 20
2.063160
  0
SEQEND
  8
0
  0
SOLID
  8
0
 62
    15
 10
5.368440
 20
2.046000
 11
5.376800
 21
2.703800
 12
5.407600
 22
2.035880
 13
5.415960
 23
2.693240
  0
POLYLINE
  8
0
  6
CONTINUOUS
 66
     1
 40
0.000000
 41
0.000000
  0
VERTEX
  8
0
  6
CONTINUOUS
 10
5.368440
 20
2.046000
  0
VERTEX
  8
0
  6
CONTINUOUS
 10
5.376800
 20
2.703800
  0
VERTEX
  8
0
  6
CONTINUOUS
 10
5.415960
 20
2.693240
  0
VERTEX
  8
0
  6
CONTINUOUS
 10
5.407600
 20
2.035880
  0
VERTEX
  8
0
  6
CONTINUOUS
 10
5.368440
 20
2.046000
  0
SEQEND
  8
0
  0
SOLID
  8
0
 62
    15
 10
5.407600
 20
2.035880
 11
5.415960
 21
2.693240
 12
5.448080
 22
2.032800
 13
5.456440
 23
2.690160
  0
POLYLINE
  8
0
  6
CONTINUOUS
 66
     1
 40
0.000000
 41
0.000000
  0
VERTEX
  8
0
  6
CONTINUOUS
 10
5.407600
 20
2.035880
  0
VERTEX
  8
0
  6
CONTINUOUS
 10
5.415960
 20
2.693240
  0
VERTEX
  8
0
  6
CONTINUOUS
 10
5.456440
 20
2.690160
  0
VERTEX
  8
0
  6
CONTINUOUS
 10
5.448080
 20
2.032800
  0
VERTEX
  8
0
  6
CONTINUOUS
 10
5.407600
 20
2.035880
  0
SEQEND
  8
0
  0
SOLID
  8
0
 62
    15
 10
5.448080
 20
2.032800
 11
5.456440
 21
2.690160
 12
5.488560
 22
2.035880
 13
5.496920
 23
2.693680
  0
POLYLINE
  8
0
  6
CONTINUOUS
 66
     1
 40
0.000000
 41
0.000000
  0
VERTEX
  8
0
  6
CONTINUOUS
 10
5.448080
 20
2.032800
  0
VERTEX
  8
0
  6
CONTINUOUS
 10
5.456440
 20
2.690160
  0
VERTEX
  8
0
  6
CONTINUOUS
 10
5.496920
 20
2.693680
  0
VERTEX
  8
0
  6
CONTINUOUS
 10
5.488560
 20
2.035880
  0
VERTEX
  8
0
  6
CONTINUOUS
 10
5.448080
 20
2.032800
  0
SEQEND
  8
0
  0
SOLID
  8
0
 62
    15
 10
5.488560
 20
2.035880
 11
5.496920
 21
2.693680
 12
5.528600
 22
2.046440
 13
5.536960
 23
2.703800
  0
POLYLINE
  8
0
  6
CONTINUOUS
 66
     1
 40
0.000000
 41
0.000000
  0
VERTEX
  8
0
  6
CONTINUOUS
 10
5.488560
 20
2.035880
  0
VERTEX
  8
0
  6
CONTINUOUS
 10
5.496920
 20
2.693680
  0
VERTEX
  8
0
  6
CONTINUOUS
 10
5.536960
 20
2.703800
  0
VERTEX
  8
0
  6
CONTINUOUS
 10
5.528600
 20
2.046440
  0
VERTEX
  8
0
  6
CONTINUOUS
 10
5.488560
 20
2.035880
  0
SEQEND
  8
0
  0
SOLID
  8
0
 62
    15
 10
5.528600
 20
2.046440
 11
5.536960
 21
2.703800
 12
5.566880
 22
2.063160
 13
5.575240
 23
2.720960
  0
POLYLINE
  8
0
  6
CONTINUOUS
 66
     1
 40
0.000000
 41
0.000000
  0
VERTEX
  8
0
  6
CONTINUOUS
 10
5.528600
 20
2.046440
  0
VERTEX
  8
0
  6
CONTINUOUS
 10
5.536960
 20
2.703800
  0
VERTEX
  8
0
  6
CONTINUOUS
 10
5.575240
 20
2.720960
  0
VERTEX
  8
0
  6
CONTINUOUS
 10
5.566880
 20
2.063160
  0
VERTEX
  8
0
  6
CONTINUOUS
 10
5.528600
 20
2.046440
  0
SEQEND
  8
0
  0
SOLID
  8
0
 62
    15
 10
5.566880
 20
2.063160
 11
5.575240
 21
2.720960
 12
5.602520
 22
2.087360
 13
5.610880
 23
2.744720
  0
POLYLINE
  8
0
  6
CONTINUOUS
 66
     1
 40
0.000000
 41
0.000000
  0
VERTEX
  8
0
  6
CONTINUOUS
 10
5.566880
 20
2.063160
  0
VERTEX
  8
0
  6
CONTINUOUS
 10
5.575240
 20
2.720960
  0
VERTEX
  8
0
  6
CONTINUOUS
 10
5.610880
 20
2.744720
  0
VERTEX
  8
0
  6
CONTINUOUS
 10
5.602520
 20
2.087360
  0
VERTEX
  8
0
  6
CONTINUOUS
 10
5.566880
 20
2.063160
  0
SEQEND
  8
0
  0
SOLID
  8
0
 62
    15
 10
5.602520
 20
2.087360
 11
5.610880
 21
2.744720
 12
5.635080
 22
2.117720
 13
5.643440
 23
2.775080
  0
POLYLINE
  8
0
  6
CONTINUOUS
 66
     1
 40
0.000000
 41
0.000000
  0
VERTEX
  8
0
  6
CONTINUOUS
 10
5.602520
 20
2.087360
  0
VERTEX
  8
0
  6
CONTINUOUS
 10
5.610880
 20
2.744720
  0
VERTEX
  8
0
  6
CONTINUOUS
 10
5.643440
 20
2.775080
  0
VERTEX
  8
0
  6
CONTINUOUS
 10
5.635080
 20
2.117720
  0
VERTEX
  8
0
  6
CONTINUOUS
 10
5.602520
 20
2.087360
  0
SEQEND
  8
0
  0
SOLID
  8
0
 62
    15
 10
5.635080
 20
2.117720
 11
5.643440
 21
2.775080
 12
5.662800
 22
2.155120
 13
5.671160
 23
2.812480
  0
POLYLINE
  8
0
  6
CONTINUOUS
 66
     1
 40
0.000000
 41
0.000000
  0
VERTEX
  8
0
  6
CONTINUOUS
 10
5.635080
 20
2.117720
  0
VERTEX
  8
0
  6
CONTINUOUS
 10
5.643440
 20
2.775080
  0
VERTEX
  8
0
  6
CONTINUOUS
 10
5.671160
 20
2.812480
  0
VERTEX
  8
0
  6
CONTINUOUS
 10
5.662800
 20
2.155120
  0
VERTEX
  8
0
  6
CONTINUOUS
 10
5.635080
 20
2.117720
  0
SEQEND
  8
0
  0
SOLID
  8
0
 62
    15
 10
5.662800
 20
2.155120
 11
5.671160
 21
2.812480
 12
5.685680
 22
2.199120
 13
5.694040
 23
2.856920
  0
POLYLINE
  8
0
  6
CONTINUOUS
 66
     1
 40
0.000000
 41
0.000000
  0
VERTEX
  8
0
  6
CONTINUOUS
 10
5.662800
 20
2.155120
  0
VERTEX
  8
0
  6
CONTINUOUS
 10
5.671160
 20
2.812480
  0
VERTEX
  8
0
  6
CONTINUOUS
 10
5.694040
 20
2.856920
  0
VERTEX
  8
0
  6
CONTINUOUS
 10
5.685680
 20
2.199120
  0
VERTEX
  8
0
  6
CONTINUOUS
 10
5.662800
 20
2.155120
  0
SEQEND
  8
0
  0
SOLID
  8
0
 62
    15
 10
5.685680
 20
2.199120
 11
5.694040
 21
2.856920
 12
5.702400
 22
2.250160
 13
5.711200
 23
2.907520
  0
POLYLINE
  8
0
  6
CONTINUOUS
 66
     1
 40
0.000000
 41
0.000000
  0
VERTEX
  8
0
  6
CONTINUOUS
 10
5.685680
 20
2.199120
  0
VERTEX
  8
0
  6
CONTINUOUS
 10
5.694040
 20
2.856920
  0
VERTEX
  8
0
  6
CONTINUOUS
 10
5.711200
 20
2.907520
  0
VERTEX
  8
0
  6
CONTINUOUS
 10
5.702400
 20
2.250160
  0
VERTEX
  8
0
  6
CONTINUOUS
 10
5.685680
 20
2.199120
  0
SEQEND
  8
0
  0
SOLID
  8
0
 62
    15
 10
6.078600
 20
2.250160
 11
6.086960
 21
2.907520
 12
6.088720
 22
2.212320
 13
6.097080
 23
2.869680
  0
POLYLINE
  8
0
  6
CONTINUOUS
 66
     1
 40
0.000000
 41
0.000000
  0
VERTEX
  8
0
  6
CONTINUOUS
 10
6.078600
 20
2.250160
  0
VERTEX
  8
0
  6
CONTINUOUS
 10
6.086960
 20
2.907520
  0
VERTEX
  8
0
  6
CONTINUOUS
 10
6.097080
 20
2.869680
  0
VERTEX
  8
0
  6
CONTINUOUS
 10
6.088720
 20
2.212320
  0
VERTEX
  8
0
  6
CONTINUOUS
 10
6.078600
 20
2.250160
  0
SEQEND
  8
0
  0
SOLID
  8
0
 62
    15
 10
5.702400
 20
2.250160
 11
5.711200
 21
2.907520
 12
6.078600
 22
2.250160
 13
6.086960
 23
2.907520
  0
POLYLINE
  8
0
  6
CONTINUOUS
 66
     1
 40
0.000000
 41
0.000000
  0
VERTEX
  8
0
  6
CONTINUOUS
 10
5.702400
 20
2.250160
  0
VERTEX
  8
0
  6
CONTINUOUS
 10
5.711200
 20
2.907520
  0
VERTEX
  8
0
  6
CONTINUOUS
 10
6.086960
 20
2.907520
  0
VERTEX
  8
0
  6
CONTINUOUS
 10
6.078600
 20
2.250160
  0
VERTEX
  8
0
  6
CONTINUOUS
 10
5.702400
 20
2.250160
  0
SEQEND
  8
0
  0
SOLID
  8
0
 62
    15
 10
6.104120
 20
2.179320
 11
6.112480
 21
2.836680
 12
6.123480
 22
2.151600
 13
6.131840
 23
2.808960
  0
POLYLINE
  8
0
  6
CONTINUOUS
 66
     1
 40
0.000000
 41
0.000000
  0
VERTEX
  8
0
  6
CONTINUOUS
 10
6.104120
 20
2.179320
  0
VERTEX
  8
0
  6
CONTINUOUS
 10
6.112480
 20
2.836680
  0
VERTEX
  8
0
  6
CONTINUOUS
 10
6.131840
 20
2.808960
  0
VERTEX
  8
0
  6
CONTINUOUS
 10
6.123480
 20
2.151600
  0
VERTEX
  8
0
  6
CONTINUOUS
 10
6.104120
 20
2.179320
  0
SEQEND
  8
0
  0
SOLID
  8
0
 62
    15
 10
6.088720
 20
2.212320
 11
6.097080
 21
2.869680
 12
6.104120
 22
2.179320
 13
6.112480
 23
2.836680
  0
POLYLINE
  8
0
  6
CONTINUOUS
 66
     1
 40
0.000000
 41
0.000000
  0
VERTEX
  8
0
  6
CONTINUOUS
 10
6.088720
 20
2.212320
  0
VERTEX
  8
0
  6
CONTINUOUS
 10
6.097080
 20
2.869680
  0
VERTEX
  8
0
  6
CONTINUOUS
 10
6.112480
 20
2.836680
  0
VERTEX
  8
0
  6
CONTINUOUS
 10
6.104120
 20
2.179320
  0
VERTEX
  8
0
  6
CONTINUOUS
 10
6.088720
 20
2.212320
  0
SEQEND
  8
0
  0
SOLID
  8
0
 62
    15
 10
6.123480
 20
2.151600
 11
6.131840
 21
2.808960
 12
6.146360
 22
2.128280
 13
6.154720
 23
2.786080
  0
POLYLINE
  8
0
  6
CONTINUOUS
 66
     1
 40
0.000000
 41
0.000000
  0
VERTEX
  8
0
  6
CONTINUOUS
 10
6.123480
 20
2.151600
  0
VERTEX
  8
0
  6
CONTINUOUS
 10
6.131840
 20
2.808960
  0
VERTEX
  8
0
  6
CONTINUOUS
 10
6.154720
 20
2.786080
  0
VERTEX
  8
0
  6
CONTINUOUS
 10
6.146360
 20
2.128280
  0
VERTEX
  8
0
  6
CONTINUOUS
 10
6.123480
 20
2.151600
  0
SEQEND
  8
0
  0
SOLID
  8
0
 62
    15
 10
6.146360
 20
2.128280
 11
6.154720
 21
2.786080
 12
6.172320
 22
2.110680
 13
6.180680
 23
2.768040
  0
POLYLINE
  8
0
  6
CONTINUOUS
 66
     1
 40
0.000000
 41
0.000000
  0
VERTEX
  8
0
  6
CONTINUOUS
 10
6.146360
 20
2.128280
  0
VERTEX
  8
0
  6
CONTINUOUS
 10
6.154720
 20
2.786080
  0
VERTEX
  8
0
  6
CONTINUOUS
 10
6.180680
 20
2.768040
  0
VERTEX
  8
0
  6
CONTINUOUS
 10
6.172320
 20
2.110680
  0
VERTEX
  8
0
  6
CONTINUOUS
 10
6.146360
 20
2.128280
  0
SEQEND
  8
0
  0
SOLID
  8
0
 62
    15
 10
6.172320
 20
2.110680
 11
6.180680
 21
2.768040
 12
6.200480
 22
2.097920
 13
6.208840
 23
2.755280
  0
POLYLINE
  8
0
  6
CONTINUOUS
 66
     1
 40
0.000000
 41
0.000000
  0
VERTEX
  8
0
  6
CONTINUOUS
 10
6.172320
 20
2.110680
  0
VERTEX
  8
0
  6
CONTINUOUS
 10
6.180680
 20
2.768040
  0
VERTEX
  8
0
  6
CONTINUOUS
 10
6.208840
 20
2.755280
  0
VERTEX
  8
0
  6
CONTINUOUS
 10
6.200480
 20
2.097920
  0
VERTEX
  8
0
  6
CONTINUOUS
 10
6.172320
 20
2.110680
  0
SEQEND
  8
0
  0
SOLID
  8
0
 62
    15
 10
6.200480
 20
2.097920
 11
6.208840
 21
2.755280
 12
6.229960
 22
2.090440
 13
6.238320
 23
2.747800
  0
POLYLINE
  8
0
  6
CONTINUOUS
 66
     1
 40
0.000000
 41
0.000000
  0
VERTEX
  8
0
  6
CONTINUOUS
 10
6.200480
 20
2.097920
  0
VERTEX
  8
0
  6
CONTINUOUS
 10
6.208840
 20
2.755280
  0
VERTEX
  8
0
  6
CONTINUOUS
 10
6.238320
 20
2.747800
  0
VERTEX
  8
0
  6
CONTINUOUS
 10
6.229960
 20
2.090440
  0
VERTEX
  8
0
  6
CONTINUOUS
 10
6.200480
 20
2.097920
  0
SEQEND
  8
0
  0
SOLID
  8
0
 62
    15
 10
6.229960
 20
2.090440
 11
6.238320
 21
2.747800
 12
6.260320
 22
2.087800
 13
6.268680
 23
2.745160
  0
POLYLINE
  8
0
  6
CONTINUOUS
 66
     1
 40
0.000000
 41
0.000000
  0
VERTEX
  8
0
  6
CONTINUOUS
 10
6.229960
 20
2.090440
  0
VERTEX
  8
0
  6
CONTINUOUS
 10
6.238320
 20
2.747800
  0
VERTEX
  8
0
  6
CONTINUOUS
 10
6.268680
 20
2.745160
  0
VERTEX
  8
0
  6
CONTINUOUS
 10
6.260320
 20
2.087800
  0
VERTEX
  8
0
  6
CONTINUOUS
 10
6.229960
 20
2.090440
  0
SEQEND
  8
0
  0
SOLID
  8
0
 62
    15
 10
6.260320
 20
2.087800
 11
6.268680
 21
2.745160
 12
6.290680
 22
2.090000
 13
6.299040
 23
2.747800
  0
POLYLINE
  8
0
  6
CONTINUOUS
 66
     1
 40
0.000000
 41
0.000000
  0
VERTEX
  8
0
  6
CONTINUOUS
 10
6.260320
 20
2.087800
  0
VERTEX
  8
0
  6
CONTINUOUS
 10
6.268680
 20
2.745160
  0
VERTEX
  8
0
  6
CONTINUOUS
 10
6.299040
 20
2.747800
  0
VERTEX
  8
0
  6
CONTINUOUS
 10
6.290680
 20
2.090000
  0
VERTEX
  8
0
  6
CONTINUOUS
 10
6.260320
 20
2.087800
  0
SEQEND
  8
0
  0
SOLID
  8
0
 62
    15
 10
6.290680
 20
2.090000
 11
6.299040
 21
2.747800
 12
6.321040
 22
2.097920
 13
6.329400
 23
2.755280
  0
POLYLINE
  8
0
  6
CONTINUOUS
 66
     1
 40
0.000000
 41
0.000000
  0
VERTEX
  8
0
  6
CONTINUOUS
 10
6.290680
 20
2.090000
  0
VERTEX
  8
0
  6
CONTINUOUS
 10
6.299040
 20
2.747800
  0
VERTEX
  8
0
  6
CONTINUOUS
 10
6.329400
 20
2.755280
  0
VERTEX
  8
0
  6
CONTINUOUS
 10
6.321040
 20
2.097920
  0
VERTEX
  8
0
  6
CONTINUOUS
 10
6.290680
 20
2.090000
  0
SEQEND
  8
0
  0
SOLID
  8
0
 62
    15
 10
6.321040
 20
2.097920
 11
6.329400
 21
2.755280
 12
6.349640
 22
2.110240
 13
6.358440
 23
2.768040
  0
POLYLINE
  8
0
  6
CONTINUOUS
 66
     1
 40
0.000000
 41
0.000000
  0
VERTEX
  8
0
  6
CONTINUOUS
 10
6.321040
 20
2.097920
  0
VERTEX
  8
0
  6
CONTINUOUS
 10
6.329400
 20
2.755280
  0
VERTEX
  8
0
  6
CONTINUOUS
 10
6.358440
 20
2.768040
  0
VERTEX
  8
0
  6
CONTINUOUS
 10
6.349640
 20
2.110240
  0
VERTEX
  8
0
  6
CONTINUOUS
 10
6.321040
 20
2.097920
  0
SEQEND
  8
0
  0
SOLID
  8
0
 62
    15
 10
4.319040
 20
2.251040
 11
4.327400
 21
2.908400
 12
4.341480
 22
2.189000
 13
4.349840
 23
2.846360
  0
POLYLINE
  8
0
  6
CONTINUOUS
 66
     1
 40
0.000000
 41
0.000000
  0
VERTEX
  8
0
  6
CONTINUOUS
 10
4.319040
 20
2.251040
  0
VERTEX
  8
0
  6
CONTINUOUS
 10
4.327400
 20
2.908400
  0
VERTEX
  8
0
  6
CONTINUOUS
 10
4.349840
 20
2.846360
  0
VERTEX
  8
0
  6
CONTINUOUS
 10
4.341480
 20
2.189000
  0
VERTEX
  8
0
  6
CONTINUOUS
 10
4.319040
 20
2.251040
  0
SEQEND
  8
0
  0
SOLID
  8
0
 62
    15
 10
6.376920
 20
2.128280
 11
6.385280
 21
2.785640
 12
6.401560
 22
2.151160
 13
6.409920
 23
2.808520
  0
POLYLINE
  8
0
  6
CONTINUOUS
 66
     1
 40
0.000000
 41
0.000000
  0
VERTEX
  8
0
  6
CONTINUOUS
 10
6.376920
 20
2.128280
  0
VERTEX
  8
0
  6
CONTINUOUS
 10
6.385280
 20
2.785640
  0
VERTEX
  8
0
  6
CONTINUOUS
 10
6.409920
 20
2.808520
  0
VERTEX
  8
0
  6
CONTINUOUS
 10
6.401560
 20
2.151160
  0
VERTEX
  8
0
  6
CONTINUOUS
 10
6.376920
 20
2.128280
  0
SEQEND
  8
0
  0
SOLID
  8
0
 62
    15
 10
6.401560
 20
2.151160
 11
6.409920
 21
2.808520
 12
6.422680
 22
2.178880
 13
6.431040
 23
2.836680
  0
POLYLINE
  8
0
  6
CONTINUOUS
 66
     1
 40
0.000000
 41
0.000000
  0
VERTEX
  8
0
  6
CONTINUOUS
 10
6.401560
 20
2.151160
  0
VERTEX
  8
0
  6
CONTINUOUS
 10
6.409920
 20
2.808520
  0
VERTEX
  8
0
  6
CONTINUOUS
 10
6.431040
 20
2.836680
  0
VERTEX
  8
0
  6
CONTINUOUS
 10
6.422680
 20
2.178880
  0
VERTEX
  8
0
  6
CONTINUOUS
 10
6.401560
 20
2.151160
  0
SEQEND
  8
0
  0
SOLID
  8
0
 62
    15
 10
6.422680
 20
2.178880
 11
6.431040
 21
2.836680
 12
6.440280
 22
2.212320
 13
6.448640
 23
2.869680
  0
POLYLINE
  8
0
  6
CONTINUOUS
 66
     1
 40
0.000000
 41
0.000000
  0
VERTEX
  8
0
  6
CONTINUOUS
 10
6.422680
 20
2.178880
  0
VERTEX
  8
0
  6
CONTINUOUS
 10
6.431040
 20
2.836680
  0
VERTEX
  8
0
  6
CONTINUOUS
 10
6.448640
 20
2.869680
  0
VERTEX
  8
0
  6
CONTINUOUS
 10
6.440280
 20
2.212320
  0
VERTEX
  8
0
  6
CONTINUOUS
 10
6.422680
 20
2.178880
  0
SEQEND
  8
0
  0
SOLID
  8
0
 62
    15
 10
6.440280
 20
2.212320
 11
6.448640
 21
2.869680
 12
6.453040
 22
2.250600
 13
6.461400
 23
2.907960
  0
POLYLINE
  8
0
  6
CONTINUOUS
 66
     1
 40
0.000000
 41
0.000000
  0
VERTEX
  8
0
  6
CONTINUOUS
 10
6.440280
 20
2.212320
  0
VERTEX
  8
0
  6
CONTINUOUS
 10
6.448640
 20
2.869680
  0
VERTEX
  8
0
  6
CONTINUOUS
 10
6.461400
 20
2.907960
  0
VERTEX
  8
0
  6
CONTINUOUS
 10
6.453040
 20
2.250600
  0
VERTEX
  8
0
  6
CONTINUOUS
 10
6.440280
 20
2.212320
  0
SEQEND
  8
0
  0
SOLID
  8
0
 62
    15
 10
7.829800
 20
1.925000
 11
7.838600
 21
2.582360
 12
7.829800
 22
1.210440
 13
7.838600
 23
1.867800
  0
POLYLINE
  8
0
  6
CONTINUOUS
 66
     1
 40
0.000000
 41
0.000000
  0
VERTEX
  8
0
  6
CONTINUOUS
 10
7.829800
 20
1.925000
  0
VERTEX
  8
0
  6
CONTINUOUS
 10
7.838600
 20
2.582360
  0
VERTEX
  8
0
  6
CONTINUOUS
 10
7.838600
 20
1.867800
  0
VERTEX
  8
0
  6
CONTINUOUS
 10
7.829800
 20
1.210440
  0
VERTEX
  8
0
  6
CONTINUOUS
 10
7.829800
 20
1.925000
  0
SEQEND
  8
0
  0
SOLID
  8
0
 62
    15
 10
7.306640
 20
1.925000
 11
7.315000
 21
2.582360
 12
7.829800
 22
1.925000
 13
7.838600
 23
2.582360
  0
POLYLINE
  8
0
  6
CONTINUOUS
 66
     1
 40
0.000000
 41
0.000000
  0
VERTEX
  8
0
  6
CONTINUOUS
 10
7.306640
 20
1.925000
  0
VERTEX
  8
0
  6
CONTINUOUS
 10
7.315000
 20
2.582360
  0
VERTEX
  8
0
  6
CONTINUOUS
 10
7.838600
 20
2.582360
  0
VERTEX
  8
0
  6
CONTINUOUS
 10
7.829800
 20
1.925000
  0
VERTEX
  8
0
  6
CONTINUOUS
 10
7.306640
 20
1.925000
  0
SEQEND
  8
0
  0
SOLID
  8
0
 62
    15
 10
7.306640
 20
2.250160
 11
7.315000
 21
2.907520
 12
7.306640
 22
1.925000
 13
7.315000
 23
2.582360
  0
POLYLINE
  8
0
  6
CONTINUOUS
 66
     1
 40
0.000000
 41
0.000000
  0
VERTEX
  8
0
  6
CONTINUOUS
 10
7.306640
 20
2.250160
  0
VERTEX
  8
0
  6
CONTINUOUS
 10
7.315000
 20
2.907520
  0
VERTEX
  8
0
  6
CONTINUOUS
 10
7.315000
 20
2.582360
  0
VERTEX
  8
0
  6
CONTINUOUS
 10
7.306640
 20
1.925000
  0
VERTEX
  8
0
  6
CONTINUOUS
 10
7.306640
 20
2.250160
  0
SEQEND
  8
0
  0
SOLID
  8
0
 62
    15
 10
6.453040
 20
2.250600
 11
6.461400
 21
2.907960
 12
7.306640
 22
2.250160
 13
7.315000
 23
2.907520
  0
POLYLINE
  8
0
  6
CONTINUOUS
 66
     1
 40
0.000000
 41
0.000000
  0
VERTEX
  8
0
  6
CONTINUOUS
 10
6.453040
 20
2.250600
  0
VERTEX
  8
0
  6
CONTINUOUS
 10
6.461400
 20
2.907960
  0
VERTEX
  8
0
  6
CONTINUOUS
 10
7.315000
 20
2.907520
  0
VERTEX
  8
0
  6
CONTINUOUS
 10
7.306640
 20
2.250160
  0
VERTEX
  8
0
  6
CONTINUOUS
 10
6.453040
 20
2.250600
  0
SEQEND
  8
0
  0
SOLID
  8
0
 62
    15
 10
1.322200
 20
1.925000
 11
1.330560
 21
2.582360
 12
1.844040
 22
1.925000
 13
1.852400
 23
2.582360
  0
POLYLINE
  8
0
  6
CONTINUOUS
 66
     1
 40
0.000000
 41
0.000000
  0
VERTEX
  8
0
  6
CONTINUOUS
 10
1.322200
 20
1.925000
  0
VERTEX
  8
0
  6
CONTINUOUS
 10
1.330560
 20
2.582360
  0
VERTEX
  8
0
  6
CONTINUOUS
 10
1.852400
 20
2.582360
  0
VERTEX
  8
0
  6
CONTINUOUS
 10
1.844040
 20
1.925000
  0
VERTEX
  8
0
  6
CONTINUOUS
 10
1.322200
 20
1.925000
  0
SEQEND
  8
0
  0
SOLID
  8
0
 62
    15
 10
1.844040
 20
2.251040
 11
1.852400
 21
2.908400
 12
2.697640
 22
2.251040
 13
2.706000
 23
2.908400
  0
POLYLINE
  8
0
  6
CONTINUOUS
 66
     1
 40
0.000000
 41
0.000000
  0
VERTEX
  8
0
  6
CONTINUOUS
 10
1.844040
 20
2.251040
  0
VERTEX
  8
0
  6
CONTINUOUS
 10
1.852400
 20
2.908400
  0
VERTEX
  8
0
  6
CONTINUOUS
 10
2.706000
 20
2.908400
  0
VERTEX
  8
0
  6
CONTINUOUS
 10
2.697640
 20
2.251040
  0
VERTEX
  8
0
  6
CONTINUOUS
 10
1.844040
 20
2.251040
  0
SEQEND
  8
0
  0
SOLID
  8
0
 62
    15
 10
2.697640
 20
2.251040
 11
2.706000
 21
2.908400
 12
2.710400
 22
2.212760
 13
2.718760
 23
2.870120
  0
POLYLINE
  8
0
  6
CONTINUOUS
 66
     1
 40
0.000000
 41
0.000000
  0
VERTEX
  8
0
  6
CONTINUOUS
 10
2.697640
 20
2.251040
  0
VERTEX
  8
0
  6
CONTINUOUS
 10
2.706000
 20
2.908400
  0
VERTEX
  8
0
  6
CONTINUOUS
 10
2.718760
 20
2.870120
  0
VERTEX
  8
0
  6
CONTINUOUS
 10
2.710400
 20
2.212760
  0
VERTEX
  8
0
  6
CONTINUOUS
 10
2.697640
 20
2.251040
  0
SEQEND
  8
0
  0
SOLID
  8
0
 62
    15
 10
2.710400
 20
2.212760
 11
2.718760
 21
2.870120
 12
2.728000
 22
2.179760
 13
2.736360
 23
2.837120
  0
POLYLINE
  8
0
  6
CONTINUOUS
 66
     1
 40
0.000000
 41
0.000000
  0
VERTEX
  8
0
  6
CONTINUOUS
 10
2.710400
 20
2.212760
  0
VERTEX
  8
0
  6
CONTINUOUS
 10
2.718760
 20
2.870120
  0
VERTEX
  8
0
  6
CONTINUOUS
 10
2.736360
 20
2.837120
  0
VERTEX
  8
0
  6
CONTINUOUS
 10
2.728000
 20
2.179760
  0
VERTEX
  8
0
  6
CONTINUOUS
 10
2.710400
 20
2.212760
  0
SEQEND
  8
0
  0
SOLID
  8
0
 62
    15
 10
2.728000
 20
2.179760
 11
2.736360
 21
2.837120
 12
2.749120
 22
2.151600
 13
2.757480
 23
2.809400
  0
POLYLINE
  8
0
  6
CONTINUOUS
 66
     1
 40
0.000000
 41
0.000000
  0
VERTEX
  8
0
  6
CONTINUOUS
 10
2.728000
 20
2.179760
  0
VERTEX
  8
0
  6
CONTINUOUS
 10
2.736360
 20
2.837120
  0
VERTEX
  8
0
  6
CONTINUOUS
 10
2.757480
 20
2.809400
  0
VERTEX
  8
0
  6
CONTINUOUS
 10
2.749120
 20
2.151600
  0
VERTEX
  8
0
  6
CONTINUOUS
 10
2.728000
 20
2.179760
  0
SEQEND
  8
0
  0
SOLID
  8
0
 62
    15
 10
2.749120
 20
2.151600
 11
2.757480
 21
2.809400
 12
2.773760
 22
2.128720
 13
2.782120
 23
2.786520
  0
POLYLINE
  8
0
  6
CONTINUOUS
 66
     1
 40
0.000000
 41
0.000000
  0
VERTEX
  8
0
  6
CONTINUOUS
 10
2.749120
 20
2.151600
  0
VERTEX
  8
0
  6
CONTINUOUS
 10
2.757480
 20
2.809400
  0
VERTEX
  8
0
  6
CONTINUOUS
 10
2.782120
 20
2.786520
  0
VERTEX
  8
0
  6
CONTINUOUS
 10
2.773760
 20
2.128720
  0
VERTEX
  8
0
  6
CONTINUOUS
 10
2.749120
 20
2.151600
  0
SEQEND
  8
0
  0
SOLID
  8
0
 62
    15
 10
2.773760
 20
2.128720
 11
2.782120
 21
2.786520
 12
2.800600
 22
2.111120
 13
2.808960
 23
2.768480
  0
POLYLINE
  8
0
  6
CONTINUOUS
 66
     1
 40
0.000000
 41
0.000000
  0
VERTEX
  8
0
  6
CONTINUOUS
 10
2.773760
 20
2.128720
  0
VERTEX
  8
0
  6
CONTINUOUS
 10
2.782120
 20
2.786520
  0
VERTEX
  8
0
  6
CONTINUOUS
 10
2.808960
 20
2.768480
  0
VERTEX
  8
0
  6
CONTINUOUS
 10
2.800600
 20
2.111120
  0
VERTEX
  8
0
  6
CONTINUOUS
 10
2.773760
 20
2.128720
  0
SEQEND
  8
0
  0
SOLID
  8
0
 62
    15
 10
2.800600
 20
2.111120
 11
2.808960
 21
2.768480
 12
2.829640
 22
2.098360
 13
2.838000
 23
2.755720
  0
POLYLINE
  8
0
  6
CONTINUOUS
 66
     1
 40
0.000000
 41
0.000000
  0
VERTEX
  8
0
  6
CONTINUOUS
 10
2.800600
 20
2.111120
  0
VERTEX
  8
0
  6
CONTINUOUS
 10
2.808960
 20
2.768480
  0
VERTEX
  8
0
  6
CONTINUOUS
 10
2.838000
 20
2.755720
  0
VERTEX
  8
0
  6
CONTINUOUS
 10
2.829640
 20
2.098360
  0
VERTEX
  8
0
  6
CONTINUOUS
 10
2.800600
 20
2.111120
  0
SEQEND
  8
0
  0
SOLID
  8
0
 62
    15
 10
2.829640
 20
2.098360
 11
2.838000
 21
2.755720
 12
2.859560
 22
2.090880
 13
2.868360
 23
2.748240
  0
POLYLINE
  8
0
  6
CONTINUOUS
 66
     1
 40
0.000000
 41
0.000000
  0
VERTEX
  8
0
  6
CONTINUOUS
 10
2.829640
 20
2.098360
  0
VERTEX
  8
0
  6
CONTINUOUS
 10
2.838000
 20
2.755720
  0
VERTEX
  8
0
  6
CONTINUOUS
 10
2.868360
 20
2.748240
  0
VERTEX
  8
0
  6
CONTINUOUS
 10
2.859560
 20
2.090880
  0
VERTEX
  8
0
  6
CONTINUOUS
 10
2.829640
 20
2.098360
  0
SEQEND
  8
0
  0
SOLID
  8
0
 62
    15
 10
2.859560
 20
2.090880
 11
2.868360
 21
2.748240
 12
2.890360
 22
2.088240
 13
2.898720
 23
2.745600
  0
POLYLINE
  8
0
  6
CONTINUOUS
 66
     1
 40
0.000000
 41
0.000000
  0
VERTEX
  8
0
  6
CONTINUOUS
 10
2.859560
 20
2.090880
  0
VERTEX
  8
0
  6
CONTINUOUS
 10
2.868360
 20
2.748240
  0
VERTEX
  8
0
  6
CONTINUOUS
 10
2.898720
 20
2.745600
  0
VERTEX
  8
0
  6
CONTINUOUS
 10
2.890360
 20
2.088240
  0
VERTEX
  8
0
  6
CONTINUOUS
 10
2.859560
 20
2.090880
  0
SEQEND
  8
0
  0
SOLID
  8
0
 62
    15
 10
2.890360
 20
2.088240
 11
2.898720
 21
2.745600
 12
2.920720
 22
2.090880
 13
2.929080
 23
2.748240
  0
POLYLINE
  8
0
  6
CONTINUOUS
 66
     1
 40
0.000000
 41
0.000000
  0
VERTEX
  8
0
  6
CONTINUOUS
 10
2.890360
 20
2.088240
  0
VERTEX
  8
0
  6
CONTINUOUS
 10
2.898720
 20
2.745600
  0
VERTEX
  8
0
  6
CONTINUOUS
 10
2.929080
 20
2.748240
  0
VERTEX
  8
0
  6
CONTINUOUS
 10
2.920720
 20
2.090880
  0
VERTEX
  8
0
  6
CONTINUOUS
 10
2.890360
 20
2.088240
  0
SEQEND
  8
0
  0
SOLID
  8
0
 62
    15
 10
2.920720
 20
2.090880
 11
2.929080
 21
2.748240
 12
2.950200
 22
2.098800
 13
2.958560
 23
2.756160
  0
POLYLINE
  8
0
  6
CONTINUOUS
 66
     1
 40
0.000000
 41
0.000000
  0
VERTEX
  8
0
  6
CONTINUOUS
 10
2.920720
 20
2.090880
  0
VERTEX
  8
0
  6
CONTINUOUS
 10
2.929080
 20
2.748240
  0
VERTEX
  8
0
  6
CONTINUOUS
 10
2.958560
 20
2.756160
  0
VERTEX
  8
0
  6
CONTINUOUS
 10
2.950200
 20
2.098800
  0
VERTEX
  8
0
  6
CONTINUOUS
 10
2.920720
 20
2.090880
  0
SEQEND
  8
0
  0
SOLID
  8
0
 62
    15
 10
2.950200
 20
2.098800
 11
2.958560
 21
2.756160
 12
2.978360
 22
2.111560
 13
2.986720
 23
2.768920
  0
POLYLINE
  8
0
  6
CONTINUOUS
 66
     1
 40
0.000000
 41
0.000000
  0
VERTEX
  8
0
  6
CONTINUOUS
 10
2.950200
 20
2.098800
  0
VERTEX
  8
0
  6
CONTINUOUS
 10
2.958560
 20
2.756160
  0
VERTEX
  8
0
  6
CONTINUOUS
 10
2.986720
 20
2.768920
  0
VERTEX
  8
0
  6
CONTINUOUS
 10
2.978360
 20
2.111560
  0
VERTEX
  8
0
  6
CONTINUOUS
 10
2.950200
 20
2.098800
  0
SEQEND
  8
0
  0
SOLID
  8
0
 62
    15
 10
2.978360
 20
2.111560
 11
2.986720
 21
2.768920
 12
3.004320
 22
2.129160
 13
3.012680
 23
2.786520
  0
POLYLINE
  8
0
  6
CONTINUOUS
 66
     1
 40
0.000000
 41
0.000000
  0
VERTEX
  8
0
  6
CONTINUOUS
 10
2.978360
 20
2.111560
  0
VERTEX
  8
0
  6
CONTINUOUS
 10
2.986720
 20
2.768920
  0
VERTEX
  8
0
  6
CONTINUOUS
 10
3.012680
 20
2.786520
  0
VERTEX
  8
0
  6
CONTINUOUS
 10
3.004320
 20
2.129160
  0
VERTEX
  8
0
  6
CONTINUOUS
 10
2.978360
 20
2.111560
  0
SEQEND
  8
0
  0
SOLID
  8
0
 62
    15
 10
3.004320
 20
2.129160
 11
3.012680
 21
2.786520
 12
3.027200
 22
2.152040
 13
3.035560
 23
2.809400
  0
POLYLINE
  8
0
  6
CONTINUOUS
 66
     1
 40
0.000000
 41
0.000000
  0
VERTEX
  8
0
  6
CONTINUOUS
 10
3.004320
 20
2.129160
  0
VERTEX
  8
0
  6
CONTINUOUS
 10
3.012680
 20
2.786520
  0
VERTEX
  8
0
  6
CONTINUOUS
 10
3.035560
 20
2.809400
  0
VERTEX
  8
0
  6
CONTINUOUS
 10
3.027200
 20
2.152040
  0
VERTEX
  8
0
  6
CONTINUOUS
 10
3.004320
 20
2.129160
  0
SEQEND
  8
0
  0
SOLID
  8
0
 62
    15
 10
3.027200
 20
2.152040
 11
3.035560
 21
2.809400
 12
3.046560
 22
2.180200
 13
3.054920
 23
2.837560
  0
POLYLINE
  8
0
  6
CONTINUOUS
 66
     1
 40
0.000000
 41
0.000000
  0
VERTEX
  8
0
  6
CONTINUOUS
 10
3.027200
 20
2.152040
  0
VERTEX
  8
0
  6
CONTINUOUS
 10
3.035560
 20
2.809400
  0
VERTEX
  8
0
  6
CONTINUOUS
 10
3.054920
 20
2.837560
  0
VERTEX
  8
0
  6
CONTINUOUS
 10
3.046560
 20
2.180200
  0
VERTEX
  8
0
  6
CONTINUOUS
 10
3.027200
 20
2.152040
  0
SEQEND
  8
0
  0
SOLID
  8
0
 62
    15
 10
3.046560
 20
2.180200
 11
3.054920
 21
2.837560
 12
3.061960
 22
2.212760
 13
3.070320
 23
2.870560
  0
POLYLINE
  8
0
  6
CONTINUOUS
 66
     1
 40
0.000000
 41
0.000000
  0
VERTEX
  8
0
  6
CONTINUOUS
 10
3.046560
 20
2.180200
  0
VERTEX
  8
0
  6
CONTINUOUS
 10
3.054920
 20
2.837560
  0
VERTEX
  8
0
  6
CONTINUOUS
 10
3.070320
 20
2.870560
  0
VERTEX
  8
0
  6
CONTINUOUS
 10
3.061960
 20
2.212760
  0
VERTEX
  8
0
  6
CONTINUOUS
 10
3.046560
 20
2.180200
  0
SEQEND
  8
0
  0
SOLID
  8
0
 62
    15
 10
3.061960
 20
2.212760
 11
3.070320
 21
2.870560
 12
3.072520
 22
2.251040
 13
3.080880
 23
2.908400
  0
POLYLINE
  8
0
  6
CONTINUOUS
 66
     1
 40
0.000000
 41
0.000000
  0
VERTEX
  8
0
  6
CONTINUOUS
 10
3.061960
 20
2.212760
  0
VERTEX
  8
0
  6
CONTINUOUS
 10
3.070320
 20
2.870560
  0
VERTEX
  8
0
  6
CONTINUOUS
 10
3.080880
 20
2.908400
  0
VERTEX
  8
0
  6
CONTINUOUS
 10
3.072520
 20
2.251040
  0
VERTEX
  8
0
  6
CONTINUOUS
 10
3.061960
 20
2.212760
  0
SEQEND
  8
0
  0
SOLID
  8
0
 62
    15
 10
3.072520
 20
2.251040
 11
3.080880
 21
2.908400
 12
3.448280
 22
2.251040
 13
3.456640
 23
2.908400
  0
POLYLINE
  8
0
  6
CONTINUOUS
 66
     1
 40
0.000000
 41
0.000000
  0
VERTEX
  8
0
  6
CONTINUOUS
 10
3.072520
 20
2.251040
  0
VERTEX
  8
0
  6
CONTINUOUS
 10
3.080880
 20
2.908400
  0
VERTEX
  8
0
  6
CONTINUOUS
 10
3.456640
 20
2.908400
  0
VERTEX
  8
0
  6
CONTINUOUS
 10
3.448280
 20
2.251040
  0
VERTEX
  8
0
  6
CONTINUOUS
 10
3.072520
 20
2.251040
  0
SEQEND
  8
0
  0
SOLID
  8
0
 62
    15
 10
3.448280
 20
2.251040
 11
3.456640
 21
2.908400
 12
3.465000
 22
2.200000
 13
3.473360
 23
2.857360
  0
POLYLINE
  8
0
  6
CONTINUOUS
 66
     1
 40
0.000000
 41
0.000000
  0
VERTEX
  8
0
  6
CONTINUOUS
 10
3.448280
 20
2.251040
  0
VERTEX
  8
0
  6
CONTINUOUS
 10
3.456640
 20
2.908400
  0
VERTEX
  8
0
  6
CONTINUOUS
 10
3.473360
 20
2.857360
  0
VERTEX
  8
0
  6
CONTINUOUS
 10
3.465000
 20
2.200000
  0
VERTEX
  8
0
  6
CONTINUOUS
 10
3.448280
 20
2.251040
  0
SEQEND
  8
0
  0
SOLID
  8
0
 62
    15
 10
3.465000
 20
2.200000
 11
3.473360
 21
2.857360
 12
3.487880
 22
2.156000
 13
3.496240
 23
2.813360
  0
POLYLINE
  8
0
  6
CONTINUOUS
 66
     1
 40
0.000000
 41
0.000000
  0
VERTEX
  8
0
  6
CONTINUOUS
 10
3.465000
 20
2.200000
  0
VERTEX
  8
0
  6
CONTINUOUS
 10
3.473360
 20
2.857360
  0
VERTEX
  8
0
  6
CONTINUOUS
 10
3.496240
 20
2.813360
  0
VERTEX
  8
0
  6
CONTINUOUS
 10
3.487880
 20
2.156000
  0
VERTEX
  8
0
  6
CONTINUOUS
 10
3.465000
 20
2.200000
  0
SEQEND
  8
0
  0
SOLID
  8
0
 62
    15
 10
3.487880
 20
2.156000
 11
3.496240
 21
2.813360
 12
3.515600
 22
2.118600
 13
3.524400
 23
2.775960
  0
POLYLINE
  8
0
  6
CONTINUOUS
 66
     1
 40
0.000000
 41
0.000000
  0
VERTEX
  8
0
  6
CONTINUOUS
 10
3.487880
 20
2.156000
  0
VERTEX
  8
0
  6
CONTINUOUS
 10
3.496240
 20
2.813360
  0
VERTEX
  8
0
  6
CONTINUOUS
 10
3.524400
 20
2.775960
  0
VERTEX
  8
0
  6
CONTINUOUS
 10
3.515600
 20
2.118600
  0
VERTEX
  8
0
  6
CONTINUOUS
 10
3.487880
 20
2.156000
  0
SEQEND
  8
0
  0
SOLID
  8
0
 62
    15
 10
3.515600
 20
2.118600
 11
3.524400
 21
2.775960
 12
3.548160
 22
2.087800
 13
3.556520
 23
2.745160
  0
POLYLINE
  8
0
  6
CONTINUOUS
 66
     1
 40
0.000000
 41
0.000000
  0
VERTEX
  8
0
  6
CONTINUOUS
 10
3.515600
 20
2.118600
  0
VERTEX
  8
0
  6
CONTINUOUS
 10
3.524400
 20
2.775960
  0
VERTEX
  8
0
  6
CONTINUOUS
 10
3.556520
 20
2.745160
  0
VERTEX
  8
0
  6
CONTINUOUS
 10
3.548160
 20
2.087800
  0
VERTEX
  8
0
  6
CONTINUOUS
 10
3.515600
 20
2.118600
  0
SEQEND
  8
0
  0
SOLID
  8
0
 62
    15
 10
3.548160
 20
2.087800
 11
3.556520
 21
2.745160
 12
3.583800
 22
2.064040
 13
3.592160
 23
2.721400
  0
POLYLINE
  8
0
  6
CONTINUOUS
 66
     1
 40
0.000000
 41
0.000000
  0
VERTEX
  8
0
  6
CONTINUOUS
 10
3.548160
 20
2.087800
  0
VERTEX
  8
0
  6
CONTINUOUS
 10
3.556520
 20
2.745160
  0
VERTEX
  8
0
  6
CONTINUOUS
 10
3.592160
 20
2.721400
  0
VERTEX
  8
0
  6
CONTINUOUS
 10
3.583800
 20
2.064040
  0
VERTEX
  8
0
  6
CONTINUOUS
 10
3.548160
 20
2.087800
  0
SEQEND
  8
0
  0
SOLID
  8
0
 62
    15
 10
3.583800
 20
2.064040
 11
3.592160
 21
2.721400
 12
3.622080
 22
2.046880
 13
3.630440
 23
2.704240
  0
POLYLINE
  8
0
  6
CONTINUOUS
 66
     1
 40
0.000000
 41
0.000000
  0
VERTEX
  8
0
  6
CONTINUOUS
 10
3.583800
 20
2.064040
  0
VERTEX
  8
0
  6
CONTINUOUS
 10
3.592160
 20
2.721400
  0
VERTEX
  8
0
  6
CONTINUOUS
 10
3.630440
 20
2.704240
  0
VERTEX
  8
0
  6
CONTINUOUS
 10
3.622080
 20
2.046880
  0
VERTEX
  8
0
  6
CONTINUOUS
 10
3.583800
 20
2.064040
  0
SEQEND
  8
0
  0
SOLID
  8
0
 62
    15
 10
3.622080
 20
2.046880
 11
3.630440
 21
2.704240
 12
3.662120
 22
2.036760
 13
3.670480
 23
2.694120
  0
POLYLINE
  8
0
  6
CONTINUOUS
 66
     1
 40
0.000000
 41
0.000000
  0
VERTEX
  8
0
  6
CONTINUOUS
 10
3.622080
 20
2.046880
  0
VERTEX
  8
0
  6
CONTINUOUS
 10
3.630440
 20
2.704240
  0
VERTEX
  8
0
  6
CONTINUOUS
 10
3.670480
 20
2.694120
  0
VERTEX
  8
0
  6
CONTINUOUS
 10
3.662120
 20
2.036760
  0
VERTEX
  8
0
  6
CONTINUOUS
 10
3.622080
 20
2.046880
  0
SEQEND
  8
0
  0
SOLID
  8
0
 62
    15
 10
3.662120
 20
2.036760
 11
3.670480
 21
2.694120
 12
3.702600
 22
2.033240
 13
3.710960
 23
2.690600
  0
POLYLINE
  8
0
  6
CONTINUOUS
 66
     1
 40
0.000000
 41
0.000000
  0
VERTEX
  8
0
  6
CONTINUOUS
 10
3.662120
 20
2.036760
  0
VERTEX
  8
0
  6
CONTINUOUS
 10
3.670480
 20
2.694120
  0
VERTEX
  8
0
  6
CONTINUOUS
 10
3.710960
 20
2.690600
  0
VERTEX
  8
0
  6
CONTINUOUS
 10
3.702600
 20
2.033240
  0
VERTEX
  8
0
  6
CONTINUOUS
 10
3.662120
 20
2.036760
  0
SEQEND
  8
0
  0
SOLID
  8
0
 62
    15
 10
3.702600
 20
2.033240
 11
3.710960
 21
2.690600
 12
3.743080
 22
2.036760
 13
3.751440
 23
2.694120
  0
POLYLINE
  8
0
  6
CONTINUOUS
 66
     1
 40
0.000000
 41
0.000000
  0
VERTEX
  8
0
  6
CONTINUOUS
 10
3.702600
 20
2.033240
  0
VERTEX
  8
0
  6
CONTINUOUS
 10
3.710960
 20
2.690600
  0
VERTEX
  8
0
  6
CONTINUOUS
 10
3.751440
 20
2.694120
  0
VERTEX
  8
0
  6
CONTINUOUS
 10
3.743080
 20
2.036760
  0
VERTEX
  8
0
  6
CONTINUOUS
 10
3.702600
 20
2.033240
  0
SEQEND
  8
0
  0
SOLID
  8
0
 62
    15
 10
3.743080
 20
2.036760
 11
3.751440
 21
2.694120
 12
3.782240
 22
2.046880
 13
3.790600
 23
2.704240
  0
POLYLINE
  8
0
  6
CONTINUOUS
 66
     1
 40
0.000000
 41
0.000000
  0
VERTEX
  8
0
  6
CONTINUOUS
 10
3.743080
 20
2.036760
  0
VERTEX
  8
0
  6
CONTINUOUS
 10
3.751440
 20
2.694120
  0
VERTEX
  8
0
  6
CONTINUOUS
 10
3.790600
 20
2.704240
  0
VERTEX
  8
0
  6
CONTINUOUS
 10
3.782240
 20
2.046880
  0
VERTEX
  8
0
  6
CONTINUOUS
 10
3.743080
 20
2.036760
  0
SEQEND
  8
0
  0
SOLID
  8
0
 62
    15
 10
3.782240
 20
2.046880
 11
3.790600
 21
2.704240
 12
3.819640
 22
2.064040
 13
3.828000
 23
2.721400
  0
POLYLINE
  8
0
  6
CONTINUOUS
 66
     1
 40
0.000000
 41
0.000000
  0
VERTEX
  8
0
  6
CONTINUOUS
 10
3.782240
 20
2.046880
  0
VERTEX
  8
0
  6
CONTINUOUS
 10
3.790600
 20
2.704240
  0
VERTEX
  8
0
  6
CONTINUOUS
 10
3.828000
 20
2.721400
  0
VERTEX
  8
0
  6
CONTINUOUS
 10
3.819640
 20
2.064040
  0
VERTEX
  8
0
  6
CONTINUOUS
 10
3.782240
 20
2.046880
  0
SEQEND
  8
0
  0
SOLID
  8
0
 62
    15
 10
3.819640
 20
2.064040
 11
3.828000
 21
2.721400
 12
3.853960
 22
2.087800
 13
3.862760
 23
2.745160
  0
POLYLINE
  8
0
  6
CONTINUOUS
 66
     1
 40
0.000000
 41
0.000000
  0
VERTEX
  8
0
  6
CONTINUOUS
 10
3.819640
 20
2.064040
  0
VERTEX
  8
0
  6
CONTINUOUS
 10
3.828000
 20
2.721400
  0
VERTEX
  8
0
  6
CONTINUOUS
 10
3.862760
 20
2.745160
  0
VERTEX
  8
0
  6
CONTINUOUS
 10
3.853960
 20
2.087800
  0
VERTEX
  8
0
  6
CONTINUOUS
 10
3.819640
 20
2.064040
  0
SEQEND
  8
0
  0
SOLID
  8
0
 62
    15
 10
3.853960
 20
2.087800
 11
3.862760
 21
2.745160
 12
3.884760
 22
2.118160
 13
3.893120
 23
2.775960
  0
POLYLINE
  8
0
  6
CONTINUOUS
 66
     1
 40
0.000000
 41
0.000000
  0
VERTEX
  8
0
  6
CONTINUOUS
 10
3.853960
 20
2.087800
  0
VERTEX
  8
0
  6
CONTINUOUS
 10
3.862760
 20
2.745160
  0
VERTEX
  8
0
  6
CONTINUOUS
 10
3.893120
 20
2.775960
  0
VERTEX
  8
0
  6
CONTINUOUS
 10
3.884760
 20
2.118160
  0
VERTEX
  8
0
  6
CONTINUOUS
 10
3.853960
 20
2.087800
  0
SEQEND
  8
0
  0
SOLID
  8
0
 62
    15
 10
3.884760
 20
2.118160
 11
3.893120
 21
2.775960
 12
3.910720
 22
2.156000
 13
3.919080
 23
2.813360
  0
POLYLINE
  8
0
  6
CONTINUOUS
 66
     1
 40
0.000000
 41
0.000000
  0
VERTEX
  8
0
  6
CONTINUOUS
 10
3.884760
 20
2.118160
  0
VERTEX
  8
0
  6
CONTINUOUS
 10
3.893120
 20
2.775960
  0
VERTEX
  8
0
  6
CONTINUOUS
 10
3.919080
 20
2.813360
  0
VERTEX
  8
0
  6
CONTINUOUS
 10
3.910720
 20
2.156000
  0
VERTEX
  8
0
  6
CONTINUOUS
 10
3.884760
 20
2.118160
  0
SEQEND
  8
0
  0
SOLID
  8
0
 62
    15
 10
3.910720
 20
2.156000
 11
3.919080
 21
2.813360
 12
3.931400
 22
2.200000
 13
3.939760
 23
2.857800
  0
POLYLINE
  8
0
  6
CONTINUOUS
 66
     1
 40
0.000000
 41
0.000000
  0
VERTEX
  8
0
  6
CONTINUOUS
 10
3.910720
 20
2.156000
  0
VERTEX
  8
0
  6
CONTINUOUS
 10
3.919080
 20
2.813360
  0
VERTEX
  8
0
  6
CONTINUOUS
 10
3.939760
 20
2.857800
  0
VERTEX
  8
0
  6
CONTINUOUS
 10
3.931400
 20
2.200000
  0
VERTEX
  8
0
  6
CONTINUOUS
 10
3.910720
 20
2.156000
  0
SEQEND
  8
0
  0
SOLID
  8
0
 62
    15
 10
3.931400
 20
2.200000
 11
3.939760
 21
2.857800
 12
3.945040
 22
2.251480
 13
3.953840
 23
2.908840
  0
POLYLINE
  8
0
  6
CONTINUOUS
 66
     1
 40
0.000000
 41
0.000000
  0
VERTEX
  8
0
  6
CONTINUOUS
 10
3.931400
 20
2.200000
  0
VERTEX
  8
0
  6
CONTINUOUS
 10
3.939760
 20
2.857800
  0
VERTEX
  8
0
  6
CONTINUOUS
 10
3.953840
 20
2.908840
  0
VERTEX
  8
0
  6
CONTINUOUS
 10
3.945040
 20
2.251480
  0
VERTEX
  8
0
  6
CONTINUOUS
 10
3.931400
 20
2.200000
  0
SEQEND
  8
0
  0
SOLID
  8
0
 62
    15
 10
3.945040
 20
2.251480
 11
3.953840
 21
2.908840
 12
4.320800
 22
2.251480
 13
4.329160
 23
2.908840
  0
POLYLINE
  8
0
  6
CONTINUOUS
 66
     1
 40
0.000000
 41
0.000000
  0
VERTEX
  8
0
  6
CONTINUOUS
 10
3.945040
 20
2.251480
  0
VERTEX
  8
0
  6
CONTINUOUS
 10
3.953840
 20
2.908840
  0
VERTEX
  8
0
  6
CONTINUOUS
 10
4.329160
 20
2.908840
  0
VERTEX
  8
0
  6
CONTINUOUS
 10
4.320800
 20
2.251480
  0
VERTEX
  8
0
  6
CONTINUOUS
 10
3.945040
 20
2.251480
  0
SEQEND
  8
0
  0
POLYLINE
  8
0
  6
CONTINUOUS
 66
     1
 40
0.000000
 41
0.000000
  0
VERTEX
  8
0
  6
CONTINUOUS
 10
4.319040
 20
2.251040
  0
VERTEX
  8
0
  6
CONTINUOUS
 10
4.341480
 20
2.189000
  0
VERTEX
  8
0
  6
CONTINUOUS
 10
4.368760
 20
2.137520
  0
VERTEX
  8
0
  6
CONTINUOUS
 10
4.400440
 20
2.096600
  0
VERTEX
  8
0
  6
CONTINUOUS
 10
4.435640
 20
2.065360
  0
VERTEX
  8
0
  6
CONTINUOUS
 10
4.473480
 20
2.042920
  0
VERTEX
  8
0
  6
CONTINUOUS
 10
4.513080
 20
2.029720
  0
VERTEX
  8
0
  6
CONTINUOUS
 10
4.553560
 20
2.024440
  0
VERTEX
  8
0
  6
CONTINUOUS
 10
4.594480
 20
2.026640
  0
VERTEX
  8
0
  6
CONTINUOUS
 10
4.634520
 20
2.035880
  0
VERTEX
  8
0
  6
CONTINUOUS
 10
4.673240
 20
2.051280
  0
VERTEX
  8
0
  6
CONTINUOUS
 10
4.709760
 20
2.072840
  0
VERTEX
  8
0
  6
CONTINUOUS
 10
4.743200
 20
2.100120
  0
VERTEX
  8
0
  6
CONTINUOUS
 10
4.772680
 20
2.131800
  0
VERTEX
  8
0
  6
CONTINUOUS
 10
4.797760
 20
2.167880
  0
VERTEX
  8
0
  6
CONTINUOUS
 10
4.817120
 20
2.207920
  0
VERTEX
  8
0
  6
CONTINUOUS
 10
4.829880
 20
2.250600
  0
VERTEX
  8
0
  6
CONTINUOUS
 10
5.205640
 20
2.250600
  0
VERTEX
  8
0
  6
CONTINUOUS
 10
5.219280
 20
2.199560
  0
VERTEX
  8
0
  6
CONTINUOUS
 10
5.239960
 20
2.155120
  0
VERTEX
  8
0
  6
CONTINUOUS
 10
5.265920
 20
2.117720
  0
VERTEX
  8
0
  6
CONTINUOUS
 10
5.296720
 20
2.086920
  0
VERTEX
  8
0
  6
CONTINUOUS
 10
5.331040
 20
2.063160
  0
VERTEX
  8
0
  6
CONTINUOUS
 10
5.368440
 20
2.046000
  0
VERTEX
  8
0
  6
CONTINUOUS
 10
5.407600
 20
2.035880
  0
VERTEX
  8
0
  6
CONTINUOUS
 10
5.448080
 20
2.032800
  0
VERTEX
  8
0
  6
CONTINUOUS
 10
5.488560
 20
2.035880
  0
VERTEX
  8
0
  6
CONTINUOUS
 10
5.528600
 20
2.046440
  0
VERTEX
  8
0
  6
CONTINUOUS
 10
5.566880
 20
2.063160
  0
VERTEX
  8
0
  6
CONTINUOUS
 10
5.602520
 20
2.087360
  0
VERTEX
  8
0
  6
CONTINUOUS
 10
5.635080
 20
2.117720
  0
VERTEX
  8
0
  6
CONTINUOUS
 10
5.662800
 20
2.155120
  0
VERTEX
  8
0
  6
CONTINUOUS
 10
5.685680
 20
2.199120
  0
VERTEX
  8
0
  6
CONTINUOUS
 10
5.702400
 20
2.250160
  0
VERTEX
  8
0
  6
CONTINUOUS
 10
6.078600
 20
2.250160
  0
VERTEX
  8
0
  6
CONTINUOUS
 10
6.088720
 20
2.212320
  0
VERTEX
  8
0
  6
CONTINUOUS
 10
6.104120
 20
2.179320
  0
VERTEX
  8
0
  6
CONTINUOUS
 10
6.123480
 20
2.151600
  0
VERTEX
  8
0
  6
CONTINUOUS
 10
6.146360
 20
2.128280
  0
VERTEX
  8
0
  6
CONTINUOUS
 10
6.172320
 20
2.110680
  0
VERTEX
  8
0
  6
CONTINUOUS
 10
6.200480
 20
2.097920
  0
VERTEX
  8
0
  6
CONTINUOUS
 10
6.229960
 20
2.090440
  0
VERTEX
  8
0
  6
CONTINUOUS
 10
6.260320
 20
2.087800
  0
VERTEX
  8
0
  6
CONTINUOUS
 10
6.290680
 20
2.090000
  0
VERTEX
  8
0
  6
CONTINUOUS
 10
6.321040
 20
2.097920
  0
VERTEX
  8
0
  6
CONTINUOUS
 10
6.349640
 20
2.110240
  0
VERTEX
  8
0
  6
CONTINUOUS
 10
6.376920
 20
2.128280
  0
VERTEX
  8
0
  6
CONTINUOUS
 10
6.401560
 20
2.151160
  0
VERTEX
  8
0
  6
CONTINUOUS
 10
6.422680
 20
2.178880
  0
VERTEX
  8
0
  6
CONTINUOUS
 10
6.440280
 20
2.212320
  0
VERTEX
  8
0
  6
CONTINUOUS
 10
6.453040
 20
2.250600
  0
VERTEX
  8
0
  6
CONTINUOUS
 10
7.306640
 20
2.250160
  0
VERTEX
  8
0
  6
CONTINUOUS
 10
7.306640
 20
1.925000
  0
VERTEX
  8
0
  6
CONTINUOUS
 10
7.829800
 20
1.925000
  0
VERTEX
  8
0
  6
CONTINUOUS
 10
7.829800
 20
1.210440
  0
VERTEX
  8
0
  6
CONTINUOUS
 10
1.322200
 20
1.210440
  0
VERTEX
  8
0
  6
CONTINUOUS
 10
1.322200
 20
1.925000
  0
VERTEX
  8
0
  6
CONTINUOUS
 10
1.844040
 20
1.925000
  0
VERTEX
  8
0
  6
CONTINUOUS
 10
1.844040
 20
2.251040
  0
VERTEX
  8
0
  6
CONTINUOUS
 10
2.697640
 20
2.251040
  0
VERTEX
  8
0
  6
CONTINUOUS
 10
2.710400
 20
2.212760
  0
VERTEX
  8
0
  6
CONTINUOUS
 10
2.728000
 20
2.179760
  0
VERTEX
  8
0
  6
CONTINUOUS
 10
2.749120
 20
2.151600
  0
VERTEX
  8
0
  6
CONTINUOUS
 10
2.773760
 20
2.128720
  0
VERTEX
  8
0
  6
CONTINUOUS
 10
2.800600
 20
2.111120
  0
VERTEX
  8
0
  6
CONTINUOUS
 10
2.829640
 20
2.098360
  0
VERTEX
  8
0
  6
CONTINUOUS
 10
2.859560
 20
2.090880
  0
VERTEX
  8
0
  6
CONTINUOUS
 10
2.890360
 20
2.088240
  0
VERTEX
  8
0
  6
CONTINUOUS
 10
2.920720
 20
2.090880
  0
VERTEX
  8
0
  6
CONTINUOUS
 10
2.950200
 20
2.098800
  0
VERTEX
  8
0
  6
CONTINUOUS
 10
2.978360
 20
2.111560
  0
VERTEX
  8
0
  6
CONTINUOUS
 10
3.004320
 20
2.129160
  0
VERTEX
  8
0
  6
CONTINUOUS
 10
3.027200
 20
2.152040
  0
VERTEX
  8
0
  6
CONTINUOUS
 10
3.046560
 20
2.180200
  0
VERTEX
  8
0
  6
CONTINUOUS
 10
3.061960
 20
2.212760
  0
VERTEX
  8
0
  6
CONTINUOUS
 10
3.072520
 20
2.251040
  0
VERTEX
  8
0
  6
CONTINUOUS
 10
3.448280
 20
2.251040
  0
VERTEX
  8
0
  6
CONTINUOUS
 10
3.465000
 20
2.200000
  0
VERTEX
  8
0
  6
CONTINUOUS
 10
3.487880
 20
2.156000
  0
VERTEX
  8
0
  6
CONTINUOUS
 10
3.515600
 20
2.118600
  0
VERTEX
  8
0
  6
CONTINUOUS
 10
3.548160
 20
2.087800
  0
VERTEX
  8
0
  6
CONTINUOUS
 10
3.583800
 20
2.064040
  0
VERTEX
  8
0
  6
CONTINUOUS
 10
3.622080
 20
2.046880
  0
VERTEX
  8
0
  6
CONTINUOUS
 10
3.662120
 20
2.036760
  0
VERTEX
  8
0
  6
CONTINUOUS
 10
3.702600
 20
2.033240
  0
VERTEX
  8
0
  6
CONTINUOUS
 10
3.743080
 20
2.036760
  0
VERTEX
  8
0
  6
CONTINUOUS
 10
3.782240
 20
2.046880
  0
VERTEX
  8
0
  6
CONTINUOUS
 10
3.819640
 20
2.064040
  0
VERTEX
  8
0
  6
CONTINUOUS
 10
3.853960
 20
2.087800
  0
VERTEX
  8
0
  6
CONTINUOUS
 10
3.884760
 20
2.118160
  0
VERTEX
  8
0
  6
CONTINUOUS
 10
3.910720
 20
2.156000
  0
VERTEX
  8
0
  6
CONTINUOUS
 10
3.931400
 20
2.200000
  0
VERTEX
  8
0
  6
CONTINUOUS
 10
3.945040
 20
2.251480
  0
VERTEX
  8
0
  6
CONTINUOUS
 10
4.320800
 20
2.251480
  0
VERTEX
  8
0
  6
CONTINUOUS
 10
4.319040
 20
2.251040
  0
SEQEND
  8
0
  0
TEXT
  8
0
 10
4.239400
 20
0.933680
 40
0.138237
  1
BA  1012
 41
1.000000
  7
SN0
 71
     0
 72
     5
 11
4.921981
 21
0.933680
  0
TEXT
  8
0
 10
4.010160
 20
0.741840
 40
0.138237
  1
1-1/16" x 6-1/2"
 41
1.000000
  7
SN0
 71
     0
 72
     5
 11
5.151116
 21
0.741840
  0
POLYLINE
  8
0
  6
CONTINUOUS
 66
     1
 40
0.014080
 41
0.014080
  0
VERTEX
  8
0
  6
CONTINUOUS
 10
4.446640
 20
4.488880
  0
VERTEX
  8
0
  6
CONTINUOUS
 10
4.462920
 20
4.441360
  0
VERTEX
  8
0
  6
CONTINUOUS
 10
4.482280
 20
4.399560
  0
VERTEX
  8
0
  6
CONTINUOUS
 10
4.504280
 20
4.363920
  0
VERTEX
  8
0
  6
CONTINUOUS
 10
4.528480
 20
4.334440
  0
VERTEX
  8
0
  6
CONTINUOUS
 10
4.554440
 20
4.309800
  0
VERTEX
  8
0
  6
CONTINUOUS
 10
4.582160
 20
4.290880
  0
VERTEX
  8
0
  6
CONTINUOUS
 10
4.601080
 20
4.280760
  0
VERTEX
  8
0
  6
CONTINUOUS
 10
4.640680
 20
4.267560
  0
VERTEX
  8
0
  6
CONTINUOUS
 10
4.660920
 20
4.263600
  0
VERTEX
  8
0
  6
CONTINUOUS
 10
4.681600
 20
4.261840
  0
VERTEX
  8
0
  6
CONTINUOUS
 10
4.722080
 20
4.264040
  0
VERTEX
  8
0
  6
CONTINUOUS
 10
4.762560
 20
4.273280
  0
VERTEX
  8
0
  6
CONTINUOUS
 10
4.801280
 20
4.289120
  0
VERTEX
  8
0
  6
CONTINUOUS
 10
4.837800
 20
4.310680
  0
VERTEX
  8
0
  6
CONTINUOUS
 10
4.854960
 20
4.323440
  0
VERTEX
  8
0
  6
CONTINUOUS
 10
4.886200
 20
4.352920
  0
VERTEX
  8
0
  6
CONTINUOUS
 10
4.900720
 20
4.369640
  0
VERTEX
  8
0
  6
CONTINUOUS
 10
4.925360
 20
4.405720
  0
VERTEX
  8
0
  6
CONTINUOUS
 10
4.935920
 20
4.425080
  0
VERTEX
  8
0
  6
CONTINUOUS
 10
4.952200
 20
4.466440
  0
VERTEX
  8
0
  6
CONTINUOUS
 10
4.957920
 20
4.488440
  0
VERTEX
  8
0
  6
CONTINUOUS
 10
5.333240
 20
4.488440
  0
VERTEX
  8
0
  6
CONTINUOUS
 10
5.339400
 20
4.462040
  0
VERTEX
  8
0
  6
CONTINUOUS
 10
5.356560
 20
4.414080
  0
VERTEX
  8
0
  6
CONTINUOUS
 10
5.379880
 20
4.373160
  0
VERTEX
  8
0
  6
CONTINUOUS
 10
5.408480
 20
4.339280
  0
VERTEX
  8
0
  6
CONTINUOUS
 10
5.424320
 20
4.324760
  0
VERTEX
  8
0
  6
CONTINUOUS
 10
5.441040
 20
4.312000
  0
VERTEX
  8
0
  6
CONTINUOUS
 10
5.477120
 20
4.291320
  0
VERTEX
  8
0
  6
CONTINUOUS
 10
5.515400
 20
4.277680
  0
VERTEX
  8
0
  6
CONTINUOUS
 10
5.555440
 20
4.271080
  0
VERTEX
  8
0
  6
CONTINUOUS
 10
5.575680
 20
4.270200
  0
VERTEX
  8
0
  6
CONTINUOUS
 10
5.595920
 20
4.271080
  0
VERTEX
  8
0
  6
CONTINUOUS
 10
5.616160
 20
4.273720
  0
VERTEX
  8
0
  6
CONTINUOUS
 10
5.656200
 20
4.283840
  0
VERTEX
  8
0
  6
CONTINUOUS
 10
5.694480
 20
4.301000
  0
VERTEX
  8
0
  6
CONTINUOUS
 10
5.712960
 20
4.312000
  0
VERTEX
  8
0
  6
CONTINUOUS
 10
5.746840
 20
4.339280
  0
VERTEX
  8
0
  6
CONTINUOUS
 10
5.777200
 20
4.373160
  0
VERTEX
  8
0
  6
CONTINUOUS
 10
5.790840
 20
4.392960
  0
VERTEX
  8
0
  6
CONTINUOUS
 10
5.813720
 20
4.436960
  0
VERTEX
  8
0
  6
CONTINUOUS
 10
5.822960
 20
4.461600
  0
VERTEX
  8
0
  6
CONTINUOUS
 10
5.830440
 20
4.488000
  0
VERTEX
  8
0
  6
CONTINUOUS
 10
6.206200
 20
4.488000
  0
VERTEX
  8
0
  6
CONTINUOUS
 10
6.216320
 20
4.449720
  0
VERTEX
  8
0
  6
CONTINUOUS
 10
6.231720
 20
4.416720
  0
VERTEX
  8
0
  6
CONTINUOUS
 10
6.251080
 20
4.389000
  0
VERTEX
  8
0
  6
CONTINUOUS
 10
6.262080
 20
4.376680
  0
VERTEX
  8
0
  6
CONTINUOUS
 10
6.286720
 20
4.356440
  0
VERTEX
  8
0
  6
CONTINUOUS
 10
6.314000
 20
4.341040
  0
VERTEX
  8
0
  6
CONTINUOUS
 10
6.342600
 20
4.330920
  0
VERTEX
  8
0
  6
CONTINUOUS
 10
6.372960
 20
4.325640
  0
VERTEX
  8
0
  6
CONTINUOUS
 10
6.403320
 20
4.325640
  0
VERTEX
  8
0
  6
CONTINUOUS
 10
6.433680
 20
4.330920
  0
VERTEX
  8
0
  6
CONTINUOUS
 10
6.463160
 20
4.341040
  0
VERTEX
  8
0
  6
CONTINUOUS
 10
6.491320
 20
4.356000
  0
VERTEX
  8
0
  6
CONTINUOUS
 10
6.517280
 20
4.376680
  0
VERTEX
  8
0
  6
CONTINUOUS
 10
6.540160
 20
4.401760
  0
VERTEX
  8
0
  6
CONTINUOUS
 10
6.559960
 20
4.432560
  0
VERTEX
  8
0
  6
CONTINUOUS
 10
6.575360
 20
4.468200
  0
VERTEX
  8
0
  6
CONTINUOUS
 10
6.581080
 20
4.488000
  0
VERTEX
  8
0
  6
CONTINUOUS
 10
7.434240
 20
4.488000
  0
VERTEX
  8
0
  6
CONTINUOUS
 10
7.434240
 20
4.162400
  0
VERTEX
  8
0
  6
CONTINUOUS
 10
7.957840
 20
4.162400
  0
VERTEX
  8
0
  6
CONTINUOUS
 10
7.957840
 20
3.447840
  0
VERTEX
  8
0
  6
CONTINUOUS
 10
1.450240
 20
3.447840
  0
VERTEX
  8
0
  6
CONTINUOUS
 10
1.450240
 20
4.162400
  0
VERTEX
  8
0
  6
CONTINUOUS
 10
1.971640
 20
4.162400
  0
VERTEX
  8
0
  6
CONTINUOUS
 10
1.971640
 20
4.488440
  0
VERTEX
  8
0
  6
CONTINUOUS
 10
2.825240
 20
4.488880
  0
VERTEX
  8
0
  6
CONTINUOUS
 10
2.838000
 20
4.450600
  0
VERTEX
  8
0
  6
CONTINUOUS
 10
2.855600
 20
4.417600
  0
VERTEX
  8
0
  6
CONTINUOUS
 10
2.876720
 20
4.389440
  0
VERTEX
  8
0
  6
CONTINUOUS
 10
2.901360
 20
4.366560
  0
VERTEX
  8
0
  6
CONTINUOUS
 10
2.914560
 20
4.356880
  0
VERTEX
  8
0
  6
CONTINUOUS
 10
2.942720
 20
4.341920
  0
VERTEX
  8
0
  6
CONTINUOUS
 10
2.972200
 20
4.331800
  0
VERTEX
  8
0
  6
CONTINUOUS
 10
2.987600
 20
4.328280
  0
VERTEX
  8
0
  6
CONTINUOUS
 10
3.017960
 20
4.326080
  0
VERTEX
  8
0
  6
CONTINUOUS
 10
3.033360
 20
4.326520
  0
VERTEX
  8
0
  6
CONTINUOUS
 10
3.063280
 20
4.331800
  0
VERTEX
  8
0
  6
CONTINUOUS
 10
3.092320
 20
4.341920
  0
VERTEX
  8
0
  6
CONTINUOUS
 10
3.119160
 20
4.357320
  0
VERTEX
  8
0
  6
CONTINUOUS
 10
3.131920
 20
4.366560
  0
VERTEX
  8
0
  6
CONTINUOUS
 10
3.154800
 20
4.389440
  0
VERTEX
  8
0
  6
CONTINUOUS
 10
3.174600
 20
4.417600
  0
VERTEX
  8
0
  6
CONTINUOUS
 10
3.189560
 20
4.450600
  0
VERTEX
  8
0
  6
CONTINUOUS
 10
3.195720
 20
4.468640
  0
VERTEX
  8
0
  6
CONTINUOUS
 10
3.200120
 20
4.488440
  0
VERTEX
  8
0
  6
CONTINUOUS
 10
3.575880
 20
4.488440
  0
VERTEX
  8
0
  6
CONTINUOUS
 10
3.583360
 20
4.462040
  0
VERTEX
  8
0
  6
CONTINUOUS
 10
3.592600
 20
4.437400
  0
VERTEX
  8
0
  6
CONTINUOUS
 10
3.615480
 20
4.393400
  0
VERTEX
  8
0
  6
CONTINUOUS
 10
3.643640
 20
4.356000
  0
VERTEX
  8
0
  6
CONTINUOUS
 10
3.675760
 20
4.325200
  0
VERTEX
  8
0
  6
CONTINUOUS
 10
3.693360
 20
4.312440
  0
VERTEX
  8
0
  6
CONTINUOUS
 10
3.730760
 20
4.292200
  0
VERTEX
  8
0
  6
CONTINUOUS
 10
3.769920
 20
4.278560
  0
VERTEX
  8
0
  6
CONTINUOUS
 10
3.789720
 20
4.274160
  0
VERTEX
  8
0
  6
CONTINUOUS
 10
3.809960
 20
4.271520
  0
VERTEX
  8
0
  6
CONTINUOUS
 10
3.830640
 20
4.270640
  0
VERTEX
  8
0
  6
CONTINUOUS
 10
3.850880
 20
4.271520
  0
VERTEX
  8
0
  6
CONTINUOUS
 10
3.870680
 20
4.274160
  0
VERTEX
  8
0
  6
CONTINUOUS
 10
3.910280
 20
4.284280
  0
VERTEX
  8
0
  6
CONTINUOUS
 10
3.947240
 20
4.301440
  0
VERTEX
  8
0
  6
CONTINUOUS
 10
3.965280
 20
4.312440
  0
VERTEX
  8
0
  6
CONTINUOUS
 10
3.982000
 20
4.325200
  0
VERTEX
  8
0
  6
CONTINUOUS
 10
4.012800
 20
4.356000
  0
VERTEX
  8
0
  6
CONTINUOUS
 10
4.026440
 20
4.373600
  0
VERTEX
  8
0
  6
CONTINUOUS
 10
4.049760
 20
4.414520
  0
VERTEX
  8
0
  6
CONTINUOUS
 10
4.066920
 20
4.462480
  0
VERTEX
  8
0
  6
CONTINUOUS
 10
4.073080
 20
4.488880
  0
VERTEX
  8
0
  6
CONTINUOUS
 10
4.448400
 20
4.488880
  0
VERTEX
  8
0
  6
CONTINUOUS
 10
4.446640
 20
4.488880
  0
SEQEND
  8
0
  0
TEXT
  8
0
 10
4.363040
 20
3.805120
 40
0.138237
  1
BA  1012
 41
1.000000
  7
SN0
 71
     0
 72
     5
 11
5.045621
 21
3.805120
  0
TEXT
  8
0
 10
4.133360
 20
3.613280
 40
0.138237
  1
1-1/16" x 6-1/2"
 41
1.000000
  7
SN0
 71
     0
 72
     5
 11
5.274316
 21
3.613280
  0
ENDSEC
  0
EOF
