  0
SECTION
  2
HEADER
  9
$ACADVER
  1
AC1006
  9
$EXTMIN
 10
2.915440
 20
0.489280
  9
$EXTMAX
 10
7.716720
 20
3.584240
  9
$LTSCALE
 40
0.044000
  9
$PDMODE
 70
    35
  9
$PDSIZE
 40
0.035200
  0
ENDSEC
  0
SECTION
  2
TABLES
  0
TABLE
  2
LTYPE
 70
     9
  0
LTYPE
  2
CONTINUOUS
 70
    64
  3
Solid line
 72
    65
 73
     0
 40
0.000000
  0
LTYPE
  2
DASHED
 70
    64
  3
__ __ __ __ __ __ __ __ __ __ __ __ __ __ __
 72
    65
 73
     2
 40
0.000330
 49
0.000220
 49
-0.000110
  0
LTYPE
  2
HIDDEN
 70
    64
  3
 _ _ _ _ _ _ _ _ _ _ _ _ _ _ _ _ _ _ _ _ _ _
 72
    65
 73
     2
 40
0.000165
 49
0.000110
 49
-0.000055
  0
LTYPE
  2
CENTER
 70
    64
  3
____ _ ____ _ ____ _ ____ _ ____ _ ____ _ ____
 72
    65
 73
     4
 40
0.000880
 49
0.000550
 49
-0.000110
 49
0.000110
 49
-0.000110
  0
LTYPE
  2
PHANTOM
 70
    64
  3
_____ _ _ _____ _ _ _____ _ _ _____ _ _ ____
 72
    65
 73
     6
 40
0.001100
 49
0.000550
 49
-0.000110
 49
0.000110
 49
-0.000110
 49
0.000110
 49
-0.000110
  0
LTYPE
  2
DOT
 70
    64
  3
...............................................
 72
    65
 73
     2
 40
0.000110
 49
0.000000
 49
-0.000110
  0
LTYPE
  2
DASHDOT
 70
    64
  3
__ . __ . __ . __ . __ . __ . __ . __ . __ . __
 72
    65
 73
     4
 40
0.000440
 49
0.000220
 49
-0.000110
 49
0.000000
 49
-0.000110
  0
LTYPE
  2
BORDER
 70
    64
  3
__ __ . __ __ . __ __ . __ __ . __ __ . __ __
 72
    65
 73
     6
 40
0.000770
 49
0.000220
 49
-0.000110
 49
0.000220
 49
-0.000110
 49
0.000000
 49
-0.000110
  0
LTYPE
  2
DIVIDE
 70
    64
  3
__ . . __ . . __ . . __ . . __ . . __ . . __
 72
    65
 73
     6
 40
0.000550
 49
0.000220
 49
-0.000110
 49
0.000000
 49
-0.000110
 49
0.000000
 49
-0.000110
  0
LTYPE
  2
DOTDOT
 70
    64
  3
 . .  . .  . .  . .  . .  . . 
 72
    65
 73
     5
 40
0.000242
 49
-0.000110
 49
0.000000
 49
-0.000110
 49
0.000000
 49
-0.000110
  0
ENDTAB
  0
TABLE
  2
STYLE
 70
     2
  0
STYLE
 70
     0
  2
SN0
 40
0.000000
 41
0.000440
 50
0.000000
 71
     0
 42
0.000000
  3
ROMAND
  0
STYLE
 70
    68
  2
SV0
 40
0.000000
 41
0.000440
 50
0.000000
 71
     0
 42
0.000000
  3
ROMAND
  0
ENDTAB
  0
TABLE
  2
LAYER
 70
     3
  0
LAYER
  2
FOREGROUND
 70
    64
 62
     7
  6
CONTINUOUS
  0
LAYER
  2
BACKGROUND
 70
    65
 62
    -7
  6
CONTINUOUS
  0
LAYER
  2
0
 70
    64
 62
     7
  6
CONTINUOUS
  0
ENDTAB
  0
ENDSEC
  0
SECTION
  2
ENTITIES
  0
POLYLINE
  8
FOREGROUND
  6
CONTINUOUS
 66
     1
 40
0.000000
 41
0.000000
  0
VERTEX
  8
FOREGROUND
  6
CONTINUOUS
 10
0.000000
 20
4.073520
  0
VERTEX
  8
FOREGROUND
  6
CONTINUOUS
 10
8.499920
 20
4.073520
  0
VERTEX
  8
FOREGROUND
  6
CONTINUOUS
 10
8.499920
 20
-6.926480
  0
VERTEX
  8
FOREGROUND
  6
CONTINUOUS
 10
0.000000
 20
-6.926480
  0
VERTEX
  8
FOREGROUND
  6
CONTINUOUS
 10
0.000000
 20
4.073520
  0
SEQEND
  8
0
  0
POLYLINE
  8
FOREGROUND
  6
CONTINUOUS
 66
     1
 40
0.000000
 41
0.000000
  0
VERTEX
  8
FOREGROUND
  6
CONTINUOUS
 10
0.000000
 20
4.073520
  0
VERTEX
  8
FOREGROUND
  6
CONTINUOUS
 10
8.499920
 20
4.073520
  0
VERTEX
  8
FOREGROUND
  6
CONTINUOUS
 10
8.499920
 20
-6.926480
  0
VERTEX
  8
FOREGROUND
  6
CONTINUOUS
 10
0.000000
 20
-6.926480
  0
VERTEX
  8
FOREGROUND
  6
CONTINUOUS
 10
0.000000
 20
4.073520
  0
SEQEND
  8
0
  0
SOLID
  8
0
 62
    15
 10
4.055480
 20
2.666400
 11
4.689080
 21
3.026320
 12
4.091560
 22
2.635160
 13
4.725160
 23
2.995080
  0
POLYLINE
  8
0
  6
CONTINUOUS
 66
     1
 40
0.000000
 41
0.000000
  0
VERTEX
  8
0
  6
CONTINUOUS
 10
4.055480
 20
2.666400
  0
VERTEX
  8
0
  6
CONTINUOUS
 10
4.689080
 20
3.026320
  0
VERTEX
  8
0
  6
CONTINUOUS
 10
4.725160
 20
2.995080
  0
VERTEX
  8
0
  6
CONTINUOUS
 10
4.091560
 20
2.635160
  0
VERTEX
  8
0
  6
CONTINUOUS
 10
4.055480
 20
2.666400
  0
SEQEND
  8
0
  0
SOLID
  8
0
 62
    15
 10
3.738240
 20
3.102000
 11
4.371840
 21
3.461480
 12
3.791480
 22
3.095840
 13
4.425080
 23
3.455760
  0
POLYLINE
  8
0
  6
CONTINUOUS
 66
     1
 40
0.000000
 41
0.000000
  0
VERTEX
  8
0
  6
CONTINUOUS
 10
3.738240
 20
3.102000
  0
VERTEX
  8
0
  6
CONTINUOUS
 10
4.371840
 20
3.461480
  0
VERTEX
  8
0
  6
CONTINUOUS
 10
4.425080
 20
3.455760
  0
VERTEX
  8
0
  6
CONTINUOUS
 10
3.791480
 20
3.095840
  0
VERTEX
  8
0
  6
CONTINUOUS
 10
3.738240
 20
3.102000
  0
SEQEND
  8
0
  0
SOLID
  8
0
 62
    15
 10
3.791480
 20
3.095840
 11
4.425080
 21
3.455760
 12
3.835480
 22
3.079560
 13
4.469520
 23
3.439480
  0
POLYLINE
  8
0
  6
CONTINUOUS
 66
     1
 40
0.000000
 41
0.000000
  0
VERTEX
  8
0
  6
CONTINUOUS
 10
3.791480
 20
3.095840
  0
VERTEX
  8
0
  6
CONTINUOUS
 10
4.425080
 20
3.455760
  0
VERTEX
  8
0
  6
CONTINUOUS
 10
4.469520
 20
3.439480
  0
VERTEX
  8
0
  6
CONTINUOUS
 10
3.835480
 20
3.079560
  0
VERTEX
  8
0
  6
CONTINUOUS
 10
3.791480
 20
3.095840
  0
SEQEND
  8
0
  0
SOLID
  8
0
 62
    15
 10
3.835480
 20
3.079560
 11
4.469520
 21
3.439480
 12
3.871560
 22
3.054040
 13
4.505600
 23
3.413960
  0
POLYLINE
  8
0
  6
CONTINUOUS
 66
     1
 40
0.000000
 41
0.000000
  0
VERTEX
  8
0
  6
CONTINUOUS
 10
3.835480
 20
3.079560
  0
VERTEX
  8
0
  6
CONTINUOUS
 10
4.469520
 20
3.439480
  0
VERTEX
  8
0
  6
CONTINUOUS
 10
4.505600
 20
3.413960
  0
VERTEX
  8
0
  6
CONTINUOUS
 10
3.871560
 20
3.054040
  0
VERTEX
  8
0
  6
CONTINUOUS
 10
3.835480
 20
3.079560
  0
SEQEND
  8
0
  0
SOLID
  8
0
 62
    15
 10
3.871560
 20
3.054040
 11
4.505600
 21
3.413960
 12
3.901040
 22
3.021040
 13
4.534640
 23
3.380520
  0
POLYLINE
  8
0
  6
CONTINUOUS
 66
     1
 40
0.000000
 41
0.000000
  0
VERTEX
  8
0
  6
CONTINUOUS
 10
3.871560
 20
3.054040
  0
VERTEX
  8
0
  6
CONTINUOUS
 10
4.505600
 20
3.413960
  0
VERTEX
  8
0
  6
CONTINUOUS
 10
4.534640
 20
3.380520
  0
VERTEX
  8
0
  6
CONTINUOUS
 10
3.901040
 20
3.021040
  0
VERTEX
  8
0
  6
CONTINUOUS
 10
3.871560
 20
3.054040
  0
SEQEND
  8
0
  0
SOLID
  8
0
 62
    15
 10
3.901040
 20
3.021040
 11
4.534640
 21
3.380520
 12
3.924360
 22
2.981440
 13
4.558400
 23
3.341360
  0
POLYLINE
  8
0
  6
CONTINUOUS
 66
     1
 40
0.000000
 41
0.000000
  0
VERTEX
  8
0
  6
CONTINUOUS
 10
3.901040
 20
3.021040
  0
VERTEX
  8
0
  6
CONTINUOUS
 10
4.534640
 20
3.380520
  0
VERTEX
  8
0
  6
CONTINUOUS
 10
4.558400
 20
3.341360
  0
VERTEX
  8
0
  6
CONTINUOUS
 10
3.924360
 20
2.981440
  0
VERTEX
  8
0
  6
CONTINUOUS
 10
3.901040
 20
3.021040
  0
SEQEND
  8
0
  0
SOLID
  8
0
 62
    15
 10
3.924360
 20
2.981440
 11
4.558400
 21
3.341360
 12
3.943280
 22
2.937440
 13
4.576880
 23
3.297360
  0
POLYLINE
  8
0
  6
CONTINUOUS
 66
     1
 40
0.000000
 41
0.000000
  0
VERTEX
  8
0
  6
CONTINUOUS
 10
3.924360
 20
2.981440
  0
VERTEX
  8
0
  6
CONTINUOUS
 10
4.558400
 20
3.341360
  0
VERTEX
  8
0
  6
CONTINUOUS
 10
4.576880
 20
3.297360
  0
VERTEX
  8
0
  6
CONTINUOUS
 10
3.943280
 20
2.937440
  0
VERTEX
  8
0
  6
CONTINUOUS
 10
3.924360
 20
2.981440
  0
SEQEND
  8
0
  0
SOLID
  8
0
 62
    15
 10
3.943280
 20
2.937440
 11
4.576880
 21
3.297360
 12
3.970560
 22
2.841520
 13
4.604160
 23
3.201000
  0
POLYLINE
  8
0
  6
CONTINUOUS
 66
     1
 40
0.000000
 41
0.000000
  0
VERTEX
  8
0
  6
CONTINUOUS
 10
3.943280
 20
2.937440
  0
VERTEX
  8
0
  6
CONTINUOUS
 10
4.576880
 20
3.297360
  0
VERTEX
  8
0
  6
CONTINUOUS
 10
4.604160
 20
3.201000
  0
VERTEX
  8
0
  6
CONTINUOUS
 10
3.970560
 20
2.841520
  0
VERTEX
  8
0
  6
CONTINUOUS
 10
3.943280
 20
2.937440
  0
SEQEND
  8
0
  0
SOLID
  8
0
 62
    15
 10
3.970560
 20
2.841520
 11
4.604160
 21
3.201000
 12
4.002240
 22
2.746480
 13
4.636280
 23
3.106400
  0
POLYLINE
  8
0
  6
CONTINUOUS
 66
     1
 40
0.000000
 41
0.000000
  0
VERTEX
  8
0
  6
CONTINUOUS
 10
3.970560
 20
2.841520
  0
VERTEX
  8
0
  6
CONTINUOUS
 10
4.604160
 20
3.201000
  0
VERTEX
  8
0
  6
CONTINUOUS
 10
4.636280
 20
3.106400
  0
VERTEX
  8
0
  6
CONTINUOUS
 10
4.002240
 20
2.746480
  0
VERTEX
  8
0
  6
CONTINUOUS
 10
3.970560
 20
2.841520
  0
SEQEND
  8
0
  0
SOLID
  8
0
 62
    15
 10
4.002240
 20
2.746480
 11
4.636280
 21
3.106400
 12
4.026000
 22
2.704240
 13
4.659600
 23
3.064160
  0
POLYLINE
  8
0
  6
CONTINUOUS
 66
     1
 40
0.000000
 41
0.000000
  0
VERTEX
  8
0
  6
CONTINUOUS
 10
4.002240
 20
2.746480
  0
VERTEX
  8
0
  6
CONTINUOUS
 10
4.636280
 20
3.106400
  0
VERTEX
  8
0
  6
CONTINUOUS
 10
4.659600
 20
3.064160
  0
VERTEX
  8
0
  6
CONTINUOUS
 10
4.026000
 20
2.704240
  0
VERTEX
  8
0
  6
CONTINUOUS
 10
4.002240
 20
2.746480
  0
SEQEND
  8
0
  0
SOLID
  8
0
 62
    15
 10
4.026000
 20
2.704240
 11
4.659600
 21
3.064160
 12
4.055480
 22
2.666400
 13
4.689080
 23
3.026320
  0
POLYLINE
  8
0
  6
CONTINUOUS
 66
     1
 40
0.000000
 41
0.000000
  0
VERTEX
  8
0
  6
CONTINUOUS
 10
4.026000
 20
2.704240
  0
VERTEX
  8
0
  6
CONTINUOUS
 10
4.659600
 20
3.064160
  0
VERTEX
  8
0
  6
CONTINUOUS
 10
4.689080
 20
3.026320
  0
VERTEX
  8
0
  6
CONTINUOUS
 10
4.055480
 20
2.666400
  0
VERTEX
  8
0
  6
CONTINUOUS
 10
4.026000
 20
2.704240
  0
SEQEND
  8
0
  0
SOLID
  8
0
 62
    15
 10
3.327720
 20
3.078680
 11
3.961760
 21
3.438600
 12
3.372160
 22
3.094960
 13
4.005760
 23
3.454880
  0
POLYLINE
  8
0
  6
CONTINUOUS
 66
     1
 40
0.000000
 41
0.000000
  0
VERTEX
  8
0
  6
CONTINUOUS
 10
3.327720
 20
3.078680
  0
VERTEX
  8
0
  6
CONTINUOUS
 10
3.961760
 20
3.438600
  0
VERTEX
  8
0
  6
CONTINUOUS
 10
4.005760
 20
3.454880
  0
VERTEX
  8
0
  6
CONTINUOUS
 10
3.372160
 20
3.094960
  0
VERTEX
  8
0
  6
CONTINUOUS
 10
3.327720
 20
3.078680
  0
SEQEND
  8
0
  0
SOLID
  8
0
 62
    15
 10
3.743080
 20
2.430120
 11
4.376680
 21
2.790040
 12
3.743080
 22
0.991320
 13
4.376680
 23
1.351240
  0
POLYLINE
  8
0
  6
CONTINUOUS
 66
     1
 40
0.000000
 41
0.000000
  0
VERTEX
  8
0
  6
CONTINUOUS
 10
3.743080
 20
2.430120
  0
VERTEX
  8
0
  6
CONTINUOUS
 10
4.376680
 20
2.790040
  0
VERTEX
  8
0
  6
CONTINUOUS
 10
4.376680
 20
1.351240
  0
VERTEX
  8
0
  6
CONTINUOUS
 10
3.743080
 20
0.991320
  0
VERTEX
  8
0
  6
CONTINUOUS
 10
3.743080
 20
2.430120
  0
SEQEND
  8
0
  0
SOLID
  8
0
 62
    15
 10
4.135120
 20
2.610960
 11
4.769160
 21
2.970880
 12
4.187040
 22
2.595560
 13
4.820640
 23
2.955480
  0
POLYLINE
  8
0
  6
CONTINUOUS
 66
     1
 40
0.000000
 41
0.000000
  0
VERTEX
  8
0
  6
CONTINUOUS
 10
4.135120
 20
2.610960
  0
VERTEX
  8
0
  6
CONTINUOUS
 10
4.769160
 20
2.970880
  0
VERTEX
  8
0
  6
CONTINUOUS
 10
4.820640
 20
2.955480
  0
VERTEX
  8
0
  6
CONTINUOUS
 10
4.187040
 20
2.595560
  0
VERTEX
  8
0
  6
CONTINUOUS
 10
4.135120
 20
2.610960
  0
SEQEND
  8
0
  0
SOLID
  8
0
 62
    15
 10
4.187040
 20
2.595560
 11
4.820640
 21
2.955480
 12
4.247320
 22
2.590280
 13
4.881360
 23
2.950200
  0
POLYLINE
  8
0
  6
CONTINUOUS
 66
     1
 40
0.000000
 41
0.000000
  0
VERTEX
  8
0
  6
CONTINUOUS
 10
4.187040
 20
2.595560
  0
VERTEX
  8
0
  6
CONTINUOUS
 10
4.820640
 20
2.955480
  0
VERTEX
  8
0
  6
CONTINUOUS
 10
4.881360
 20
2.950200
  0
VERTEX
  8
0
  6
CONTINUOUS
 10
4.247320
 20
2.590280
  0
VERTEX
  8
0
  6
CONTINUOUS
 10
4.187040
 20
2.595560
  0
SEQEND
  8
0
  0
SOLID
  8
0
 62
    15
 10
4.247320
 20
2.590280
 11
4.881360
 21
2.950200
 12
4.247320
 22
2.447280
 13
4.881360
 23
2.807200
  0
POLYLINE
  8
0
  6
CONTINUOUS
 66
     1
 40
0.000000
 41
0.000000
  0
VERTEX
  8
0
  6
CONTINUOUS
 10
4.247320
 20
2.590280
  0
VERTEX
  8
0
  6
CONTINUOUS
 10
4.881360
 20
2.950200
  0
VERTEX
  8
0
  6
CONTINUOUS
 10
4.881360
 20
2.807200
  0
VERTEX
  8
0
  6
CONTINUOUS
 10
4.247320
 20
2.447280
  0
VERTEX
  8
0
  6
CONTINUOUS
 10
4.247320
 20
2.590280
  0
SEQEND
  8
0
  0
SOLID
  8
0
 62
    15
 10
4.091560
 20
2.635160
 11
4.725160
 21
2.995080
 12
4.135120
 22
2.610960
 13
4.769160
 23
2.970880
  0
POLYLINE
  8
0
  6
CONTINUOUS
 66
     1
 40
0.000000
 41
0.000000
  0
VERTEX
  8
0
  6
CONTINUOUS
 10
4.091560
 20
2.635160
  0
VERTEX
  8
0
  6
CONTINUOUS
 10
4.725160
 20
2.995080
  0
VERTEX
  8
0
  6
CONTINUOUS
 10
4.769160
 20
2.970880
  0
VERTEX
  8
0
  6
CONTINUOUS
 10
4.135120
 20
2.610960
  0
VERTEX
  8
0
  6
CONTINUOUS
 10
4.091560
 20
2.635160
  0
SEQEND
  8
0
  0
SOLID
  8
0
 62
    15
 10
2.915880
 20
2.589400
 11
3.549920
 21
2.949320
 12
2.976600
 22
2.594680
 13
3.610200
 23
2.954600
  0
POLYLINE
  8
0
  6
CONTINUOUS
 66
     1
 40
0.000000
 41
0.000000
  0
VERTEX
  8
0
  6
CONTINUOUS
 10
2.915880
 20
2.589400
  0
VERTEX
  8
0
  6
CONTINUOUS
 10
3.549920
 20
2.949320
  0
VERTEX
  8
0
  6
CONTINUOUS
 10
3.610200
 20
2.954600
  0
VERTEX
  8
0
  6
CONTINUOUS
 10
2.976600
 20
2.594680
  0
VERTEX
  8
0
  6
CONTINUOUS
 10
2.915880
 20
2.589400
  0
SEQEND
  8
0
  0
SOLID
  8
0
 62
    15
 10
2.976600
 20
2.594680
 11
3.610200
 21
2.954600
 12
3.028520
 22
2.610080
 13
3.662120
 23
2.970000
  0
POLYLINE
  8
0
  6
CONTINUOUS
 66
     1
 40
0.000000
 41
0.000000
  0
VERTEX
  8
0
  6
CONTINUOUS
 10
2.976600
 20
2.594680
  0
VERTEX
  8
0
  6
CONTINUOUS
 10
3.610200
 20
2.954600
  0
VERTEX
  8
0
  6
CONTINUOUS
 10
3.662120
 20
2.970000
  0
VERTEX
  8
0
  6
CONTINUOUS
 10
3.028520
 20
2.610080
  0
VERTEX
  8
0
  6
CONTINUOUS
 10
2.976600
 20
2.594680
  0
SEQEND
  8
0
  0
SOLID
  8
0
 62
    15
 10
3.028520
 20
2.610080
 11
3.662120
 21
2.970000
 12
3.072080
 22
2.634280
 13
3.705680
 23
2.994200
  0
POLYLINE
  8
0
  6
CONTINUOUS
 66
     1
 40
0.000000
 41
0.000000
  0
VERTEX
  8
0
  6
CONTINUOUS
 10
3.028520
 20
2.610080
  0
VERTEX
  8
0
  6
CONTINUOUS
 10
3.662120
 20
2.970000
  0
VERTEX
  8
0
  6
CONTINUOUS
 10
3.705680
 20
2.994200
  0
VERTEX
  8
0
  6
CONTINUOUS
 10
3.072080
 20
2.634280
  0
VERTEX
  8
0
  6
CONTINUOUS
 10
3.028520
 20
2.610080
  0
SEQEND
  8
0
  0
SOLID
  8
0
 62
    15
 10
3.372160
 20
3.094960
 11
4.005760
 21
3.454880
 12
3.425400
 22
3.101120
 13
4.059000
 23
3.460600
  0
POLYLINE
  8
0
  6
CONTINUOUS
 66
     1
 40
0.000000
 41
0.000000
  0
VERTEX
  8
0
  6
CONTINUOUS
 10
3.372160
 20
3.094960
  0
VERTEX
  8
0
  6
CONTINUOUS
 10
4.005760
 20
3.454880
  0
VERTEX
  8
0
  6
CONTINUOUS
 10
4.059000
 20
3.460600
  0
VERTEX
  8
0
  6
CONTINUOUS
 10
3.425400
 20
3.101120
  0
VERTEX
  8
0
  6
CONTINUOUS
 10
3.372160
 20
3.094960
  0
SEQEND
  8
0
  0
SOLID
  8
0
 62
    15
 10
3.425400
 20
3.223000
 11
4.059000
 21
3.582920
 12
3.737360
 22
3.223000
 13
4.370960
 23
3.582920
  0
POLYLINE
  8
0
  6
CONTINUOUS
 66
     1
 40
0.000000
 41
0.000000
  0
VERTEX
  8
0
  6
CONTINUOUS
 10
3.425400
 20
3.223000
  0
VERTEX
  8
0
  6
CONTINUOUS
 10
4.059000
 20
3.582920
  0
VERTEX
  8
0
  6
CONTINUOUS
 10
4.370960
 20
3.582920
  0
VERTEX
  8
0
  6
CONTINUOUS
 10
3.737360
 20
3.223000
  0
VERTEX
  8
0
  6
CONTINUOUS
 10
3.425400
 20
3.223000
  0
SEQEND
  8
0
  0
SOLID
  8
0
 62
    15
 10
3.738240
 20
3.223880
 11
4.371840
 21
3.583800
 12
3.738240
 22
3.102000
 13
4.371840
 23
3.461480
  0
POLYLINE
  8
0
  6
CONTINUOUS
 66
     1
 40
0.000000
 41
0.000000
  0
VERTEX
  8
0
  6
CONTINUOUS
 10
3.738240
 20
3.223880
  0
VERTEX
  8
0
  6
CONTINUOUS
 10
4.371840
 20
3.583800
  0
VERTEX
  8
0
  6
CONTINUOUS
 10
4.371840
 20
3.461480
  0
VERTEX
  8
0
  6
CONTINUOUS
 10
3.738240
 20
3.102000
  0
VERTEX
  8
0
  6
CONTINUOUS
 10
3.738240
 20
3.223880
  0
SEQEND
  8
0
  0
POLYLINE
  8
0
  6
CONTINUOUS
 66
     1
 40
0.000000
 41
0.000000
  0
VERTEX
  8
0
  6
CONTINUOUS
 10
3.738240
 20
3.223880
  0
VERTEX
  8
0
  6
CONTINUOUS
 10
3.738240
 20
3.102000
  0
VERTEX
  8
0
  6
CONTINUOUS
 10
3.791480
 20
3.095840
  0
VERTEX
  8
0
  6
CONTINUOUS
 10
3.835480
 20
3.079560
  0
VERTEX
  8
0
  6
CONTINUOUS
 10
3.871560
 20
3.054040
  0
VERTEX
  8
0
  6
CONTINUOUS
 10
3.901040
 20
3.021040
  0
VERTEX
  8
0
  6
CONTINUOUS
 10
3.924360
 20
2.981440
  0
VERTEX
  8
0
  6
CONTINUOUS
 10
3.943280
 20
2.937440
  0
VERTEX
  8
0
  6
CONTINUOUS
 10
3.970560
 20
2.841520
  0
VERTEX
  8
0
  6
CONTINUOUS
 10
4.002240
 20
2.746480
  0
VERTEX
  8
0
  6
CONTINUOUS
 10
4.026000
 20
2.704240
  0
VERTEX
  8
0
  6
CONTINUOUS
 10
4.055480
 20
2.666400
  0
VERTEX
  8
0
  6
CONTINUOUS
 10
4.091560
 20
2.635160
  0
VERTEX
  8
0
  6
CONTINUOUS
 10
4.135120
 20
2.610960
  0
VERTEX
  8
0
  6
CONTINUOUS
 10
4.187040
 20
2.595560
  0
VERTEX
  8
0
  6
CONTINUOUS
 10
4.247320
 20
2.590280
  0
VERTEX
  8
0
  6
CONTINUOUS
 10
4.247320
 20
2.447280
  0
VERTEX
  8
0
  6
CONTINUOUS
 10
3.743080
 20
2.430120
  0
VERTEX
  8
0
  6
CONTINUOUS
 10
3.743080
 20
0.991320
  0
VERTEX
  8
0
  6
CONTINUOUS
 10
3.420560
 20
0.991320
  0
VERTEX
  8
0
  6
CONTINUOUS
 10
3.420560
 20
2.429240
  0
VERTEX
  8
0
  6
CONTINUOUS
 10
2.915880
 20
2.446400
  0
VERTEX
  8
0
  6
CONTINUOUS
 10
2.915880
 20
2.589400
  0
VERTEX
  8
0
  6
CONTINUOUS
 10
2.976600
 20
2.594680
  0
VERTEX
  8
0
  6
CONTINUOUS
 10
3.028520
 20
2.610080
  0
VERTEX
  8
0
  6
CONTINUOUS
 10
3.072080
 20
2.634280
  0
VERTEX
  8
0
  6
CONTINUOUS
 10
3.108160
 20
2.665520
  0
VERTEX
  8
0
  6
CONTINUOUS
 10
3.137640
 20
2.703360
  0
VERTEX
  8
0
  6
CONTINUOUS
 10
3.161400
 20
2.745600
  0
VERTEX
  8
0
  6
CONTINUOUS
 10
3.193080
 20
2.840640
  0
VERTEX
  8
0
  6
CONTINUOUS
 10
3.220360
 20
2.936560
  0
VERTEX
  8
0
  6
CONTINUOUS
 10
3.238840
 20
2.980560
  0
VERTEX
  8
0
  6
CONTINUOUS
 10
3.262600
 20
3.020160
  0
VERTEX
  8
0
  6
CONTINUOUS
 10
3.291640
 20
3.053160
  0
VERTEX
  8
0
  6
CONTINUOUS
 10
3.327720
 20
3.078680
  0
VERTEX
  8
0
  6
CONTINUOUS
 10
3.372160
 20
3.094960
  0
VERTEX
  8
0
  6
CONTINUOUS
 10
3.425400
 20
3.101120
  0
VERTEX
  8
0
  6
CONTINUOUS
 10
3.425400
 20
3.223000
  0
VERTEX
  8
0
  6
CONTINUOUS
 10
3.737360
 20
3.223000
  0
VERTEX
  8
0
  6
CONTINUOUS
 10
3.738240
 20
3.223880
  0
SEQEND
  8
0
  0
TEXT
  8
0
 10
3.557400
 20
0.724680
 40
0.137982
  1
BA  1011
 41
1.000000
  7
SN0
 71
     0
 72
     5
 11
4.239902
 21
0.724680
  0
TEXT
  8
0
 10
3.373920
 20
0.533280
 40
0.137982
  1
1-3/8" x 2-1/4"
 41
1.000000
  7
SN0
 71
     0
 72
     5
 11
4.422760
 21
0.533280
  0
POLYLINE
  8
0
  6
CONTINUOUS
 66
     1
 40
0.014080
 41
0.014080
  0
VERTEX
  8
0
  6
CONTINUOUS
 10
5.477120
 20
2.749560
  0
VERTEX
  8
0
  6
CONTINUOUS
 10
5.599000
 20
2.749560
  0
VERTEX
  8
0
  6
CONTINUOUS
 10
5.600320
 20
2.777280
  0
VERTEX
  8
0
  6
CONTINUOUS
 10
5.607800
 20
2.814680
  0
VERTEX
  8
0
  6
CONTINUOUS
 10
5.621440
 20
2.847240
  0
VERTEX
  8
0
  6
CONTINUOUS
 10
5.639480
 20
2.874960
  0
VERTEX
  8
0
  6
CONTINUOUS
 10
5.662800
 20
2.898720
  0
VERTEX
  8
0
  6
CONTINUOUS
 10
5.679960
 20
2.912800
  0
VERTEX
  8
0
  6
CONTINUOUS
 10
5.698880
 20
2.925120
  0
VERTEX
  8
0
  6
CONTINUOUS
 10
5.741120
 20
2.945800
  0
VERTEX
  8
0
  6
CONTINUOUS
 10
5.786880
 20
2.962520
  0
VERTEX
  8
0
  6
CONTINUOUS
 10
5.810640
 20
2.970000
  0
VERTEX
  8
0
  6
CONTINUOUS
 10
5.884120
 20
2.988480
  0
VERTEX
  8
0
  6
CONTINUOUS
 10
5.931640
 20
3.004320
  0
VERTEX
  8
0
  6
CONTINUOUS
 10
5.976080
 20
3.025000
  0
VERTEX
  8
0
  6
CONTINUOUS
 10
5.996760
 20
3.037320
  0
VERTEX
  8
0
  6
CONTINUOUS
 10
6.034600
 20
3.066800
  0
VERTEX
  8
0
  6
CONTINUOUS
 10
6.050880
 20
3.083960
  0
VERTEX
  8
0
  6
CONTINUOUS
 10
6.072880
 20
3.113440
  0
VERTEX
  8
0
  6
CONTINUOUS
 10
6.090040
 20
3.146880
  0
VERTEX
  8
0
  6
CONTINUOUS
 10
6.098840
 20
3.171520
  0
VERTEX
  8
0
  6
CONTINUOUS
 10
6.105440
 20
3.198360
  0
VERTEX
  8
0
  6
CONTINUOUS
 10
6.109400
 20
3.227840
  0
VERTEX
  8
0
  6
CONTINUOUS
 10
6.110720
 20
3.259080
  0
VERTEX
  8
0
  6
CONTINUOUS
 10
6.253720
 20
3.259080
  0
VERTEX
  8
0
  6
CONTINUOUS
 10
6.270880
 20
2.754400
  0
VERTEX
  8
0
  6
CONTINUOUS
 10
7.709680
 20
2.754400
  0
VERTEX
  8
0
  6
CONTINUOUS
 10
7.709680
 20
2.431880
  0
VERTEX
  8
0
  6
CONTINUOUS
 10
7.709680
 20
2.432320
  0
VERTEX
  8
0
  6
CONTINUOUS
 10
6.271760
 20
2.432320
  0
VERTEX
  8
0
  6
CONTINUOUS
 10
6.254600
 20
1.927640
  0
VERTEX
  8
0
  6
CONTINUOUS
 10
6.111600
 20
1.927640
  0
VERTEX
  8
0
  6
CONTINUOUS
 10
6.110280
 20
1.958880
  0
VERTEX
  8
0
  6
CONTINUOUS
 10
6.106320
 20
1.988360
  0
VERTEX
  8
0
  6
CONTINUOUS
 10
6.095760
 20
2.027960
  0
VERTEX
  8
0
  6
CONTINUOUS
 10
6.079920
 20
2.062720
  0
VERTEX
  8
0
  6
CONTINUOUS
 10
6.066720
 20
2.083400
  0
VERTEX
  8
0
  6
CONTINUOUS
 10
6.051760
 20
2.102760
  0
VERTEX
  8
0
  6
CONTINUOUS
 10
6.035480
 20
2.119920
  0
VERTEX
  8
0
  6
CONTINUOUS
 10
6.017440
 20
2.135320
  0
VERTEX
  8
0
  6
CONTINUOUS
 10
5.997640
 20
2.149400
  0
VERTEX
  8
0
  6
CONTINUOUS
 10
5.955400
 20
2.172720
  0
VERTEX
  8
0
  6
CONTINUOUS
 10
5.909200
 20
2.190760
  0
VERTEX
  8
0
  6
CONTINUOUS
 10
5.860800
 20
2.204400
  0
VERTEX
  8
0
  6
CONTINUOUS
 10
5.811960
 20
2.216720
  0
VERTEX
  8
0
  6
CONTINUOUS
 10
5.764440
 20
2.232120
  0
VERTEX
  8
0
  6
CONTINUOUS
 10
5.720440
 20
2.250600
  0
VERTEX
  8
0
  6
CONTINUOUS
 10
5.700200
 20
2.261600
  0
VERTEX
  8
0
  6
CONTINUOUS
 10
5.681280
 20
2.273920
  0
VERTEX
  8
0
  6
CONTINUOUS
 10
5.663680
 20
2.288000
  0
VERTEX
  8
0
  6
CONTINUOUS
 10
5.640800
 20
2.311760
  0
VERTEX
  8
0
  6
CONTINUOUS
 10
5.622320
 20
2.339480
  0
VERTEX
  8
0
  6
CONTINUOUS
 10
5.609120
 20
2.371600
  0
VERTEX
  8
0
  6
CONTINUOUS
 10
5.603400
 20
2.395800
  0
VERTEX
  8
0
  6
CONTINUOUS
 10
5.600760
 20
2.422640
  0
VERTEX
  8
0
  6
CONTINUOUS
 10
5.600320
 20
2.436720
  0
VERTEX
  8
0
  6
CONTINUOUS
 10
5.478000
 20
2.436720
  0
VERTEX
  8
0
  6
CONTINUOUS
 10
5.478000
 20
2.748680
  0
VERTEX
  8
0
  6
CONTINUOUS
 10
5.477120
 20
2.749560
  0
SEQEND
  8
0
  0
TEXT
  8
0
 10
6.698560
 20
2.172720
 40
0.137982
  1
BA  1011
 41
1.000000
  7
SN0
 71
     0
 72
     5
 11
7.381062
 21
2.172720
  0
TEXT
  8
0
 10
6.515080
 20
1.980880
 40
0.137982
  1
1-3/8" x 2-1/4"
 41
1.000000
  7
SN0
 71
     0
 72
     5
 11
7.563920
 21
1.980880
  0
ENDSEC
  0
EOF
