  0
SECTION
  2
HEADER
  9
$ACADVER
  1
AC1006
  9
$EXTMIN
 10
3.506800
 20
0.539440
  9
$EXTMAX
 10
7.934080
 20
2.487320
  9
$LTSCALE
 40
0.044000
  9
$PDMODE
 70
    35
  9
$PDSIZE
 40
0.035200
  0
ENDSEC
  0
SECTION
  2
TABLES
  0
TABLE
  2
LTYPE
 70
     9
  0
LTYPE
  2
CONTINUOUS
 70
    64
  3
Solid line
 72
    65
 73
     0
 40
0.000000
  0
LTYPE
  2
DASHED
 70
    64
  3
__ __ __ __ __ __ __ __ __ __ __ __ __ __ __
 72
    65
 73
     2
 40
0.000330
 49
0.000220
 49
-0.000110
  0
LTYPE
  2
HIDDEN
 70
    64
  3
 _ _ _ _ _ _ _ _ _ _ _ _ _ _ _ _ _ _ _ _ _ _
 72
    65
 73
     2
 40
0.000165
 49
0.000110
 49
-0.000055
  0
LTYPE
  2
CENTER
 70
    64
  3
____ _ ____ _ ____ _ ____ _ ____ _ ____ _ ____
 72
    65
 73
     4
 40
0.000880
 49
0.000550
 49
-0.000110
 49
0.000110
 49
-0.000110
  0
LTYPE
  2
PHANTOM
 70
    64
  3
_____ _ _ _____ _ _ _____ _ _ _____ _ _ ____
 72
    65
 73
     6
 40
0.001100
 49
0.000550
 49
-0.000110
 49
0.000110
 49
-0.000110
 49
0.000110
 49
-0.000110
  0
LTYPE
  2
DOT
 70
    64
  3
...............................................
 72
    65
 73
     2
 40
0.000110
 49
0.000000
 49
-0.000110
  0
LTYPE
  2
DASHDOT
 70
    64
  3
__ . __ . __ . __ . __ . __ . __ . __ . __ . __
 72
    65
 73
     4
 40
0.000440
 49
0.000220
 49
-0.000110
 49
0.000000
 49
-0.000110
  0
LTYPE
  2
BORDER
 70
    64
  3
__ __ . __ __ . __ __ . __ __ . __ __ . __ __
 72
    65
 73
     6
 40
0.000770
 49
0.000220
 49
-0.000110
 49
0.000220
 49
-0.000110
 49
0.000000
 49
-0.000110
  0
LTYPE
  2
DIVIDE
 70
    64
  3
__ . . __ . . __ . . __ . . __ . . __ . . __
 72
    65
 73
     6
 40
0.000550
 49
0.000220
 49
-0.000110
 49
0.000000
 49
-0.000110
 49
0.000000
 49
-0.000110
  0
LTYPE
  2
DOTDOT
 70
    64
  3
 . .  . .  . .  . .  . .  . . 
 72
    65
 73
     5
 40
0.000242
 49
-0.000110
 49
0.000000
 49
-0.000110
 49
0.000000
 49
-0.000110
  0
ENDTAB
  0
TABLE
  2
STYLE
 70
     2
  0
STYLE
 70
     0
  2
SN0
 40
0.000000
 41
0.000440
 50
0.000000
 71
     0
 42
0.000000
  3
ROMAND
  0
STYLE
 70
    68
  2
SV0
 40
0.000000
 41
0.000440
 50
0.000000
 71
     0
 42
0.000000
  3
ROMAND
  0
ENDTAB
  0
TABLE
  2
LAYER
 70
     3
  0
LAYER
  2
FOREGROUND
 70
    64
 62
     7
  6
CONTINUOUS
  0
LAYER
  2
BACKGROUND
 70
    65
 62
    -7
  6
CONTINUOUS
  0
LAYER
  2
0
 70
    64
 62
     7
  6
CONTINUOUS
  0
ENDTAB
  0
ENDSEC
  0
SECTION
  2
ENTITIES
  0
POLYLINE
  8
FOREGROUND
  6
CONTINUOUS
 66
     1
 40
0.000000
 41
0.000000
  0
VERTEX
  8
FOREGROUND
  6
CONTINUOUS
 10
0.000000
 20
3.026760
  0
VERTEX
  8
FOREGROUND
  6
CONTINUOUS
 10
8.499920
 20
3.026760
  0
VERTEX
  8
FOREGROUND
  6
CONTINUOUS
 10
8.499920
 20
-7.973240
  0
VERTEX
  8
FOREGROUND
  6
CONTINUOUS
 10
0.000000
 20
-7.973240
  0
VERTEX
  8
FOREGROUND
  6
CONTINUOUS
 10
0.000000
 20
3.026760
  0
SEQEND
  8
0
  0
POLYLINE
  8
FOREGROUND
  6
CONTINUOUS
 66
     1
 40
0.000000
 41
0.000000
  0
VERTEX
  8
FOREGROUND
  6
CONTINUOUS
 10
0.000000
 20
3.026760
  0
VERTEX
  8
FOREGROUND
  6
CONTINUOUS
 10
8.499920
 20
3.026760
  0
VERTEX
  8
FOREGROUND
  6
CONTINUOUS
 10
8.499920
 20
-7.973240
  0
VERTEX
  8
FOREGROUND
  6
CONTINUOUS
 10
0.000000
 20
-7.973240
  0
VERTEX
  8
FOREGROUND
  6
CONTINUOUS
 10
0.000000
 20
3.026760
  0
SEQEND
  8
0
  0
SOLID
  8
0
 62
    15
 10
4.342800
 20
1.590160
 11
4.983880
 21
1.222760
 12
4.237200
 22
1.573440
 13
4.878720
 23
1.206040
  0
POLYLINE
  8
0
  6
CONTINUOUS
 66
     1
 40
0.000000
 41
0.000000
  0
VERTEX
  8
0
  6
CONTINUOUS
 10
4.342800
 20
1.590160
  0
VERTEX
  8
0
  6
CONTINUOUS
 10
4.983880
 20
1.222760
  0
VERTEX
  8
0
  6
CONTINUOUS
 10
4.878720
 20
1.206040
  0
VERTEX
  8
0
  6
CONTINUOUS
 10
4.237200
 20
1.573440
  0
VERTEX
  8
0
  6
CONTINUOUS
 10
4.342800
 20
1.590160
  0
SEQEND
  8
0
  0
SOLID
  8
0
 62
    15
 10
4.771800
 20
2.206600
 11
5.412880
 21
1.839640
 12
4.728240
 22
2.201320
 13
5.369320
 23
1.834360
  0
POLYLINE
  8
0
  6
CONTINUOUS
 66
     1
 40
0.000000
 41
0.000000
  0
VERTEX
  8
0
  6
CONTINUOUS
 10
4.771800
 20
2.206600
  0
VERTEX
  8
0
  6
CONTINUOUS
 10
5.412880
 20
1.839640
  0
VERTEX
  8
0
  6
CONTINUOUS
 10
5.369320
 20
1.834360
  0
VERTEX
  8
0
  6
CONTINUOUS
 10
4.728240
 20
2.201320
  0
VERTEX
  8
0
  6
CONTINUOUS
 10
4.771800
 20
2.206600
  0
SEQEND
  8
0
  0
SOLID
  8
0
 62
    15
 10
4.728240
 20
2.201320
 11
5.369320
 21
1.834360
 12
4.686440
 22
2.188560
 13
5.327960
 23
1.821600
  0
POLYLINE
  8
0
  6
CONTINUOUS
 66
     1
 40
0.000000
 41
0.000000
  0
VERTEX
  8
0
  6
CONTINUOUS
 10
4.728240
 20
2.201320
  0
VERTEX
  8
0
  6
CONTINUOUS
 10
5.369320
 20
1.834360
  0
VERTEX
  8
0
  6
CONTINUOUS
 10
5.327960
 20
1.821600
  0
VERTEX
  8
0
  6
CONTINUOUS
 10
4.686440
 20
2.188560
  0
VERTEX
  8
0
  6
CONTINUOUS
 10
4.728240
 20
2.201320
  0
SEQEND
  8
0
  0
SOLID
  8
0
 62
    15
 10
4.686440
 20
2.188560
 11
5.327960
 21
1.821600
 12
4.648600
 22
2.167440
 13
5.289680
 23
1.800040
  0
POLYLINE
  8
0
  6
CONTINUOUS
 66
     1
 40
0.000000
 41
0.000000
  0
VERTEX
  8
0
  6
CONTINUOUS
 10
4.686440
 20
2.188560
  0
VERTEX
  8
0
  6
CONTINUOUS
 10
5.327960
 20
1.821600
  0
VERTEX
  8
0
  6
CONTINUOUS
 10
5.289680
 20
1.800040
  0
VERTEX
  8
0
  6
CONTINUOUS
 10
4.648600
 20
2.167440
  0
VERTEX
  8
0
  6
CONTINUOUS
 10
4.686440
 20
2.188560
  0
SEQEND
  8
0
  0
SOLID
  8
0
 62
    15
 10
4.648600
 20
2.167440
 11
5.289680
 21
1.800040
 12
4.614280
 22
2.135320
 13
5.255360
 23
1.768360
  0
POLYLINE
  8
0
  6
CONTINUOUS
 66
     1
 40
0.000000
 41
0.000000
  0
VERTEX
  8
0
  6
CONTINUOUS
 10
4.648600
 20
2.167440
  0
VERTEX
  8
0
  6
CONTINUOUS
 10
5.289680
 20
1.800040
  0
VERTEX
  8
0
  6
CONTINUOUS
 10
5.255360
 20
1.768360
  0
VERTEX
  8
0
  6
CONTINUOUS
 10
4.614280
 20
2.135320
  0
VERTEX
  8
0
  6
CONTINUOUS
 10
4.648600
 20
2.167440
  0
SEQEND
  8
0
  0
SOLID
  8
0
 62
    15
 10
4.614280
 20
2.135320
 11
5.255360
 21
1.768360
 12
4.584800
 22
2.091760
 13
5.225880
 23
1.724800
  0
POLYLINE
  8
0
  6
CONTINUOUS
 66
     1
 40
0.000000
 41
0.000000
  0
VERTEX
  8
0
  6
CONTINUOUS
 10
4.614280
 20
2.135320
  0
VERTEX
  8
0
  6
CONTINUOUS
 10
5.255360
 20
1.768360
  0
VERTEX
  8
0
  6
CONTINUOUS
 10
5.225880
 20
1.724800
  0
VERTEX
  8
0
  6
CONTINUOUS
 10
4.584800
 20
2.091760
  0
VERTEX
  8
0
  6
CONTINUOUS
 10
4.614280
 20
2.135320
  0
SEQEND
  8
0
  0
SOLID
  8
0
 62
    15
 10
4.584800
 20
2.091760
 11
5.225880
 21
1.724800
 12
4.561040
 22
2.035000
 13
5.202120
 23
1.668040
  0
POLYLINE
  8
0
  6
CONTINUOUS
 66
     1
 40
0.000000
 41
0.000000
  0
VERTEX
  8
0
  6
CONTINUOUS
 10
4.584800
 20
2.091760
  0
VERTEX
  8
0
  6
CONTINUOUS
 10
5.225880
 20
1.724800
  0
VERTEX
  8
0
  6
CONTINUOUS
 10
5.202120
 20
1.668040
  0
VERTEX
  8
0
  6
CONTINUOUS
 10
4.561040
 20
2.035000
  0
VERTEX
  8
0
  6
CONTINUOUS
 10
4.584800
 20
2.091760
  0
SEQEND
  8
0
  0
SOLID
  8
0
 62
    15
 10
4.561040
 20
2.035000
 11
5.202120
 21
1.668040
 12
4.543440
 22
1.963280
 13
5.184960
 23
1.595880
  0
POLYLINE
  8
0
  6
CONTINUOUS
 66
     1
 40
0.000000
 41
0.000000
  0
VERTEX
  8
0
  6
CONTINUOUS
 10
4.561040
 20
2.035000
  0
VERTEX
  8
0
  6
CONTINUOUS
 10
5.202120
 20
1.668040
  0
VERTEX
  8
0
  6
CONTINUOUS
 10
5.184960
 20
1.595880
  0
VERTEX
  8
0
  6
CONTINUOUS
 10
4.543440
 20
1.963280
  0
VERTEX
  8
0
  6
CONTINUOUS
 10
4.561040
 20
2.035000
  0
SEQEND
  8
0
  0
SOLID
  8
0
 62
    15
 10
4.543440
 20
1.963280
 11
5.184960
 21
1.595880
 12
4.533760
 22
1.874840
 13
5.174840
 23
1.507880
  0
POLYLINE
  8
0
  6
CONTINUOUS
 66
     1
 40
0.000000
 41
0.000000
  0
VERTEX
  8
0
  6
CONTINUOUS
 10
4.543440
 20
1.963280
  0
VERTEX
  8
0
  6
CONTINUOUS
 10
5.184960
 20
1.595880
  0
VERTEX
  8
0
  6
CONTINUOUS
 10
5.174840
 20
1.507880
  0
VERTEX
  8
0
  6
CONTINUOUS
 10
4.533760
 20
1.874840
  0
VERTEX
  8
0
  6
CONTINUOUS
 10
4.543440
 20
1.963280
  0
SEQEND
  8
0
  0
SOLID
  8
0
 62
    15
 10
4.533760
 20
1.874840
 11
5.174840
 21
1.507880
 12
4.521880
 22
1.788160
 13
5.163400
 23
1.421200
  0
POLYLINE
  8
0
  6
CONTINUOUS
 66
     1
 40
0.000000
 41
0.000000
  0
VERTEX
  8
0
  6
CONTINUOUS
 10
4.533760
 20
1.874840
  0
VERTEX
  8
0
  6
CONTINUOUS
 10
5.174840
 20
1.507880
  0
VERTEX
  8
0
  6
CONTINUOUS
 10
5.163400
 20
1.421200
  0
VERTEX
  8
0
  6
CONTINUOUS
 10
4.521880
 20
1.788160
  0
VERTEX
  8
0
  6
CONTINUOUS
 10
4.533760
 20
1.874840
  0
SEQEND
  8
0
  0
SOLID
  8
0
 62
    15
 10
4.521880
 20
1.788160
 11
5.163400
 21
1.421200
 12
4.500760
 22
1.720840
 13
5.141840
 23
1.353440
  0
POLYLINE
  8
0
  6
CONTINUOUS
 66
     1
 40
0.000000
 41
0.000000
  0
VERTEX
  8
0
  6
CONTINUOUS
 10
4.521880
 20
1.788160
  0
VERTEX
  8
0
  6
CONTINUOUS
 10
5.163400
 20
1.421200
  0
VERTEX
  8
0
  6
CONTINUOUS
 10
5.141840
 20
1.353440
  0
VERTEX
  8
0
  6
CONTINUOUS
 10
4.500760
 20
1.720840
  0
VERTEX
  8
0
  6
CONTINUOUS
 10
4.521880
 20
1.788160
  0
SEQEND
  8
0
  0
SOLID
  8
0
 62
    15
 10
4.500760
 20
1.720840
 11
5.141840
 21
1.353440
 12
4.471280
 22
1.669360
 13
5.112360
 23
1.302400
  0
POLYLINE
  8
0
  6
CONTINUOUS
 66
     1
 40
0.000000
 41
0.000000
  0
VERTEX
  8
0
  6
CONTINUOUS
 10
4.500760
 20
1.720840
  0
VERTEX
  8
0
  6
CONTINUOUS
 10
5.141840
 20
1.353440
  0
VERTEX
  8
0
  6
CONTINUOUS
 10
5.112360
 20
1.302400
  0
VERTEX
  8
0
  6
CONTINUOUS
 10
4.471280
 20
1.669360
  0
VERTEX
  8
0
  6
CONTINUOUS
 10
4.500760
 20
1.720840
  0
SEQEND
  8
0
  0
SOLID
  8
0
 62
    15
 10
4.471280
 20
1.669360
 11
5.112360
 21
1.302400
 12
4.433880
 22
1.632400
 13
5.075400
 23
1.265440
  0
POLYLINE
  8
0
  6
CONTINUOUS
 66
     1
 40
0.000000
 41
0.000000
  0
VERTEX
  8
0
  6
CONTINUOUS
 10
4.471280
 20
1.669360
  0
VERTEX
  8
0
  6
CONTINUOUS
 10
5.112360
 20
1.302400
  0
VERTEX
  8
0
  6
CONTINUOUS
 10
5.075400
 20
1.265440
  0
VERTEX
  8
0
  6
CONTINUOUS
 10
4.433880
 20
1.632400
  0
VERTEX
  8
0
  6
CONTINUOUS
 10
4.471280
 20
1.669360
  0
SEQEND
  8
0
  0
SOLID
  8
0
 62
    15
 10
4.433880
 20
1.632400
 11
5.075400
 21
1.265440
 12
4.390760
 22
1.606880
 13
5.031840
 23
1.239480
  0
POLYLINE
  8
0
  6
CONTINUOUS
 66
     1
 40
0.000000
 41
0.000000
  0
VERTEX
  8
0
  6
CONTINUOUS
 10
4.433880
 20
1.632400
  0
VERTEX
  8
0
  6
CONTINUOUS
 10
5.075400
 20
1.265440
  0
VERTEX
  8
0
  6
CONTINUOUS
 10
5.031840
 20
1.239480
  0
VERTEX
  8
0
  6
CONTINUOUS
 10
4.390760
 20
1.606880
  0
VERTEX
  8
0
  6
CONTINUOUS
 10
4.433880
 20
1.632400
  0
SEQEND
  8
0
  0
SOLID
  8
0
 62
    15
 10
4.390760
 20
1.606880
 11
5.031840
 21
1.239480
 12
4.342800
 22
1.590160
 13
4.983880
 23
1.222760
  0
POLYLINE
  8
0
  6
CONTINUOUS
 66
     1
 40
0.000000
 41
0.000000
  0
VERTEX
  8
0
  6
CONTINUOUS
 10
4.390760
 20
1.606880
  0
VERTEX
  8
0
  6
CONTINUOUS
 10
5.031840
 20
1.239480
  0
VERTEX
  8
0
  6
CONTINUOUS
 10
4.983880
 20
1.222760
  0
VERTEX
  8
0
  6
CONTINUOUS
 10
4.342800
 20
1.590160
  0
VERTEX
  8
0
  6
CONTINUOUS
 10
4.390760
 20
1.606880
  0
SEQEND
  8
0
  0
SOLID
  8
0
 62
    15
 10
4.771800
 20
2.486880
 11
5.412880
 21
2.119920
 12
4.771800
 22
2.206600
 13
5.412880
 23
1.839640
  0
POLYLINE
  8
0
  6
CONTINUOUS
 66
     1
 40
0.000000
 41
0.000000
  0
VERTEX
  8
0
  6
CONTINUOUS
 10
4.771800
 20
2.486880
  0
VERTEX
  8
0
  6
CONTINUOUS
 10
5.412880
 20
2.119920
  0
VERTEX
  8
0
  6
CONTINUOUS
 10
5.412880
 20
1.839640
  0
VERTEX
  8
0
  6
CONTINUOUS
 10
4.771800
 20
2.206600
  0
VERTEX
  8
0
  6
CONTINUOUS
 10
4.771800
 20
2.486880
  0
SEQEND
  8
0
  0
SOLID
  8
0
 62
    15
 10
4.237200
 20
1.573440
 11
4.878720
 21
1.206040
 12
4.230160
 22
1.426920
 13
4.871240
 23
1.059520
  0
POLYLINE
  8
0
  6
CONTINUOUS
 66
     1
 40
0.000000
 41
0.000000
  0
VERTEX
  8
0
  6
CONTINUOUS
 10
4.237200
 20
1.573440
  0
VERTEX
  8
0
  6
CONTINUOUS
 10
4.878720
 20
1.206040
  0
VERTEX
  8
0
  6
CONTINUOUS
 10
4.871240
 20
1.059520
  0
VERTEX
  8
0
  6
CONTINUOUS
 10
4.230160
 20
1.426920
  0
VERTEX
  8
0
  6
CONTINUOUS
 10
4.237200
 20
1.573440
  0
SEQEND
  8
0
  0
SOLID
  8
0
 62
    15
 10
4.230160
 20
1.426920
 11
4.871240
 21
1.059520
 12
4.081440
 22
1.406680
 13
4.722960
 23
1.039720
  0
POLYLINE
  8
0
  6
CONTINUOUS
 66
     1
 40
0.000000
 41
0.000000
  0
VERTEX
  8
0
  6
CONTINUOUS
 10
4.230160
 20
1.426920
  0
VERTEX
  8
0
  6
CONTINUOUS
 10
4.871240
 20
1.059520
  0
VERTEX
  8
0
  6
CONTINUOUS
 10
4.722960
 20
1.039720
  0
VERTEX
  8
0
  6
CONTINUOUS
 10
4.081440
 20
1.406680
  0
VERTEX
  8
0
  6
CONTINUOUS
 10
4.230160
 20
1.426920
  0
SEQEND
  8
0
  0
SOLID
  8
0
 62
    15
 10
4.081440
 20
1.406680
 11
4.722960
 21
1.039720
 12
4.080560
 22
1.360920
 13
4.721640
 23
0.993960
  0
POLYLINE
  8
0
  6
CONTINUOUS
 66
     1
 40
0.000000
 41
0.000000
  0
VERTEX
  8
0
  6
CONTINUOUS
 10
4.081440
 20
1.406680
  0
VERTEX
  8
0
  6
CONTINUOUS
 10
4.722960
 20
1.039720
  0
VERTEX
  8
0
  6
CONTINUOUS
 10
4.721640
 20
0.993960
  0
VERTEX
  8
0
  6
CONTINUOUS
 10
4.080560
 20
1.360920
  0
VERTEX
  8
0
  6
CONTINUOUS
 10
4.081440
 20
1.406680
  0
SEQEND
  8
0
  0
SOLID
  8
0
 62
    15
 10
4.080560
 20
1.360920
 11
4.721640
 21
0.993960
 12
4.077040
 22
1.321320
 13
4.718120
 23
0.954360
  0
POLYLINE
  8
0
  6
CONTINUOUS
 66
     1
 40
0.000000
 41
0.000000
  0
VERTEX
  8
0
  6
CONTINUOUS
 10
4.080560
 20
1.360920
  0
VERTEX
  8
0
  6
CONTINUOUS
 10
4.721640
 20
0.993960
  0
VERTEX
  8
0
  6
CONTINUOUS
 10
4.718120
 20
0.954360
  0
VERTEX
  8
0
  6
CONTINUOUS
 10
4.077040
 20
1.321320
  0
VERTEX
  8
0
  6
CONTINUOUS
 10
4.080560
 20
1.360920
  0
SEQEND
  8
0
  0
SOLID
  8
0
 62
    15
 10
4.077040
 20
1.321320
 11
4.718120
 21
0.954360
 12
4.063400
 22
1.257960
 13
4.704480
 23
0.891000
  0
POLYLINE
  8
0
  6
CONTINUOUS
 66
     1
 40
0.000000
 41
0.000000
  0
VERTEX
  8
0
  6
CONTINUOUS
 10
4.077040
 20
1.321320
  0
VERTEX
  8
0
  6
CONTINUOUS
 10
4.718120
 20
0.954360
  0
VERTEX
  8
0
  6
CONTINUOUS
 10
4.704480
 20
0.891000
  0
VERTEX
  8
0
  6
CONTINUOUS
 10
4.063400
 20
1.257960
  0
VERTEX
  8
0
  6
CONTINUOUS
 10
4.077040
 20
1.321320
  0
SEQEND
  8
0
  0
SOLID
  8
0
 62
    15
 10
4.063400
 20
1.257960
 11
4.704480
 21
0.891000
 12
4.040080
 22
1.213960
 13
4.681160
 23
0.847000
  0
POLYLINE
  8
0
  6
CONTINUOUS
 66
     1
 40
0.000000
 41
0.000000
  0
VERTEX
  8
0
  6
CONTINUOUS
 10
4.063400
 20
1.257960
  0
VERTEX
  8
0
  6
CONTINUOUS
 10
4.704480
 20
0.891000
  0
VERTEX
  8
0
  6
CONTINUOUS
 10
4.681160
 20
0.847000
  0
VERTEX
  8
0
  6
CONTINUOUS
 10
4.040080
 20
1.213960
  0
VERTEX
  8
0
  6
CONTINUOUS
 10
4.063400
 20
1.257960
  0
SEQEND
  8
0
  0
SOLID
  8
0
 62
    15
 10
4.040080
 20
1.213960
 11
4.681160
 21
0.847000
 12
4.007080
 22
1.185360
 13
4.648160
 23
0.818400
  0
POLYLINE
  8
0
  6
CONTINUOUS
 66
     1
 40
0.000000
 41
0.000000
  0
VERTEX
  8
0
  6
CONTINUOUS
 10
4.040080
 20
1.213960
  0
VERTEX
  8
0
  6
CONTINUOUS
 10
4.681160
 20
0.847000
  0
VERTEX
  8
0
  6
CONTINUOUS
 10
4.648160
 20
0.818400
  0
VERTEX
  8
0
  6
CONTINUOUS
 10
4.007080
 20
1.185360
  0
VERTEX
  8
0
  6
CONTINUOUS
 10
4.040080
 20
1.213960
  0
SEQEND
  8
0
  0
SOLID
  8
0
 62
    15
 10
4.007080
 20
1.185360
 11
4.648160
 21
0.818400
 12
3.964840
 22
1.169080
 13
4.605920
 23
0.801680
  0
POLYLINE
  8
0
  6
CONTINUOUS
 66
     1
 40
0.000000
 41
0.000000
  0
VERTEX
  8
0
  6
CONTINUOUS
 10
4.007080
 20
1.185360
  0
VERTEX
  8
0
  6
CONTINUOUS
 10
4.648160
 20
0.818400
  0
VERTEX
  8
0
  6
CONTINUOUS
 10
4.605920
 20
0.801680
  0
VERTEX
  8
0
  6
CONTINUOUS
 10
3.964840
 20
1.169080
  0
VERTEX
  8
0
  6
CONTINUOUS
 10
4.007080
 20
1.185360
  0
SEQEND
  8
0
  0
SOLID
  8
0
 62
    15
 10
3.964840
 20
1.169080
 11
4.605920
 21
0.801680
 12
3.912480
 22
1.161160
 13
4.553560
 23
0.794200
  0
POLYLINE
  8
0
  6
CONTINUOUS
 66
     1
 40
0.000000
 41
0.000000
  0
VERTEX
  8
0
  6
CONTINUOUS
 10
3.964840
 20
1.169080
  0
VERTEX
  8
0
  6
CONTINUOUS
 10
4.605920
 20
0.801680
  0
VERTEX
  8
0
  6
CONTINUOUS
 10
4.553560
 20
0.794200
  0
VERTEX
  8
0
  6
CONTINUOUS
 10
3.912480
 20
1.161160
  0
VERTEX
  8
0
  6
CONTINUOUS
 10
3.964840
 20
1.169080
  0
SEQEND
  8
0
  0
SOLID
  8
0
 62
    15
 10
3.912480
 20
1.161160
 11
4.553560
 21
0.794200
 12
3.850000
 22
1.159400
 13
4.491080
 23
0.792000
  0
POLYLINE
  8
0
  6
CONTINUOUS
 66
     1
 40
0.000000
 41
0.000000
  0
VERTEX
  8
0
  6
CONTINUOUS
 10
3.912480
 20
1.161160
  0
VERTEX
  8
0
  6
CONTINUOUS
 10
4.553560
 20
0.794200
  0
VERTEX
  8
0
  6
CONTINUOUS
 10
4.491080
 20
0.792000
  0
VERTEX
  8
0
  6
CONTINUOUS
 10
3.850000
 20
1.159400
  0
VERTEX
  8
0
  6
CONTINUOUS
 10
3.912480
 20
1.161160
  0
SEQEND
  8
0
  0
SOLID
  8
0
 62
    15
 10
3.850000
 20
1.159400
 11
4.491080
 21
0.792000
 12
3.814800
 22
1.158960
 13
4.456320
 23
0.792000
  0
POLYLINE
  8
0
  6
CONTINUOUS
 66
     1
 40
0.000000
 41
0.000000
  0
VERTEX
  8
0
  6
CONTINUOUS
 10
3.850000
 20
1.159400
  0
VERTEX
  8
0
  6
CONTINUOUS
 10
4.491080
 20
0.792000
  0
VERTEX
  8
0
  6
CONTINUOUS
 10
4.456320
 20
0.792000
  0
VERTEX
  8
0
  6
CONTINUOUS
 10
3.814800
 20
1.158960
  0
VERTEX
  8
0
  6
CONTINUOUS
 10
3.850000
 20
1.159400
  0
SEQEND
  8
0
  0
SOLID
  8
0
 62
    15
 10
3.814800
 20
1.158960
 11
4.456320
 21
0.792000
 12
3.777400
 22
1.159400
 13
4.418480
 23
0.792000
  0
POLYLINE
  8
0
  6
CONTINUOUS
 66
     1
 40
0.000000
 41
0.000000
  0
VERTEX
  8
0
  6
CONTINUOUS
 10
3.814800
 20
1.158960
  0
VERTEX
  8
0
  6
CONTINUOUS
 10
4.456320
 20
0.792000
  0
VERTEX
  8
0
  6
CONTINUOUS
 10
4.418480
 20
0.792000
  0
VERTEX
  8
0
  6
CONTINUOUS
 10
3.777400
 20
1.159400
  0
VERTEX
  8
0
  6
CONTINUOUS
 10
3.814800
 20
1.158960
  0
SEQEND
  8
0
  0
SOLID
  8
0
 62
     7
 10
3.777400
 20
1.159400
 11
4.418480
 21
0.792000
 12
3.777400
 22
0.948640
 13
4.418480
 23
0.581240
  0
POLYLINE
  8
0
  6
CONTINUOUS
 66
     1
 40
0.000000
 41
0.000000
  0
VERTEX
  8
0
  6
CONTINUOUS
 10
3.777400
 20
1.159400
  0
VERTEX
  8
0
  6
CONTINUOUS
 10
4.418480
 20
0.792000
  0
VERTEX
  8
0
  6
CONTINUOUS
 10
4.418480
 20
0.581240
  0
VERTEX
  8
0
  6
CONTINUOUS
 10
3.777400
 20
0.948640
  0
VERTEX
  8
0
  6
CONTINUOUS
 10
3.777400
 20
1.159400
  0
SEQEND
  8
0
  0
SOLID
  8
0
 62
    15
 10
3.777400
 20
0.948640
 11
4.418480
 21
0.581240
 12
3.507240
 22
0.948640
 13
4.148320
 23
0.581240
  0
POLYLINE
  8
0
  6
CONTINUOUS
 66
     1
 40
0.000000
 41
0.000000
  0
VERTEX
  8
0
  6
CONTINUOUS
 10
3.777400
 20
0.948640
  0
VERTEX
  8
0
  6
CONTINUOUS
 10
4.418480
 20
0.581240
  0
VERTEX
  8
0
  6
CONTINUOUS
 10
4.148320
 20
0.581240
  0
VERTEX
  8
0
  6
CONTINUOUS
 10
3.507240
 20
0.948640
  0
VERTEX
  8
0
  6
CONTINUOUS
 10
3.777400
 20
0.948640
  0
SEQEND
  8
0
  0
POLYLINE
  8
0
  6
CONTINUOUS
 66
     1
 40
0.000000
 41
0.000000
  0
VERTEX
  8
0
  6
CONTINUOUS
 10
4.771800
 20
2.486880
  0
VERTEX
  8
0
  6
CONTINUOUS
 10
4.771800
 20
2.206600
  0
VERTEX
  8
0
  6
CONTINUOUS
 10
4.728240
 20
2.201320
  0
VERTEX
  8
0
  6
CONTINUOUS
 10
4.686440
 20
2.188560
  0
VERTEX
  8
0
  6
CONTINUOUS
 10
4.648600
 20
2.167440
  0
VERTEX
  8
0
  6
CONTINUOUS
 10
4.614280
 20
2.135320
  0
VERTEX
  8
0
  6
CONTINUOUS
 10
4.584800
 20
2.091760
  0
VERTEX
  8
0
  6
CONTINUOUS
 10
4.561040
 20
2.035000
  0
VERTEX
  8
0
  6
CONTINUOUS
 10
4.543440
 20
1.963280
  0
VERTEX
  8
0
  6
CONTINUOUS
 10
4.533760
 20
1.874840
  0
VERTEX
  8
0
  6
CONTINUOUS
 10
4.521880
 20
1.788160
  0
VERTEX
  8
0
  6
CONTINUOUS
 10
4.500760
 20
1.720840
  0
VERTEX
  8
0
  6
CONTINUOUS
 10
4.471280
 20
1.669360
  0
VERTEX
  8
0
  6
CONTINUOUS
 10
4.433880
 20
1.632400
  0
VERTEX
  8
0
  6
CONTINUOUS
 10
4.390760
 20
1.606880
  0
VERTEX
  8
0
  6
CONTINUOUS
 10
4.342800
 20
1.590160
  0
VERTEX
  8
0
  6
CONTINUOUS
 10
4.237200
 20
1.573440
  0
VERTEX
  8
0
  6
CONTINUOUS
 10
4.230160
 20
1.426920
  0
VERTEX
  8
0
  6
CONTINUOUS
 10
4.081440
 20
1.406680
  0
VERTEX
  8
0
  6
CONTINUOUS
 10
4.080560
 20
1.360920
  0
VERTEX
  8
0
  6
CONTINUOUS
 10
4.077040
 20
1.321320
  0
VERTEX
  8
0
  6
CONTINUOUS
 10
4.063400
 20
1.257960
  0
VERTEX
  8
0
  6
CONTINUOUS
 10
4.040080
 20
1.213960
  0
VERTEX
  8
0
  6
CONTINUOUS
 10
4.007080
 20
1.185360
  0
VERTEX
  8
0
  6
CONTINUOUS
 10
3.964840
 20
1.169080
  0
VERTEX
  8
0
  6
CONTINUOUS
 10
3.912480
 20
1.161160
  0
VERTEX
  8
0
  6
CONTINUOUS
 10
3.850000
 20
1.159400
  0
VERTEX
  8
0
  6
CONTINUOUS
 10
3.814800
 20
1.158960
  0
VERTEX
  8
0
  6
CONTINUOUS
 10
3.777400
 20
1.159400
  0
VERTEX
  8
0
  6
CONTINUOUS
 10
3.777400
 20
0.948640
  0
VERTEX
  8
0
  6
CONTINUOUS
 10
3.507240
 20
0.948640
  0
VERTEX
  8
0
  6
CONTINUOUS
 10
3.507240
 20
2.486880
  0
VERTEX
  8
0
  6
CONTINUOUS
 10
4.771800
 20
2.486880
  0
SEQEND
  8
0
  0
TEXT
  8
0
 10
5.034480
 20
0.773960
 40
0.138192
  1
BA  1010
 41
1.000000
  7
SN0
 71
     0
 72
     5
 11
5.717831
 21
0.773960
  0
TEXT
  8
0
 10
4.804800
 20
0.582560
 40
0.138192
  1
1-1/4" x 1-9/16"
 41
1.000000
  7
SN0
 71
     0
 72
     5
 11
5.946374
 21
0.582560
  0
POLYLINE
  8
0
  6
CONTINUOUS
 66
     1
 40
0.014080
 41
0.014080
  0
VERTEX
  8
0
  6
CONTINUOUS
 10
6.388360
 20
2.404160
  0
VERTEX
  8
0
  6
CONTINUOUS
 10
6.388360
 20
1.139600
  0
VERTEX
  8
0
  6
CONTINUOUS
 10
7.927040
 20
1.139600
  0
VERTEX
  8
0
  6
CONTINUOUS
 10
7.927040
 20
1.409760
  0
VERTEX
  8
0
  6
CONTINUOUS
 10
7.716280
 20
1.409760
  0
VERTEX
  8
0
  6
CONTINUOUS
 10
7.715840
 20
1.514920
  0
VERTEX
  8
0
  6
CONTINUOUS
 10
7.711440
 20
1.572120
  0
VERTEX
  8
0
  6
CONTINUOUS
 10
7.703520
 20
1.608640
  0
VERTEX
  8
0
  6
CONTINUOUS
 10
7.690320
 20
1.639880
  0
VERTEX
  8
0
  6
CONTINUOUS
 10
7.677560
 20
1.657480
  0
VERTEX
  8
0
  6
CONTINUOUS
 10
7.661280
 20
1.672440
  0
VERTEX
  8
0
  6
CONTINUOUS
 10
7.641480
 20
1.685200
  0
VERTEX
  8
0
  6
CONTINUOUS
 10
7.617280
 20
1.695760
  0
VERTEX
  8
0
  6
CONTINUOUS
 10
7.588240
 20
1.704120
  0
VERTEX
  8
0
  6
CONTINUOUS
 10
7.553920
 20
1.709840
  0
VERTEX
  8
0
  6
CONTINUOUS
 10
7.492320
 20
1.713800
  0
VERTEX
  8
0
  6
CONTINUOUS
 10
7.468560
 20
1.714240
  0
VERTEX
  8
0
  6
CONTINUOUS
 10
7.448760
 20
1.862520
  0
VERTEX
  8
0
  6
CONTINUOUS
 10
7.301800
 20
1.870000
  0
VERTEX
  8
0
  6
CONTINUOUS
 10
7.295640
 20
1.923680
  0
VERTEX
  8
0
  6
CONTINUOUS
 10
7.291240
 20
1.950080
  0
VERTEX
  8
0
  6
CONTINUOUS
 10
7.278040
 20
1.999800
  0
VERTEX
  8
0
  6
CONTINUOUS
 10
7.263080
 20
2.034560
  0
VERTEX
  8
0
  6
CONTINUOUS
 10
7.242840
 20
2.066240
  0
VERTEX
  8
0
  6
CONTINUOUS
 10
7.225680
 20
2.085600
  0
VERTEX
  8
0
  6
CONTINUOUS
 10
7.205880
 20
2.103640
  0
VERTEX
  8
0
  6
CONTINUOUS
 10
7.182120
 20
2.119480
  0
VERTEX
  8
0
  6
CONTINUOUS
 10
7.139440
 20
2.139280
  0
VERTEX
  8
0
  6
CONTINUOUS
 10
7.105560
 20
2.150280
  0
VERTEX
  8
0
  6
CONTINUOUS
 10
7.067280
 20
2.158200
  0
VERTEX
  8
0
  6
CONTINUOUS
 10
7.024160
 20
2.164360
  0
VERTEX
  8
0
  6
CONTINUOUS
 10
6.954200
 20
2.170080
  0
VERTEX
  8
0
  6
CONTINUOUS
 10
6.892600
 20
2.179760
  0
VERTEX
  8
0
  6
CONTINUOUS
 10
6.840240
 20
2.193400
  0
VERTEX
  8
0
  6
CONTINUOUS
 10
6.796240
 20
2.210560
  0
VERTEX
  8
0
  6
CONTINUOUS
 10
6.760160
 20
2.231240
  0
VERTEX
  8
0
  6
CONTINUOUS
 10
6.730680
 20
2.255000
  0
VERTEX
  8
0
  6
CONTINUOUS
 10
6.708240
 20
2.280960
  0
VERTEX
  8
0
  6
CONTINUOUS
 10
6.691080
 20
2.309120
  0
VERTEX
  8
0
  6
CONTINUOUS
 10
6.679200
 20
2.339480
  0
VERTEX
  8
0
  6
CONTINUOUS
 10
6.673920
 20
2.360600
  0
VERTEX
  8
0
  6
CONTINUOUS
 10
6.670400
 20
2.382160
  0
VERTEX
  8
0
  6
CONTINUOUS
 10
6.668640
 20
2.404160
  0
VERTEX
  8
0
  6
CONTINUOUS
 10
6.388360
 20
2.404160
  0
SEQEND
  8
0
  0
TEXT
  8
0
 10
6.757080
 20
1.432640
 40
0.138192
  1
BA  1010
 41
1.000000
  7
SN0
 71
     0
 72
     5
 11
7.440431
 21
1.432640
  0
TEXT
  8
0
 10
6.527840
 20
1.241240
 40
0.138192
  1
1-1/4" x 1-9/16"
 41
1.000000
  7
SN0
 71
     0
 72
     5
 11
7.669414
 21
1.241240
  0
ENDSEC
  0
EOF
