  0
SECTION
  2
HEADER
  9
$ACADVER
  1
AC1006
  9
$EXTMIN
 10
2.629440
 20
0.869000
  9
$EXTMAX
 10
6.707800
 20
5.647840
  9
$LTSCALE
 40
0.044000
  9
$PDMODE
 70
    35
  9
$PDSIZE
 40
0.035200
  0
ENDSEC
  0
SECTION
  2
TABLES
  0
TABLE
  2
LTYPE
 70
     9
  0
LTYPE
  2
CONTINUOUS
 70
    64
  3
Solid line
 72
    65
 73
     0
 40
0.000000
  0
LTYPE
  2
DASHED
 70
    64
  3
__ __ __ __ __ __ __ __ __ __ __ __ __ __ __
 72
    65
 73
     2
 40
0.000330
 49
0.000220
 49
-0.000110
  0
LTYPE
  2
HIDDEN
 70
    64
  3
 _ _ _ _ _ _ _ _ _ _ _ _ _ _ _ _ _ _ _ _ _ _
 72
    65
 73
     2
 40
0.000165
 49
0.000110
 49
-0.000055
  0
LTYPE
  2
CENTER
 70
    64
  3
____ _ ____ _ ____ _ ____ _ ____ _ ____ _ ____
 72
    65
 73
     4
 40
0.000880
 49
0.000550
 49
-0.000110
 49
0.000110
 49
-0.000110
  0
LTYPE
  2
PHANTOM
 70
    64
  3
_____ _ _ _____ _ _ _____ _ _ _____ _ _ ____
 72
    65
 73
     6
 40
0.001100
 49
0.000550
 49
-0.000110
 49
0.000110
 49
-0.000110
 49
0.000110
 49
-0.000110
  0
LTYPE
  2
DOT
 70
    64
  3
...............................................
 72
    65
 73
     2
 40
0.000110
 49
0.000000
 49
-0.000110
  0
LTYPE
  2
DASHDOT
 70
    64
  3
__ . __ . __ . __ . __ . __ . __ . __ . __ . __
 72
    65
 73
     4
 40
0.000440
 49
0.000220
 49
-0.000110
 49
0.000000
 49
-0.000110
  0
LTYPE
  2
BORDER
 70
    64
  3
__ __ . __ __ . __ __ . __ __ . __ __ . __ __
 72
    65
 73
     6
 40
0.000770
 49
0.000220
 49
-0.000110
 49
0.000220
 49
-0.000110
 49
0.000000
 49
-0.000110
  0
LTYPE
  2
DIVIDE
 70
    64
  3
__ . . __ . . __ . . __ . . __ . . __ . . __
 72
    65
 73
     6
 40
0.000550
 49
0.000220
 49
-0.000110
 49
0.000000
 49
-0.000110
 49
0.000000
 49
-0.000110
  0
LTYPE
  2
DOTDOT
 70
    64
  3
 . .  . .  . .  . .  . .  . . 
 72
    65
 73
     5
 40
0.000242
 49
-0.000110
 49
0.000000
 49
-0.000110
 49
0.000000
 49
-0.000110
  0
ENDTAB
  0
TABLE
  2
STYLE
 70
     2
  0
STYLE
 70
     0
  2
SN0
 40
0.000000
 41
0.000440
 50
0.000000
 71
     0
 42
0.000000
  3
ROMAND
  0
STYLE
 70
    68
  2
SV0
 40
0.000000
 41
0.000440
 50
0.000000
 71
     0
 42
0.000000
  3
ROMAND
  0
ENDTAB
  0
TABLE
  2
LAYER
 70
     3
  0
LAYER
  2
FOREGROUND
 70
    64
 62
     7
  6
CONTINUOUS
  0
LAYER
  2
BACKGROUND
 70
    65
 62
    -7
  6
CONTINUOUS
  0
LAYER
  2
0
 70
    64
 62
     7
  6
CONTINUOUS
  0
ENDTAB
  0
ENDSEC
  0
SECTION
  2
ENTITIES
  0
POLYLINE
  8
FOREGROUND
  6
CONTINUOUS
 66
     1
 40
0.000000
 41
0.000000
  0
VERTEX
  8
FOREGROUND
  6
CONTINUOUS
 10
0.000000
 20
6.516840
  0
VERTEX
  8
FOREGROUND
  6
CONTINUOUS
 10
8.499920
 20
6.516840
  0
VERTEX
  8
FOREGROUND
  6
CONTINUOUS
 10
8.499920
 20
-4.483160
  0
VERTEX
  8
FOREGROUND
  6
CONTINUOUS
 10
0.000000
 20
-4.483160
  0
VERTEX
  8
FOREGROUND
  6
CONTINUOUS
 10
0.000000
 20
6.516840
  0
SEQEND
  8
0
  0
POLYLINE
  8
FOREGROUND
  6
CONTINUOUS
 66
     1
 40
0.000000
 41
0.000000
  0
VERTEX
  8
FOREGROUND
  6
CONTINUOUS
 10
0.000000
 20
6.516840
  0
VERTEX
  8
FOREGROUND
  6
CONTINUOUS
 10
8.499920
 20
6.516840
  0
VERTEX
  8
FOREGROUND
  6
CONTINUOUS
 10
8.499920
 20
-4.483160
  0
VERTEX
  8
FOREGROUND
  6
CONTINUOUS
 10
0.000000
 20
-4.483160
  0
VERTEX
  8
FOREGROUND
  6
CONTINUOUS
 10
0.000000
 20
6.516840
  0
SEQEND
  8
0
  0
POLYLINE
  8
0
  6
CONTINUOUS
 66
     1
 40
0.014080
 41
0.014080
  0
VERTEX
  8
0
  6
CONTINUOUS
 10
4.143920
 20
3.893120
  0
VERTEX
  8
0
  6
CONTINUOUS
 10
5.126880
 20
3.893120
  0
VERTEX
  8
0
  6
CONTINUOUS
 10
5.126880
 20
4.087600
  0
VERTEX
  8
0
  6
CONTINUOUS
 10
5.149320
 20
4.088920
  0
VERTEX
  8
0
  6
CONTINUOUS
 10
5.172200
 20
4.092000
  0
VERTEX
  8
0
  6
CONTINUOUS
 10
5.194640
 20
4.097280
  0
VERTEX
  8
0
  6
CONTINUOUS
 10
5.216640
 20
4.104320
  0
VERTEX
  8
0
  6
CONTINUOUS
 10
5.259320
 20
4.124120
  0
VERTEX
  8
0
  6
CONTINUOUS
 10
5.297600
 20
4.149640
  0
VERTEX
  8
0
  6
CONTINUOUS
 10
5.330160
 20
4.180440
  0
VERTEX
  8
0
  6
CONTINUOUS
 10
5.344240
 20
4.197600
  0
VERTEX
  8
0
  6
CONTINUOUS
 10
5.365360
 20
4.234120
  0
VERTEX
  8
0
  6
CONTINUOUS
 10
5.372400
 20
4.253480
  0
VERTEX
  8
0
  6
CONTINUOUS
 10
5.376800
 20
4.273280
  0
VERTEX
  8
0
  6
CONTINUOUS
 10
5.378120
 20
4.293520
  0
VERTEX
  8
0
  6
CONTINUOUS
 10
5.378120
 20
4.503840
  0
VERTEX
  8
0
  6
CONTINUOUS
 10
4.871680
 20
4.503840
  0
VERTEX
  8
0
  6
CONTINUOUS
 10
4.872560
 20
4.502960
  0
VERTEX
  8
0
  6
CONTINUOUS
 10
4.872560
 20
5.026120
  0
VERTEX
  8
0
  6
CONTINUOUS
 10
5.379000
 20
5.026120
  0
VERTEX
  8
0
  6
CONTINUOUS
 10
5.378560
 20
5.246560
  0
VERTEX
  8
0
  6
CONTINUOUS
 10
5.375480
 20
5.266800
  0
VERTEX
  8
0
  6
CONTINUOUS
 10
5.373280
 20
5.276480
  0
VERTEX
  8
0
  6
CONTINUOUS
 10
5.361840
 20
5.305080
  0
VERTEX
  8
0
  6
CONTINUOUS
 10
5.345120
 20
5.332360
  0
VERTEX
  8
0
  6
CONTINUOUS
 10
5.315640
 20
5.365360
  0
VERTEX
  8
0
  6
CONTINUOUS
 10
5.298480
 20
5.380320
  0
VERTEX
  8
0
  6
CONTINUOUS
 10
5.260200
 20
5.405840
  0
VERTEX
  8
0
  6
CONTINUOUS
 10
5.217960
 20
5.425640
  0
VERTEX
  8
0
  6
CONTINUOUS
 10
5.195960
 20
5.432680
  0
VERTEX
  8
0
  6
CONTINUOUS
 10
5.173520
 20
5.437960
  0
VERTEX
  8
0
  6
CONTINUOUS
 10
5.150640
 20
5.441040
  0
VERTEX
  8
0
  6
CONTINUOUS
 10
5.128200
 20
5.442360
  0
VERTEX
  8
0
  6
CONTINUOUS
 10
5.128200
 20
5.636840
  0
VERTEX
  8
0
  6
CONTINUOUS
 10
4.137320
 20
5.636840
  0
VERTEX
  8
0
  6
CONTINUOUS
 10
4.137320
 20
3.893560
  0
VERTEX
  8
0
  6
CONTINUOUS
 10
4.146560
 20
3.893560
  0
VERTEX
  8
0
  6
CONTINUOUS
 10
4.143920
 20
3.893120
  0
SEQEND
  8
0
  0
POLYLINE
  8
0
  6
CONTINUOUS
 66
     1
 40
0.014080
 41
0.014080
  0
VERTEX
  8
0
  6
CONTINUOUS
 10
5.453800
 20
4.506040
  0
VERTEX
  8
0
  6
CONTINUOUS
 10
5.453800
 20
5.029640
  0
VERTEX
  8
0
  6
CONTINUOUS
 10
5.960240
 20
5.029640
  0
VERTEX
  8
0
  6
CONTINUOUS
 10
5.959800
 20
5.250080
  0
VERTEX
  8
0
  6
CONTINUOUS
 10
5.956720
 20
5.269880
  0
VERTEX
  8
0
  6
CONTINUOUS
 10
5.951000
 20
5.289680
  0
VERTEX
  8
0
  6
CONTINUOUS
 10
5.937800
 20
5.317840
  0
VERTEX
  8
0
  6
CONTINUOUS
 10
5.926360
 20
5.335440
  0
VERTEX
  8
0
  6
CONTINUOUS
 10
5.896880
 20
5.368440
  0
VERTEX
  8
0
  6
CONTINUOUS
 10
5.861240
 20
5.397040
  0
VERTEX
  8
0
  6
CONTINUOUS
 10
5.820760
 20
5.419480
  0
VERTEX
  8
0
  6
CONTINUOUS
 10
5.799200
 20
5.428720
  0
VERTEX
  8
0
  6
CONTINUOUS
 10
5.777200
 20
5.435760
  0
VERTEX
  8
0
  6
CONTINUOUS
 10
5.754760
 20
5.441040
  0
VERTEX
  8
0
  6
CONTINUOUS
 10
5.731880
 20
5.444120
  0
VERTEX
  8
0
  6
CONTINUOUS
 10
5.709440
 20
5.445440
  0
VERTEX
  8
0
  6
CONTINUOUS
 10
5.709440
 20
5.639920
  0
VERTEX
  8
0
  6
CONTINUOUS
 10
6.700760
 20
5.639920
  0
VERTEX
  8
0
  6
CONTINUOUS
 10
6.700760
 20
3.896640
  0
VERTEX
  8
0
  6
CONTINUOUS
 10
5.708120
 20
3.896640
  0
VERTEX
  8
0
  6
CONTINUOUS
 10
5.708120
 20
4.091120
  0
VERTEX
  8
0
  6
CONTINUOUS
 10
5.730560
 20
4.092440
  0
VERTEX
  8
0
  6
CONTINUOUS
 10
5.753440
 20
4.095520
  0
VERTEX
  8
0
  6
CONTINUOUS
 10
5.775880
 20
4.100800
  0
VERTEX
  8
0
  6
CONTINUOUS
 10
5.797880
 20
4.107840
  0
VERTEX
  8
0
  6
CONTINUOUS
 10
5.840560
 20
4.127640
  0
VERTEX
  8
0
  6
CONTINUOUS
 10
5.878840
 20
4.153160
  0
VERTEX
  8
0
  6
CONTINUOUS
 10
5.911400
 20
4.183960
  0
VERTEX
  8
0
  6
CONTINUOUS
 10
5.925480
 20
4.201120
  0
VERTEX
  8
0
  6
CONTINUOUS
 10
5.946600
 20
4.237640
  0
VERTEX
  8
0
  6
CONTINUOUS
 10
5.953640
 20
4.257000
  0
VERTEX
  8
0
  6
CONTINUOUS
 10
5.958040
 20
4.276800
  0
VERTEX
  8
0
  6
CONTINUOUS
 10
5.959360
 20
4.297040
  0
VERTEX
  8
0
  6
CONTINUOUS
 10
5.959360
 20
4.506920
  0
VERTEX
  8
0
  6
CONTINUOUS
 10
5.452920
 20
4.506920
  0
VERTEX
  8
0
  6
CONTINUOUS
 10
5.453800
 20
4.506040
  0
SEQEND
  8
0
  0
SOLID
  8
0
 62
    15
 10
4.010600
 20
2.131800
 11
4.010600
 21
2.130920
 12
3.365560
 22
1.766600
 13
3.365560
 23
1.765720
  0
POLYLINE
  8
0
  6
CONTINUOUS
 66
     1
 40
0.000000
 41
0.000000
  0
VERTEX
  8
0
  6
CONTINUOUS
 10
4.010600
 20
2.131800
  0
VERTEX
  8
0
  6
CONTINUOUS
 10
4.010600
 20
2.130920
  0
VERTEX
  8
0
  6
CONTINUOUS
 10
3.365560
 20
1.765720
  0
VERTEX
  8
0
  6
CONTINUOUS
 10
3.365560
 20
1.766600
  0
VERTEX
  8
0
  6
CONTINUOUS
 10
4.010600
 20
2.131800
  0
SEQEND
  8
0
  0
SOLID
  8
0
 62
    15
 10
3.364240
 20
1.766600
 11
4.009280
 21
2.131800
 12
3.870680
 22
1.766600
 13
4.515720
 23
2.131800
  0
POLYLINE
  8
0
  6
CONTINUOUS
 66
     1
 40
0.000000
 41
0.000000
  0
VERTEX
  8
0
  6
CONTINUOUS
 10
3.364240
 20
1.766600
  0
VERTEX
  8
0
  6
CONTINUOUS
 10
4.009280
 20
2.131800
  0
VERTEX
  8
0
  6
CONTINUOUS
 10
4.515720
 20
2.131800
  0
VERTEX
  8
0
  6
CONTINUOUS
 10
3.870680
 20
1.766600
  0
VERTEX
  8
0
  6
CONTINUOUS
 10
3.364240
 20
1.766600
  0
SEQEND
  8
0
  0
SOLID
  8
0
 62
    15
 10
3.620760
 20
2.899600
 11
4.265800
 21
3.264800
 12
3.620760
 22
2.705120
 13
4.265800
 23
3.070320
  0
POLYLINE
  8
0
  6
CONTINUOUS
 66
     1
 40
0.000000
 41
0.000000
  0
VERTEX
  8
0
  6
CONTINUOUS
 10
3.620760
 20
2.899600
  0
VERTEX
  8
0
  6
CONTINUOUS
 10
4.265800
 20
3.264800
  0
VERTEX
  8
0
  6
CONTINUOUS
 10
4.265800
 20
3.070320
  0
VERTEX
  8
0
  6
CONTINUOUS
 10
3.620760
 20
2.705120
  0
VERTEX
  8
0
  6
CONTINUOUS
 10
3.620760
 20
2.899600
  0
SEQEND
  8
0
  0
SOLID
  8
0
 62
    15
 10
3.620760
 20
2.705120
 11
4.265800
 21
3.070320
 12
3.666080
 22
2.700720
 13
4.311120
 23
3.065920
  0
POLYLINE
  8
0
  6
CONTINUOUS
 66
     1
 40
0.000000
 41
0.000000
  0
VERTEX
  8
0
  6
CONTINUOUS
 10
3.620760
 20
2.705120
  0
VERTEX
  8
0
  6
CONTINUOUS
 10
4.265800
 20
3.070320
  0
VERTEX
  8
0
  6
CONTINUOUS
 10
4.311120
 20
3.065920
  0
VERTEX
  8
0
  6
CONTINUOUS
 10
3.666080
 20
2.700720
  0
VERTEX
  8
0
  6
CONTINUOUS
 10
3.620760
 20
2.705120
  0
SEQEND
  8
0
  0
SOLID
  8
0
 62
    15
 10
3.666080
 20
2.700720
 11
4.311120
 21
3.065920
 12
3.710520
 22
2.687960
 13
4.355560
 23
3.053600
  0
POLYLINE
  8
0
  6
CONTINUOUS
 66
     1
 40
0.000000
 41
0.000000
  0
VERTEX
  8
0
  6
CONTINUOUS
 10
3.666080
 20
2.700720
  0
VERTEX
  8
0
  6
CONTINUOUS
 10
4.311120
 20
3.065920
  0
VERTEX
  8
0
  6
CONTINUOUS
 10
4.355560
 20
3.053600
  0
VERTEX
  8
0
  6
CONTINUOUS
 10
3.710520
 20
2.687960
  0
VERTEX
  8
0
  6
CONTINUOUS
 10
3.666080
 20
2.700720
  0
SEQEND
  8
0
  0
SOLID
  8
0
 62
    15
 10
3.710520
 20
2.687960
 11
4.355560
 21
3.053600
 12
3.752760
 22
2.668600
 13
4.397800
 23
3.033800
  0
POLYLINE
  8
0
  6
CONTINUOUS
 66
     1
 40
0.000000
 41
0.000000
  0
VERTEX
  8
0
  6
CONTINUOUS
 10
3.710520
 20
2.687960
  0
VERTEX
  8
0
  6
CONTINUOUS
 10
4.355560
 20
3.053600
  0
VERTEX
  8
0
  6
CONTINUOUS
 10
4.397800
 20
3.033800
  0
VERTEX
  8
0
  6
CONTINUOUS
 10
3.752760
 20
2.668600
  0
VERTEX
  8
0
  6
CONTINUOUS
 10
3.710520
 20
2.687960
  0
SEQEND
  8
0
  0
SOLID
  8
0
 62
    15
 10
3.752760
 20
2.668600
 11
4.397800
 21
3.033800
 12
3.791480
 22
2.643080
 13
4.436080
 23
3.008280
  0
POLYLINE
  8
0
  6
CONTINUOUS
 66
     1
 40
0.000000
 41
0.000000
  0
VERTEX
  8
0
  6
CONTINUOUS
 10
3.752760
 20
2.668600
  0
VERTEX
  8
0
  6
CONTINUOUS
 10
4.397800
 20
3.033800
  0
VERTEX
  8
0
  6
CONTINUOUS
 10
4.436080
 20
3.008280
  0
VERTEX
  8
0
  6
CONTINUOUS
 10
3.791480
 20
2.643080
  0
VERTEX
  8
0
  6
CONTINUOUS
 10
3.752760
 20
2.668600
  0
SEQEND
  8
0
  0
SOLID
  8
0
 62
    15
 10
3.791480
 20
2.643080
 11
4.436080
 21
3.008280
 12
3.824040
 22
2.612280
 13
4.469080
 23
2.977480
  0
POLYLINE
  8
0
  6
CONTINUOUS
 66
     1
 40
0.000000
 41
0.000000
  0
VERTEX
  8
0
  6
CONTINUOUS
 10
3.791480
 20
2.643080
  0
VERTEX
  8
0
  6
CONTINUOUS
 10
4.436080
 20
3.008280
  0
VERTEX
  8
0
  6
CONTINUOUS
 10
4.469080
 20
2.977480
  0
VERTEX
  8
0
  6
CONTINUOUS
 10
3.824040
 20
2.612280
  0
VERTEX
  8
0
  6
CONTINUOUS
 10
3.791480
 20
2.643080
  0
SEQEND
  8
0
  0
SOLID
  8
0
 62
    15
 10
3.824040
 20
2.612280
 11
4.469080
 21
2.977480
 12
3.849560
 22
2.577080
 13
4.494600
 23
2.942720
  0
POLYLINE
  8
0
  6
CONTINUOUS
 66
     1
 40
0.000000
 41
0.000000
  0
VERTEX
  8
0
  6
CONTINUOUS
 10
3.824040
 20
2.612280
  0
VERTEX
  8
0
  6
CONTINUOUS
 10
4.469080
 20
2.977480
  0
VERTEX
  8
0
  6
CONTINUOUS
 10
4.494600
 20
2.942720
  0
VERTEX
  8
0
  6
CONTINUOUS
 10
3.849560
 20
2.577080
  0
VERTEX
  8
0
  6
CONTINUOUS
 10
3.824040
 20
2.612280
  0
SEQEND
  8
0
  0
SOLID
  8
0
 62
    15
 10
3.365560
 20
2.289320
 11
4.010600
 21
2.654520
 12
3.365560
 22
1.766600
 13
4.010600
 23
2.131800
  0
POLYLINE
  8
0
  6
CONTINUOUS
 66
     1
 40
0.000000
 41
0.000000
  0
VERTEX
  8
0
  6
CONTINUOUS
 10
3.365560
 20
2.289320
  0
VERTEX
  8
0
  6
CONTINUOUS
 10
4.010600
 20
2.654520
  0
VERTEX
  8
0
  6
CONTINUOUS
 10
4.010600
 20
2.131800
  0
VERTEX
  8
0
  6
CONTINUOUS
 10
3.365560
 20
1.766600
  0
VERTEX
  8
0
  6
CONTINUOUS
 10
3.365560
 20
2.289320
  0
SEQEND
  8
0
  0
SOLID
  8
0
 62
    15
 10
3.865840
 20
2.539240
 11
4.510880
 21
2.904880
 12
3.872000
 22
2.499200
 13
4.516600
 23
2.864840
  0
POLYLINE
  8
0
  6
CONTINUOUS
 66
     1
 40
0.000000
 41
0.000000
  0
VERTEX
  8
0
  6
CONTINUOUS
 10
3.865840
 20
2.539240
  0
VERTEX
  8
0
  6
CONTINUOUS
 10
4.510880
 20
2.904880
  0
VERTEX
  8
0
  6
CONTINUOUS
 10
4.516600
 20
2.864840
  0
VERTEX
  8
0
  6
CONTINUOUS
 10
3.872000
 20
2.499200
  0
VERTEX
  8
0
  6
CONTINUOUS
 10
3.865840
 20
2.539240
  0
SEQEND
  8
0
  0
SOLID
  8
0
 62
    15
 10
2.629880
 20
2.899600
 11
3.274920
 21
3.264800
 12
3.620760
 22
2.899600
 13
4.265800
 23
3.264800
  0
POLYLINE
  8
0
  6
CONTINUOUS
 66
     1
 40
0.000000
 41
0.000000
  0
VERTEX
  8
0
  6
CONTINUOUS
 10
2.629880
 20
2.899600
  0
VERTEX
  8
0
  6
CONTINUOUS
 10
3.274920
 20
3.264800
  0
VERTEX
  8
0
  6
CONTINUOUS
 10
4.265800
 20
3.264800
  0
VERTEX
  8
0
  6
CONTINUOUS
 10
3.620760
 20
2.899600
  0
VERTEX
  8
0
  6
CONTINUOUS
 10
2.629880
 20
2.899600
  0
SEQEND
  8
0
  0
SOLID
  8
0
 62
    15
 10
3.872000
 20
2.499200
 11
4.516600
 21
2.864840
 12
3.872000
 22
2.289320
 13
4.516600
 23
2.654520
  0
POLYLINE
  8
0
  6
CONTINUOUS
 66
     1
 40
0.000000
 41
0.000000
  0
VERTEX
  8
0
  6
CONTINUOUS
 10
3.872000
 20
2.499200
  0
VERTEX
  8
0
  6
CONTINUOUS
 10
4.516600
 20
2.864840
  0
VERTEX
  8
0
  6
CONTINUOUS
 10
4.516600
 20
2.654520
  0
VERTEX
  8
0
  6
CONTINUOUS
 10
3.872000
 20
2.289320
  0
VERTEX
  8
0
  6
CONTINUOUS
 10
3.872000
 20
2.499200
  0
SEQEND
  8
0
  0
SOLID
  8
0
 62
    15
 10
3.849560
 20
2.577080
 11
4.494600
 21
2.942720
 12
3.865840
 22
2.539240
 13
4.510880
 23
2.904880
  0
POLYLINE
  8
0
  6
CONTINUOUS
 66
     1
 40
0.000000
 41
0.000000
  0
VERTEX
  8
0
  6
CONTINUOUS
 10
3.849560
 20
2.577080
  0
VERTEX
  8
0
  6
CONTINUOUS
 10
4.494600
 20
2.942720
  0
VERTEX
  8
0
  6
CONTINUOUS
 10
4.510880
 20
2.904880
  0
VERTEX
  8
0
  6
CONTINUOUS
 10
3.865840
 20
2.539240
  0
VERTEX
  8
0
  6
CONTINUOUS
 10
3.849560
 20
2.577080
  0
SEQEND
  8
0
  0
SOLID
  8
0
 62
    15
 10
3.870680
 20
1.766600
 11
4.515720
 21
2.131800
 12
3.870680
 22
1.556280
 13
4.515720
 23
1.921920
  0
POLYLINE
  8
0
  6
CONTINUOUS
 66
     1
 40
0.000000
 41
0.000000
  0
VERTEX
  8
0
  6
CONTINUOUS
 10
3.870680
 20
1.766600
  0
VERTEX
  8
0
  6
CONTINUOUS
 10
4.515720
 20
2.131800
  0
VERTEX
  8
0
  6
CONTINUOUS
 10
4.515720
 20
1.921920
  0
VERTEX
  8
0
  6
CONTINUOUS
 10
3.870680
 20
1.556280
  0
VERTEX
  8
0
  6
CONTINUOUS
 10
3.870680
 20
1.766600
  0
SEQEND
  8
0
  0
SOLID
  8
0
 62
    15
 10
3.870680
 20
1.556280
 11
4.515720
 21
1.921920
 12
3.864960
 22
1.516240
 13
4.510000
 23
1.881880
  0
POLYLINE
  8
0
  6
CONTINUOUS
 66
     1
 40
0.000000
 41
0.000000
  0
VERTEX
  8
0
  6
CONTINUOUS
 10
3.870680
 20
1.556280
  0
VERTEX
  8
0
  6
CONTINUOUS
 10
4.515720
 20
1.921920
  0
VERTEX
  8
0
  6
CONTINUOUS
 10
4.510000
 20
1.881880
  0
VERTEX
  8
0
  6
CONTINUOUS
 10
3.864960
 20
1.516240
  0
VERTEX
  8
0
  6
CONTINUOUS
 10
3.870680
 20
1.556280
  0
SEQEND
  8
0
  0
SOLID
  8
0
 62
    15
 10
3.619880
 20
1.350800
 11
4.264920
 21
1.716000
 12
3.619880
 22
1.156320
 13
4.264920
 23
1.521520
  0
POLYLINE
  8
0
  6
CONTINUOUS
 66
     1
 40
0.000000
 41
0.000000
  0
VERTEX
  8
0
  6
CONTINUOUS
 10
3.619880
 20
1.350800
  0
VERTEX
  8
0
  6
CONTINUOUS
 10
4.264920
 20
1.716000
  0
VERTEX
  8
0
  6
CONTINUOUS
 10
4.264920
 20
1.521520
  0
VERTEX
  8
0
  6
CONTINUOUS
 10
3.619880
 20
1.156320
  0
VERTEX
  8
0
  6
CONTINUOUS
 10
3.619880
 20
1.350800
  0
SEQEND
  8
0
  0
SOLID
  8
0
 62
    15
 10
3.848240
 20
1.478400
 11
4.493280
 21
1.843600
 12
3.823160
 22
1.443640
 13
4.467760
 23
1.808840
  0
POLYLINE
  8
0
  6
CONTINUOUS
 66
     1
 40
0.000000
 41
0.000000
  0
VERTEX
  8
0
  6
CONTINUOUS
 10
3.848240
 20
1.478400
  0
VERTEX
  8
0
  6
CONTINUOUS
 10
4.493280
 20
1.843600
  0
VERTEX
  8
0
  6
CONTINUOUS
 10
4.467760
 20
1.808840
  0
VERTEX
  8
0
  6
CONTINUOUS
 10
3.823160
 20
1.443640
  0
VERTEX
  8
0
  6
CONTINUOUS
 10
3.848240
 20
1.478400
  0
SEQEND
  8
0
  0
SOLID
  8
0
 62
    15
 10
3.823160
 20
1.443640
 11
4.467760
 21
1.808840
 12
3.790160
 22
1.412840
 13
4.435200
 23
1.778040
  0
POLYLINE
  8
0
  6
CONTINUOUS
 66
     1
 40
0.000000
 41
0.000000
  0
VERTEX
  8
0
  6
CONTINUOUS
 10
3.823160
 20
1.443640
  0
VERTEX
  8
0
  6
CONTINUOUS
 10
4.467760
 20
1.808840
  0
VERTEX
  8
0
  6
CONTINUOUS
 10
4.435200
 20
1.778040
  0
VERTEX
  8
0
  6
CONTINUOUS
 10
3.790160
 20
1.412840
  0
VERTEX
  8
0
  6
CONTINUOUS
 10
3.823160
 20
1.443640
  0
SEQEND
  8
0
  0
SOLID
  8
0
 62
    15
 10
3.790160
 20
1.412840
 11
4.435200
 21
1.778040
 12
3.751880
 22
1.387320
 13
4.396920
 23
1.752520
  0
POLYLINE
  8
0
  6
CONTINUOUS
 66
     1
 40
0.000000
 41
0.000000
  0
VERTEX
  8
0
  6
CONTINUOUS
 10
3.790160
 20
1.412840
  0
VERTEX
  8
0
  6
CONTINUOUS
 10
4.435200
 20
1.778040
  0
VERTEX
  8
0
  6
CONTINUOUS
 10
4.396920
 20
1.752520
  0
VERTEX
  8
0
  6
CONTINUOUS
 10
3.751880
 20
1.387320
  0
VERTEX
  8
0
  6
CONTINUOUS
 10
3.790160
 20
1.412840
  0
SEQEND
  8
0
  0
SOLID
  8
0
 62
    15
 10
3.864960
 20
1.516240
 11
4.510000
 21
1.881880
 12
3.848240
 22
1.478400
 13
4.493280
 23
1.843600
  0
POLYLINE
  8
0
  6
CONTINUOUS
 66
     1
 40
0.000000
 41
0.000000
  0
VERTEX
  8
0
  6
CONTINUOUS
 10
3.864960
 20
1.516240
  0
VERTEX
  8
0
  6
CONTINUOUS
 10
4.510000
 20
1.881880
  0
VERTEX
  8
0
  6
CONTINUOUS
 10
4.493280
 20
1.843600
  0
VERTEX
  8
0
  6
CONTINUOUS
 10
3.848240
 20
1.478400
  0
VERTEX
  8
0
  6
CONTINUOUS
 10
3.864960
 20
1.516240
  0
SEQEND
  8
0
  0
SOLID
  8
0
 62
    15
 10
2.636480
 20
1.156320
 11
3.281520
 21
1.521520
 12
2.639120
 22
1.156320
 13
3.284160
 23
1.521520
  0
POLYLINE
  8
0
  6
CONTINUOUS
 66
     1
 40
0.000000
 41
0.000000
  0
VERTEX
  8
0
  6
CONTINUOUS
 10
2.636480
 20
1.156320
  0
VERTEX
  8
0
  6
CONTINUOUS
 10
3.281520
 20
1.521520
  0
VERTEX
  8
0
  6
CONTINUOUS
 10
3.284160
 20
1.521520
  0
VERTEX
  8
0
  6
CONTINUOUS
 10
2.639120
 20
1.156320
  0
VERTEX
  8
0
  6
CONTINUOUS
 10
2.636480
 20
1.156320
  0
SEQEND
  8
0
  0
POLYLINE
  8
0
  6
CONTINUOUS
 66
     1
 40
0.000000
 41
0.000000
  0
VERTEX
  8
0
  6
CONTINUOUS
 10
2.639120
 20
1.156320
  0
VERTEX
  8
0
  6
CONTINUOUS
 10
2.629880
 20
1.156320
  0
VERTEX
  8
0
  6
CONTINUOUS
 10
2.629880
 20
2.899600
  0
VERTEX
  8
0
  6
CONTINUOUS
 10
3.620760
 20
2.899600
  0
VERTEX
  8
0
  6
CONTINUOUS
 10
3.620760
 20
2.705120
  0
VERTEX
  8
0
  6
CONTINUOUS
 10
3.666080
 20
2.700720
  0
VERTEX
  8
0
  6
CONTINUOUS
 10
3.710520
 20
2.687960
  0
VERTEX
  8
0
  6
CONTINUOUS
 10
3.752760
 20
2.668600
  0
VERTEX
  8
0
  6
CONTINUOUS
 10
3.791480
 20
2.643080
  0
VERTEX
  8
0
  6
CONTINUOUS
 10
3.824040
 20
2.612280
  0
VERTEX
  8
0
  6
CONTINUOUS
 10
3.849560
 20
2.577080
  0
VERTEX
  8
0
  6
CONTINUOUS
 10
3.865840
 20
2.539240
  0
VERTEX
  8
0
  6
CONTINUOUS
 10
3.872000
 20
2.499200
  0
VERTEX
  8
0
  6
CONTINUOUS
 10
3.872000
 20
2.289320
  0
VERTEX
  8
0
  6
CONTINUOUS
 10
3.365560
 20
2.289320
  0
VERTEX
  8
0
  6
CONTINUOUS
 10
3.365560
 20
1.765720
  0
VERTEX
  8
0
  6
CONTINUOUS
 10
3.364240
 20
1.766600
  0
VERTEX
  8
0
  6
CONTINUOUS
 10
3.870680
 20
1.766600
  0
VERTEX
  8
0
  6
CONTINUOUS
 10
3.870680
 20
1.556280
  0
VERTEX
  8
0
  6
CONTINUOUS
 10
3.864960
 20
1.516240
  0
VERTEX
  8
0
  6
CONTINUOUS
 10
3.848240
 20
1.478400
  0
VERTEX
  8
0
  6
CONTINUOUS
 10
3.823160
 20
1.443640
  0
VERTEX
  8
0
  6
CONTINUOUS
 10
3.790160
 20
1.412840
  0
VERTEX
  8
0
  6
CONTINUOUS
 10
3.751880
 20
1.387320
  0
VERTEX
  8
0
  6
CONTINUOUS
 10
3.709640
 20
1.367520
  0
VERTEX
  8
0
  6
CONTINUOUS
 10
3.665200
 20
1.355200
  0
VERTEX
  8
0
  6
CONTINUOUS
 10
3.619880
 20
1.350800
  0
VERTEX
  8
0
  6
CONTINUOUS
 10
3.619880
 20
1.156320
  0
VERTEX
  8
0
  6
CONTINUOUS
 10
2.636480
 20
1.156320
  0
VERTEX
  8
0
  6
CONTINUOUS
 10
2.639120
 20
1.156320
  0
SEQEND
  8
0
  0
SOLID
  8
0
 62
    15
 10
4.864200
 20
2.893440
 11
5.505720
 21
3.255560
 12
5.855520
 22
2.893440
 13
6.497040
 23
3.255560
  0
POLYLINE
  8
0
  6
CONTINUOUS
 66
     1
 40
0.000000
 41
0.000000
  0
VERTEX
  8
0
  6
CONTINUOUS
 10
4.864200
 20
2.893440
  0
VERTEX
  8
0
  6
CONTINUOUS
 10
5.505720
 20
3.255560
  0
VERTEX
  8
0
  6
CONTINUOUS
 10
6.497040
 20
3.255560
  0
VERTEX
  8
0
  6
CONTINUOUS
 10
5.855520
 20
2.893440
  0
VERTEX
  8
0
  6
CONTINUOUS
 10
4.864200
 20
2.893440
  0
SEQEND
  8
0
  0
SOLID
  8
0
 62
    15
 10
5.855520
 20
2.893440
 11
6.497040
 21
3.255560
 12
5.855520
 22
1.150160
 13
6.497040
 23
1.512280
  0
POLYLINE
  8
0
  6
CONTINUOUS
 66
     1
 40
0.000000
 41
0.000000
  0
VERTEX
  8
0
  6
CONTINUOUS
 10
5.855520
 20
2.893440
  0
VERTEX
  8
0
  6
CONTINUOUS
 10
6.497040
 20
3.255560
  0
VERTEX
  8
0
  6
CONTINUOUS
 10
6.497040
 20
1.512280
  0
VERTEX
  8
0
  6
CONTINUOUS
 10
5.855520
 20
1.150160
  0
VERTEX
  8
0
  6
CONTINUOUS
 10
5.855520
 20
2.893440
  0
SEQEND
  8
0
  0
SOLID
  8
0
 62
    15
 10
4.863320
 20
1.344640
 11
5.504400
 21
1.706760
 12
4.908640
 22
1.349040
 13
5.549720
 23
1.711160
  0
POLYLINE
  8
0
  6
CONTINUOUS
 66
     1
 40
0.000000
 41
0.000000
  0
VERTEX
  8
0
  6
CONTINUOUS
 10
4.863320
 20
1.344640
  0
VERTEX
  8
0
  6
CONTINUOUS
 10
5.504400
 20
1.706760
  0
VERTEX
  8
0
  6
CONTINUOUS
 10
5.549720
 20
1.711160
  0
VERTEX
  8
0
  6
CONTINUOUS
 10
4.908640
 20
1.349040
  0
VERTEX
  8
0
  6
CONTINUOUS
 10
4.863320
 20
1.344640
  0
SEQEND
  8
0
  0
SOLID
  8
0
 62
    15
 10
4.908640
 20
1.349040
 11
5.549720
 21
1.711160
 12
4.953080
 22
1.361800
 13
5.594160
 23
1.723920
  0
POLYLINE
  8
0
  6
CONTINUOUS
 66
     1
 40
0.000000
 41
0.000000
  0
VERTEX
  8
0
  6
CONTINUOUS
 10
4.908640
 20
1.349040
  0
VERTEX
  8
0
  6
CONTINUOUS
 10
5.549720
 20
1.711160
  0
VERTEX
  8
0
  6
CONTINUOUS
 10
5.594160
 20
1.723920
  0
VERTEX
  8
0
  6
CONTINUOUS
 10
4.953080
 20
1.361800
  0
VERTEX
  8
0
  6
CONTINUOUS
 10
4.908640
 20
1.349040
  0
SEQEND
  8
0
  0
SOLID
  8
0
 62
    15
 10
4.953080
 20
1.361800
 11
5.594160
 21
1.723920
 12
4.995320
 22
1.381160
 13
5.636400
 23
1.743280
  0
POLYLINE
  8
0
  6
CONTINUOUS
 66
     1
 40
0.000000
 41
0.000000
  0
VERTEX
  8
0
  6
CONTINUOUS
 10
4.953080
 20
1.361800
  0
VERTEX
  8
0
  6
CONTINUOUS
 10
5.594160
 20
1.723920
  0
VERTEX
  8
0
  6
CONTINUOUS
 10
5.636400
 20
1.743280
  0
VERTEX
  8
0
  6
CONTINUOUS
 10
4.995320
 20
1.381160
  0
VERTEX
  8
0
  6
CONTINUOUS
 10
4.953080
 20
1.361800
  0
SEQEND
  8
0
  0
SOLID
  8
0
 62
    15
 10
4.607680
 20
1.760440
 11
5.248760
 21
2.123000
 12
4.609000
 22
1.760000
 13
5.250080
 23
2.122120
  0
POLYLINE
  8
0
  6
CONTINUOUS
 66
     1
 40
0.000000
 41
0.000000
  0
VERTEX
  8
0
  6
CONTINUOUS
 10
4.607680
 20
1.760440
  0
VERTEX
  8
0
  6
CONTINUOUS
 10
5.248760
 20
2.123000
  0
VERTEX
  8
0
  6
CONTINUOUS
 10
5.250080
 20
2.122120
  0
VERTEX
  8
0
  6
CONTINUOUS
 10
4.609000
 20
1.760000
  0
VERTEX
  8
0
  6
CONTINUOUS
 10
4.607680
 20
1.760440
  0
SEQEND
  8
0
  0
SOLID
  8
0
 62
    15
 10
4.609000
 20
2.283160
 11
5.250080
 21
2.645280
 12
5.115440
 22
2.283160
 13
5.756520
 23
2.645280
  0
POLYLINE
  8
0
  6
CONTINUOUS
 66
     1
 40
0.000000
 41
0.000000
  0
VERTEX
  8
0
  6
CONTINUOUS
 10
4.609000
 20
2.283160
  0
VERTEX
  8
0
  6
CONTINUOUS
 10
5.250080
 20
2.645280
  0
VERTEX
  8
0
  6
CONTINUOUS
 10
5.756520
 20
2.645280
  0
VERTEX
  8
0
  6
CONTINUOUS
 10
5.115440
 20
2.283160
  0
VERTEX
  8
0
  6
CONTINUOUS
 10
4.609000
 20
2.283160
  0
SEQEND
  8
0
  0
POLYLINE
  8
0
  6
CONTINUOUS
 66
     1
 40
0.000000
 41
0.000000
  0
VERTEX
  8
0
  6
CONTINUOUS
 10
4.609000
 20
1.760000
  0
VERTEX
  8
0
  6
CONTINUOUS
 10
4.609000
 20
2.283160
  0
VERTEX
  8
0
  6
CONTINUOUS
 10
5.115440
 20
2.283160
  0
VERTEX
  8
0
  6
CONTINUOUS
 10
5.115440
 20
2.493480
  0
VERTEX
  8
0
  6
CONTINUOUS
 10
5.109280
 20
2.533520
  0
VERTEX
  8
0
  6
CONTINUOUS
 10
5.093000
 20
2.571360
  0
VERTEX
  8
0
  6
CONTINUOUS
 10
5.067480
 20
2.606120
  0
VERTEX
  8
0
  6
CONTINUOUS
 10
5.034920
 20
2.636920
  0
VERTEX
  8
0
  6
CONTINUOUS
 10
4.996200
 20
2.662440
  0
VERTEX
  8
0
  6
CONTINUOUS
 10
4.953960
 20
2.682240
  0
VERTEX
  8
0
  6
CONTINUOUS
 10
4.909520
 20
2.694560
  0
VERTEX
  8
0
  6
CONTINUOUS
 10
4.864200
 20
2.698960
  0
VERTEX
  8
0
  6
CONTINUOUS
 10
4.864200
 20
2.893440
  0
VERTEX
  8
0
  6
CONTINUOUS
 10
5.855520
 20
2.893440
  0
VERTEX
  8
0
  6
CONTINUOUS
 10
5.855520
 20
1.150160
  0
VERTEX
  8
0
  6
CONTINUOUS
 10
4.863320
 20
1.150160
  0
VERTEX
  8
0
  6
CONTINUOUS
 10
4.863320
 20
1.344640
  0
VERTEX
  8
0
  6
CONTINUOUS
 10
4.908640
 20
1.349040
  0
VERTEX
  8
0
  6
CONTINUOUS
 10
4.953080
 20
1.361800
  0
VERTEX
  8
0
  6
CONTINUOUS
 10
4.995320
 20
1.381160
  0
VERTEX
  8
0
  6
CONTINUOUS
 10
5.033600
 20
1.406680
  0
VERTEX
  8
0
  6
CONTINUOUS
 10
5.066160
 20
1.437480
  0
VERTEX
  8
0
  6
CONTINUOUS
 10
5.091680
 20
1.472680
  0
VERTEX
  8
0
  6
CONTINUOUS
 10
5.108400
 20
1.510520
  0
VERTEX
  8
0
  6
CONTINUOUS
 10
5.114120
 20
1.550560
  0
VERTEX
  8
0
  6
CONTINUOUS
 10
5.114120
 20
1.760440
  0
VERTEX
  8
0
  6
CONTINUOUS
 10
4.607680
 20
1.760440
  0
VERTEX
  8
0
  6
CONTINUOUS
 10
4.609000
 20
1.760000
  0
SEQEND
  8
0
  0
TEXT
  8
0
 10
3.768160
 20
0.911680
 40
0.138213
  1
BA  1009A & B 1-3/4"
 41
1.000000
  7
SN0
 71
     0
 72
     5
 11
5.360708
 21
0.911680
  0
ENDSEC
  0
EOF
