  0
SECTION
  2
HEADER
  9
$ACADVER
  1
AC1006
  9
$EXTMIN
 10
4.775760
 20
0.540320
  9
$EXTMAX
 10
7.733000
 20
2.025320
  9
$LTSCALE
 40
0.044000
  9
$PDMODE
 70
    35
  9
$PDSIZE
 40
0.035200
  0
ENDSEC
  0
SECTION
  2
TABLES
  0
TABLE
  2
LTYPE
 70
     9
  0
LTYPE
  2
CONTINUOUS
 70
    64
  3
Solid line
 72
    65
 73
     0
 40
0.000000
  0
LTYPE
  2
DASHED
 70
    64
  3
__ __ __ __ __ __ __ __ __ __ __ __ __ __ __
 72
    65
 73
     2
 40
0.000330
 49
0.000220
 49
-0.000110
  0
LTYPE
  2
HIDDEN
 70
    64
  3
 _ _ _ _ _ _ _ _ _ _ _ _ _ _ _ _ _ _ _ _ _ _
 72
    65
 73
     2
 40
0.000165
 49
0.000110
 49
-0.000055
  0
LTYPE
  2
CENTER
 70
    64
  3
____ _ ____ _ ____ _ ____ _ ____ _ ____ _ ____
 72
    65
 73
     4
 40
0.000880
 49
0.000550
 49
-0.000110
 49
0.000110
 49
-0.000110
  0
LTYPE
  2
PHANTOM
 70
    64
  3
_____ _ _ _____ _ _ _____ _ _ _____ _ _ ____
 72
    65
 73
     6
 40
0.001100
 49
0.000550
 49
-0.000110
 49
0.000110
 49
-0.000110
 49
0.000110
 49
-0.000110
  0
LTYPE
  2
DOT
 70
    64
  3
...............................................
 72
    65
 73
     2
 40
0.000110
 49
0.000000
 49
-0.000110
  0
LTYPE
  2
DASHDOT
 70
    64
  3
__ . __ . __ . __ . __ . __ . __ . __ . __ . __
 72
    65
 73
     4
 40
0.000440
 49
0.000220
 49
-0.000110
 49
0.000000
 49
-0.000110
  0
LTYPE
  2
BORDER
 70
    64
  3
__ __ . __ __ . __ __ . __ __ . __ __ . __ __
 72
    65
 73
     6
 40
0.000770
 49
0.000220
 49
-0.000110
 49
0.000220
 49
-0.000110
 49
0.000000
 49
-0.000110
  0
LTYPE
  2
DIVIDE
 70
    64
  3
__ . . __ . . __ . . __ . . __ . . __ . . __
 72
    65
 73
     6
 40
0.000550
 49
0.000220
 49
-0.000110
 49
0.000000
 49
-0.000110
 49
0.000000
 49
-0.000110
  0
LTYPE
  2
DOTDOT
 70
    64
  3
 . .  . .  . .  . .  . .  . . 
 72
    65
 73
     5
 40
0.000242
 49
-0.000110
 49
0.000000
 49
-0.000110
 49
0.000000
 49
-0.000110
  0
ENDTAB
  0
TABLE
  2
STYLE
 70
     2
  0
STYLE
 70
     0
  2
SN0
 40
0.000000
 41
0.000440
 50
0.000000
 71
     0
 42
0.000000
  3
ROMAND
  0
STYLE
 70
    68
  2
SV0
 40
0.000000
 41
0.000440
 50
0.000000
 71
     0
 42
0.000000
  3
ROMAND
  0
ENDTAB
  0
TABLE
  2
LAYER
 70
     3
  0
LAYER
  2
FOREGROUND
 70
    64
 62
     7
  6
CONTINUOUS
  0
LAYER
  2
BACKGROUND
 70
    65
 62
    -7
  6
CONTINUOUS
  0
LAYER
  2
0
 70
    64
 62
     7
  6
CONTINUOUS
  0
ENDTAB
  0
ENDSEC
  0
SECTION
  2
ENTITIES
  0
POLYLINE
  8
FOREGROUND
  6
CONTINUOUS
 66
     1
 40
0.000000
 41
0.000000
  0
VERTEX
  8
FOREGROUND
  6
CONTINUOUS
 10
0.000000
 20
2.565640
  0
VERTEX
  8
FOREGROUND
  6
CONTINUOUS
 10
8.499920
 20
2.565640
  0
VERTEX
  8
FOREGROUND
  6
CONTINUOUS
 10
8.499920
 20
-8.434360
  0
VERTEX
  8
FOREGROUND
  6
CONTINUOUS
 10
0.000000
 20
-8.434360
  0
VERTEX
  8
FOREGROUND
  6
CONTINUOUS
 10
0.000000
 20
2.565640
  0
SEQEND
  8
0
  0
POLYLINE
  8
FOREGROUND
  6
CONTINUOUS
 66
     1
 40
0.000000
 41
0.000000
  0
VERTEX
  8
FOREGROUND
  6
CONTINUOUS
 10
0.000000
 20
2.565640
  0
VERTEX
  8
FOREGROUND
  6
CONTINUOUS
 10
8.499920
 20
2.565640
  0
VERTEX
  8
FOREGROUND
  6
CONTINUOUS
 10
8.499920
 20
-8.434360
  0
VERTEX
  8
FOREGROUND
  6
CONTINUOUS
 10
0.000000
 20
-8.434360
  0
VERTEX
  8
FOREGROUND
  6
CONTINUOUS
 10
0.000000
 20
2.565640
  0
SEQEND
  8
0
  0
SOLID
  8
0
 62
    15
 10
5.751680
 20
1.274240
 11
6.402880
 21
1.653080
 12
5.731440
 22
1.240800
 13
6.382640
 23
1.619640
  0
POLYLINE
  8
0
  6
CONTINUOUS
 66
     1
 40
0.000000
 41
0.000000
  0
VERTEX
  8
0
  6
CONTINUOUS
 10
5.751680
 20
1.274240
  0
VERTEX
  8
0
  6
CONTINUOUS
 10
6.402880
 20
1.653080
  0
VERTEX
  8
0
  6
CONTINUOUS
 10
6.382640
 20
1.619640
  0
VERTEX
  8
0
  6
CONTINUOUS
 10
5.731440
 20
1.240800
  0
VERTEX
  8
0
  6
CONTINUOUS
 10
5.751680
 20
1.274240
  0
SEQEND
  8
0
  0
SOLID
  8
0
 62
    15
 10
5.491200
 20
1.645600
 11
6.141960
 21
2.024440
 12
5.542240
 22
1.642080
 13
6.193000
 23
2.020920
  0
POLYLINE
  8
0
  6
CONTINUOUS
 66
     1
 40
0.000000
 41
0.000000
  0
VERTEX
  8
0
  6
CONTINUOUS
 10
5.491200
 20
1.645600
  0
VERTEX
  8
0
  6
CONTINUOUS
 10
6.141960
 20
2.024440
  0
VERTEX
  8
0
  6
CONTINUOUS
 10
6.193000
 20
2.020920
  0
VERTEX
  8
0
  6
CONTINUOUS
 10
5.542240
 20
1.642080
  0
VERTEX
  8
0
  6
CONTINUOUS
 10
5.491200
 20
1.645600
  0
SEQEND
  8
0
  0
SOLID
  8
0
 62
    15
 10
5.542240
 20
1.642080
 11
6.193000
 21
2.020920
 12
5.588440
 22
1.631080
 13
6.239640
 23
2.009920
  0
POLYLINE
  8
0
  6
CONTINUOUS
 66
     1
 40
0.000000
 41
0.000000
  0
VERTEX
  8
0
  6
CONTINUOUS
 10
5.542240
 20
1.642080
  0
VERTEX
  8
0
  6
CONTINUOUS
 10
6.193000
 20
2.020920
  0
VERTEX
  8
0
  6
CONTINUOUS
 10
6.239640
 20
2.009920
  0
VERTEX
  8
0
  6
CONTINUOUS
 10
5.588440
 20
1.631080
  0
VERTEX
  8
0
  6
CONTINUOUS
 10
5.542240
 20
1.642080
  0
SEQEND
  8
0
  0
SOLID
  8
0
 62
    15
 10
5.588440
 20
1.631080
 11
6.239640
 21
2.009920
 12
5.629800
 22
1.614360
 13
6.281000
 23
1.992760
  0
POLYLINE
  8
0
  6
CONTINUOUS
 66
     1
 40
0.000000
 41
0.000000
  0
VERTEX
  8
0
  6
CONTINUOUS
 10
5.588440
 20
1.631080
  0
VERTEX
  8
0
  6
CONTINUOUS
 10
6.239640
 20
2.009920
  0
VERTEX
  8
0
  6
CONTINUOUS
 10
6.281000
 20
1.992760
  0
VERTEX
  8
0
  6
CONTINUOUS
 10
5.629800
 20
1.614360
  0
VERTEX
  8
0
  6
CONTINUOUS
 10
5.588440
 20
1.631080
  0
SEQEND
  8
0
  0
SOLID
  8
0
 62
    15
 10
5.629800
 20
1.614360
 11
6.281000
 21
1.992760
 12
5.666760
 22
1.591480
 13
6.317960
 23
1.970320
  0
POLYLINE
  8
0
  6
CONTINUOUS
 66
     1
 40
0.000000
 41
0.000000
  0
VERTEX
  8
0
  6
CONTINUOUS
 10
5.629800
 20
1.614360
  0
VERTEX
  8
0
  6
CONTINUOUS
 10
6.281000
 20
1.992760
  0
VERTEX
  8
0
  6
CONTINUOUS
 10
6.317960
 20
1.970320
  0
VERTEX
  8
0
  6
CONTINUOUS
 10
5.666760
 20
1.591480
  0
VERTEX
  8
0
  6
CONTINUOUS
 10
5.629800
 20
1.614360
  0
SEQEND
  8
0
  0
SOLID
  8
0
 62
     7
 10
5.666760
 20
1.591480
 11
6.317960
 21
1.970320
 12
5.698440
 22
1.564640
 13
6.349640
 23
1.943480
  0
POLYLINE
  8
0
  6
CONTINUOUS
 66
     1
 40
0.000000
 41
0.000000
  0
VERTEX
  8
0
  6
CONTINUOUS
 10
5.666760
 20
1.591480
  0
VERTEX
  8
0
  6
CONTINUOUS
 10
6.317960
 20
1.970320
  0
VERTEX
  8
0
  6
CONTINUOUS
 10
6.349640
 20
1.943480
  0
VERTEX
  8
0
  6
CONTINUOUS
 10
5.698440
 20
1.564640
  0
VERTEX
  8
0
  6
CONTINUOUS
 10
5.666760
 20
1.591480
  0
SEQEND
  8
0
  0
SOLID
  8
0
 62
     7
 10
5.698440
 20
1.564640
 11
6.349640
 21
1.943480
 12
5.724840
 22
1.533400
 13
6.376040
 23
1.912240
  0
POLYLINE
  8
0
  6
CONTINUOUS
 66
     1
 40
0.000000
 41
0.000000
  0
VERTEX
  8
0
  6
CONTINUOUS
 10
5.698440
 20
1.564640
  0
VERTEX
  8
0
  6
CONTINUOUS
 10
6.349640
 20
1.943480
  0
VERTEX
  8
0
  6
CONTINUOUS
 10
6.376040
 20
1.912240
  0
VERTEX
  8
0
  6
CONTINUOUS
 10
5.724840
 20
1.533400
  0
VERTEX
  8
0
  6
CONTINUOUS
 10
5.698440
 20
1.564640
  0
SEQEND
  8
0
  0
SOLID
  8
0
 62
     7
 10
5.724840
 20
1.533400
 11
6.376040
 21
1.912240
 12
5.745960
 22
1.499520
 13
6.397160
 23
1.878360
  0
POLYLINE
  8
0
  6
CONTINUOUS
 66
     1
 40
0.000000
 41
0.000000
  0
VERTEX
  8
0
  6
CONTINUOUS
 10
5.724840
 20
1.533400
  0
VERTEX
  8
0
  6
CONTINUOUS
 10
6.376040
 20
1.912240
  0
VERTEX
  8
0
  6
CONTINUOUS
 10
6.397160
 20
1.878360
  0
VERTEX
  8
0
  6
CONTINUOUS
 10
5.745960
 20
1.499520
  0
VERTEX
  8
0
  6
CONTINUOUS
 10
5.724840
 20
1.533400
  0
SEQEND
  8
0
  0
SOLID
  8
0
 62
     7
 10
5.745960
 20
1.499520
 11
6.397160
 21
1.878360
 12
5.761360
 22
1.463000
 13
6.412560
 23
1.841840
  0
POLYLINE
  8
0
  6
CONTINUOUS
 66
     1
 40
0.000000
 41
0.000000
  0
VERTEX
  8
0
  6
CONTINUOUS
 10
5.745960
 20
1.499520
  0
VERTEX
  8
0
  6
CONTINUOUS
 10
6.397160
 20
1.878360
  0
VERTEX
  8
0
  6
CONTINUOUS
 10
6.412560
 20
1.841840
  0
VERTEX
  8
0
  6
CONTINUOUS
 10
5.761360
 20
1.463000
  0
VERTEX
  8
0
  6
CONTINUOUS
 10
5.745960
 20
1.499520
  0
SEQEND
  8
0
  0
SOLID
  8
0
 62
     7
 10
5.761360
 20
1.463000
 11
6.412560
 21
1.841840
 12
5.771480
 22
1.425160
 13
6.422680
 23
1.804000
  0
POLYLINE
  8
0
  6
CONTINUOUS
 66
     1
 40
0.000000
 41
0.000000
  0
VERTEX
  8
0
  6
CONTINUOUS
 10
5.761360
 20
1.463000
  0
VERTEX
  8
0
  6
CONTINUOUS
 10
6.412560
 20
1.841840
  0
VERTEX
  8
0
  6
CONTINUOUS
 10
6.422680
 20
1.804000
  0
VERTEX
  8
0
  6
CONTINUOUS
 10
5.771480
 20
1.425160
  0
VERTEX
  8
0
  6
CONTINUOUS
 10
5.761360
 20
1.463000
  0
SEQEND
  8
0
  0
SOLID
  8
0
 62
    15
 10
5.771480
 20
1.425160
 11
6.422680
 21
1.804000
 12
5.775880
 22
1.386440
 13
6.426640
 23
1.765280
  0
POLYLINE
  8
0
  6
CONTINUOUS
 66
     1
 40
0.000000
 41
0.000000
  0
VERTEX
  8
0
  6
CONTINUOUS
 10
5.771480
 20
1.425160
  0
VERTEX
  8
0
  6
CONTINUOUS
 10
6.422680
 20
1.804000
  0
VERTEX
  8
0
  6
CONTINUOUS
 10
6.426640
 20
1.765280
  0
VERTEX
  8
0
  6
CONTINUOUS
 10
5.775880
 20
1.386440
  0
VERTEX
  8
0
  6
CONTINUOUS
 10
5.771480
 20
1.425160
  0
SEQEND
  8
0
  0
SOLID
  8
0
 62
    15
 10
5.775880
 20
1.386440
 11
6.426640
 21
1.765280
 12
5.773680
 22
1.348160
 13
6.424880
 23
1.727000
  0
POLYLINE
  8
0
  6
CONTINUOUS
 66
     1
 40
0.000000
 41
0.000000
  0
VERTEX
  8
0
  6
CONTINUOUS
 10
5.775880
 20
1.386440
  0
VERTEX
  8
0
  6
CONTINUOUS
 10
6.426640
 20
1.765280
  0
VERTEX
  8
0
  6
CONTINUOUS
 10
6.424880
 20
1.727000
  0
VERTEX
  8
0
  6
CONTINUOUS
 10
5.773680
 20
1.348160
  0
VERTEX
  8
0
  6
CONTINUOUS
 10
5.775880
 20
1.386440
  0
SEQEND
  8
0
  0
SOLID
  8
0
 62
    15
 10
5.773680
 20
1.348160
 11
6.424880
 21
1.727000
 12
5.766200
 22
1.310320
 13
6.416960
 23
1.689160
  0
POLYLINE
  8
0
  6
CONTINUOUS
 66
     1
 40
0.000000
 41
0.000000
  0
VERTEX
  8
0
  6
CONTINUOUS
 10
5.773680
 20
1.348160
  0
VERTEX
  8
0
  6
CONTINUOUS
 10
6.424880
 20
1.727000
  0
VERTEX
  8
0
  6
CONTINUOUS
 10
6.416960
 20
1.689160
  0
VERTEX
  8
0
  6
CONTINUOUS
 10
5.766200
 20
1.310320
  0
VERTEX
  8
0
  6
CONTINUOUS
 10
5.773680
 20
1.348160
  0
SEQEND
  8
0
  0
SOLID
  8
0
 62
    15
 10
5.766200
 20
1.310320
 11
6.416960
 21
1.689160
 12
5.751680
 22
1.274240
 13
6.402880
 23
1.653080
  0
POLYLINE
  8
0
  6
CONTINUOUS
 66
     1
 40
0.000000
 41
0.000000
  0
VERTEX
  8
0
  6
CONTINUOUS
 10
5.766200
 20
1.310320
  0
VERTEX
  8
0
  6
CONTINUOUS
 10
6.416960
 20
1.689160
  0
VERTEX
  8
0
  6
CONTINUOUS
 10
6.402880
 20
1.653080
  0
VERTEX
  8
0
  6
CONTINUOUS
 10
5.751680
 20
1.274240
  0
VERTEX
  8
0
  6
CONTINUOUS
 10
5.766200
 20
1.310320
  0
SEQEND
  8
0
  0
SOLID
  8
0
 62
    15
 10
4.776640
 20
1.645600
 11
5.427400
 21
2.024440
 12
5.491200
 22
1.645600
 13
6.141960
 23
2.024440
  0
POLYLINE
  8
0
  6
CONTINUOUS
 66
     1
 40
0.000000
 41
0.000000
  0
VERTEX
  8
0
  6
CONTINUOUS
 10
4.776640
 20
1.645600
  0
VERTEX
  8
0
  6
CONTINUOUS
 10
5.427400
 20
2.024440
  0
VERTEX
  8
0
  6
CONTINUOUS
 10
6.141960
 20
2.024440
  0
VERTEX
  8
0
  6
CONTINUOUS
 10
5.491200
 20
1.645600
  0
VERTEX
  8
0
  6
CONTINUOUS
 10
4.776640
 20
1.645600
  0
SEQEND
  8
0
  0
SOLID
  8
0
 62
    15
 10
5.731440
 20
1.240800
 11
6.382640
 21
1.619640
 12
5.704160
 22
1.210880
 13
6.355360
 23
1.589720
  0
POLYLINE
  8
0
  6
CONTINUOUS
 66
     1
 40
0.000000
 41
0.000000
  0
VERTEX
  8
0
  6
CONTINUOUS
 10
5.731440
 20
1.240800
  0
VERTEX
  8
0
  6
CONTINUOUS
 10
6.382640
 20
1.619640
  0
VERTEX
  8
0
  6
CONTINUOUS
 10
6.355360
 20
1.589720
  0
VERTEX
  8
0
  6
CONTINUOUS
 10
5.704160
 20
1.210880
  0
VERTEX
  8
0
  6
CONTINUOUS
 10
5.731440
 20
1.240800
  0
SEQEND
  8
0
  0
SOLID
  8
0
 62
    15
 10
5.704160
 20
1.210880
 11
6.355360
 21
1.589720
 12
5.670720
 22
1.184480
 13
6.321480
 23
1.563320
  0
POLYLINE
  8
0
  6
CONTINUOUS
 66
     1
 40
0.000000
 41
0.000000
  0
VERTEX
  8
0
  6
CONTINUOUS
 10
5.704160
 20
1.210880
  0
VERTEX
  8
0
  6
CONTINUOUS
 10
6.355360
 20
1.589720
  0
VERTEX
  8
0
  6
CONTINUOUS
 10
6.321480
 20
1.563320
  0
VERTEX
  8
0
  6
CONTINUOUS
 10
5.670720
 20
1.184480
  0
VERTEX
  8
0
  6
CONTINUOUS
 10
5.704160
 20
1.210880
  0
SEQEND
  8
0
  0
SOLID
  8
0
 62
    15
 10
5.670720
 20
1.184480
 11
6.321480
 21
1.563320
 12
5.635960
 22
1.161600
 13
6.286720
 23
1.540440
  0
POLYLINE
  8
0
  6
CONTINUOUS
 66
     1
 40
0.000000
 41
0.000000
  0
VERTEX
  8
0
  6
CONTINUOUS
 10
5.670720
 20
1.184480
  0
VERTEX
  8
0
  6
CONTINUOUS
 10
6.321480
 20
1.563320
  0
VERTEX
  8
0
  6
CONTINUOUS
 10
6.286720
 20
1.540440
  0
VERTEX
  8
0
  6
CONTINUOUS
 10
5.635960
 20
1.161600
  0
VERTEX
  8
0
  6
CONTINUOUS
 10
5.670720
 20
1.184480
  0
SEQEND
  8
0
  0
SOLID
  8
0
 62
    15
 10
5.635960
 20
1.161600
 11
6.286720
 21
1.540440
 12
5.605600
 22
1.140480
 13
6.256360
 23
1.519320
  0
POLYLINE
  8
0
  6
CONTINUOUS
 66
     1
 40
0.000000
 41
0.000000
  0
VERTEX
  8
0
  6
CONTINUOUS
 10
5.635960
 20
1.161600
  0
VERTEX
  8
0
  6
CONTINUOUS
 10
6.286720
 20
1.540440
  0
VERTEX
  8
0
  6
CONTINUOUS
 10
6.256360
 20
1.519320
  0
VERTEX
  8
0
  6
CONTINUOUS
 10
5.605600
 20
1.140480
  0
VERTEX
  8
0
  6
CONTINUOUS
 10
5.635960
 20
1.161600
  0
SEQEND
  8
0
  0
SOLID
  8
0
 62
    15
 10
5.605600
 20
1.140480
 11
6.256360
 21
1.519320
 12
5.579640
 22
1.121120
 13
6.230840
 23
1.499960
  0
POLYLINE
  8
0
  6
CONTINUOUS
 66
     1
 40
0.000000
 41
0.000000
  0
VERTEX
  8
0
  6
CONTINUOUS
 10
5.605600
 20
1.140480
  0
VERTEX
  8
0
  6
CONTINUOUS
 10
6.256360
 20
1.519320
  0
VERTEX
  8
0
  6
CONTINUOUS
 10
6.230840
 20
1.499960
  0
VERTEX
  8
0
  6
CONTINUOUS
 10
5.579640
 20
1.121120
  0
VERTEX
  8
0
  6
CONTINUOUS
 10
5.605600
 20
1.140480
  0
SEQEND
  8
0
  0
SOLID
  8
0
 62
    15
 10
5.579640
 20
1.121120
 11
6.230840
 21
1.499960
 12
5.557640
 22
1.103520
 13
6.208400
 23
1.482360
  0
POLYLINE
  8
0
  6
CONTINUOUS
 66
     1
 40
0.000000
 41
0.000000
  0
VERTEX
  8
0
  6
CONTINUOUS
 10
5.579640
 20
1.121120
  0
VERTEX
  8
0
  6
CONTINUOUS
 10
6.230840
 20
1.499960
  0
VERTEX
  8
0
  6
CONTINUOUS
 10
6.208400
 20
1.482360
  0
VERTEX
  8
0
  6
CONTINUOUS
 10
5.557640
 20
1.103520
  0
VERTEX
  8
0
  6
CONTINUOUS
 10
5.579640
 20
1.121120
  0
SEQEND
  8
0
  0
SOLID
  8
0
 62
    15
 10
5.557640
 20
1.103520
 11
6.208400
 21
1.482360
 12
5.539160
 22
1.086800
 13
6.190360
 23
1.465640
  0
POLYLINE
  8
0
  6
CONTINUOUS
 66
     1
 40
0.000000
 41
0.000000
  0
VERTEX
  8
0
  6
CONTINUOUS
 10
5.557640
 20
1.103520
  0
VERTEX
  8
0
  6
CONTINUOUS
 10
6.208400
 20
1.482360
  0
VERTEX
  8
0
  6
CONTINUOUS
 10
6.190360
 20
1.465640
  0
VERTEX
  8
0
  6
CONTINUOUS
 10
5.539160
 20
1.086800
  0
VERTEX
  8
0
  6
CONTINUOUS
 10
5.557640
 20
1.103520
  0
SEQEND
  8
0
  0
SOLID
  8
0
 62
    15
 10
5.539160
 20
1.086800
 11
6.190360
 21
1.465640
 12
5.523760
 22
1.072280
 13
6.174960
 23
1.451120
  0
POLYLINE
  8
0
  6
CONTINUOUS
 66
     1
 40
0.000000
 41
0.000000
  0
VERTEX
  8
0
  6
CONTINUOUS
 10
5.539160
 20
1.086800
  0
VERTEX
  8
0
  6
CONTINUOUS
 10
6.190360
 20
1.465640
  0
VERTEX
  8
0
  6
CONTINUOUS
 10
6.174960
 20
1.451120
  0
VERTEX
  8
0
  6
CONTINUOUS
 10
5.523760
 20
1.072280
  0
VERTEX
  8
0
  6
CONTINUOUS
 10
5.539160
 20
1.086800
  0
SEQEND
  8
0
  0
SOLID
  8
0
 62
    15
 10
5.523760
 20
1.072280
 11
6.174960
 21
1.451120
 12
5.502200
 22
1.046320
 13
6.153400
 23
1.425160
  0
POLYLINE
  8
0
  6
CONTINUOUS
 66
     1
 40
0.000000
 41
0.000000
  0
VERTEX
  8
0
  6
CONTINUOUS
 10
5.523760
 20
1.072280
  0
VERTEX
  8
0
  6
CONTINUOUS
 10
6.174960
 20
1.451120
  0
VERTEX
  8
0
  6
CONTINUOUS
 10
6.153400
 20
1.425160
  0
VERTEX
  8
0
  6
CONTINUOUS
 10
5.502200
 20
1.046320
  0
VERTEX
  8
0
  6
CONTINUOUS
 10
5.523760
 20
1.072280
  0
SEQEND
  8
0
  0
SOLID
  8
0
 62
    15
 10
5.502200
 20
1.046320
 11
6.153400
 21
1.425160
 12
5.489440
 22
1.024760
 13
6.140640
 23
1.403600
  0
POLYLINE
  8
0
  6
CONTINUOUS
 66
     1
 40
0.000000
 41
0.000000
  0
VERTEX
  8
0
  6
CONTINUOUS
 10
5.502200
 20
1.046320
  0
VERTEX
  8
0
  6
CONTINUOUS
 10
6.153400
 20
1.425160
  0
VERTEX
  8
0
  6
CONTINUOUS
 10
6.140640
 20
1.403600
  0
VERTEX
  8
0
  6
CONTINUOUS
 10
5.489440
 20
1.024760
  0
VERTEX
  8
0
  6
CONTINUOUS
 10
5.502200
 20
1.046320
  0
SEQEND
  8
0
  0
SOLID
  8
0
 62
    15
 10
5.489440
 20
1.024760
 11
6.140640
 21
1.403600
 12
5.483720
 22
1.006720
 13
6.134920
 23
1.385560
  0
POLYLINE
  8
0
  6
CONTINUOUS
 66
     1
 40
0.000000
 41
0.000000
  0
VERTEX
  8
0
  6
CONTINUOUS
 10
5.489440
 20
1.024760
  0
VERTEX
  8
0
  6
CONTINUOUS
 10
6.140640
 20
1.403600
  0
VERTEX
  8
0
  6
CONTINUOUS
 10
6.134920
 20
1.385560
  0
VERTEX
  8
0
  6
CONTINUOUS
 10
5.483720
 20
1.006720
  0
VERTEX
  8
0
  6
CONTINUOUS
 10
5.489440
 20
1.024760
  0
SEQEND
  8
0
  0
SOLID
  8
0
 62
    15
 10
5.483720
 20
1.006720
 11
6.134920
 21
1.385560
 12
5.481960
 22
0.991760
 13
6.133160
 23
1.370160
  0
POLYLINE
  8
0
  6
CONTINUOUS
 66
     1
 40
0.000000
 41
0.000000
  0
VERTEX
  8
0
  6
CONTINUOUS
 10
5.483720
 20
1.006720
  0
VERTEX
  8
0
  6
CONTINUOUS
 10
6.134920
 20
1.385560
  0
VERTEX
  8
0
  6
CONTINUOUS
 10
6.133160
 20
1.370160
  0
VERTEX
  8
0
  6
CONTINUOUS
 10
5.481960
 20
0.991760
  0
VERTEX
  8
0
  6
CONTINUOUS
 10
5.483720
 20
1.006720
  0
SEQEND
  8
0
  0
SOLID
  8
0
 62
    15
 10
5.481960
 20
0.991760
 11
6.133160
 21
1.370160
 12
5.481960
 22
0.984720
 13
6.133160
 23
1.363560
  0
POLYLINE
  8
0
  6
CONTINUOUS
 66
     1
 40
0.000000
 41
0.000000
  0
VERTEX
  8
0
  6
CONTINUOUS
 10
5.481960
 20
0.991760
  0
VERTEX
  8
0
  6
CONTINUOUS
 10
6.133160
 20
1.370160
  0
VERTEX
  8
0
  6
CONTINUOUS
 10
6.133160
 20
1.363560
  0
VERTEX
  8
0
  6
CONTINUOUS
 10
5.481960
 20
0.984720
  0
VERTEX
  8
0
  6
CONTINUOUS
 10
5.481960
 20
0.991760
  0
SEQEND
  8
0
  0
SOLID
  8
0
 62
    15
 10
5.481960
 20
0.984720
 11
6.133160
 21
1.363560
 12
5.481960
 22
0.978560
 13
6.133160
 23
1.357400
  0
POLYLINE
  8
0
  6
CONTINUOUS
 66
     1
 40
0.000000
 41
0.000000
  0
VERTEX
  8
0
  6
CONTINUOUS
 10
5.481960
 20
0.984720
  0
VERTEX
  8
0
  6
CONTINUOUS
 10
6.133160
 20
1.363560
  0
VERTEX
  8
0
  6
CONTINUOUS
 10
6.133160
 20
1.357400
  0
VERTEX
  8
0
  6
CONTINUOUS
 10
5.481960
 20
0.978560
  0
VERTEX
  8
0
  6
CONTINUOUS
 10
5.481960
 20
0.984720
  0
SEQEND
  8
0
  0
POLYLINE
  8
0
  6
CONTINUOUS
 66
     1
 40
0.000000
 41
0.000000
  0
VERTEX
  8
0
  6
CONTINUOUS
 10
5.481960
 20
0.978560
  0
VERTEX
  8
0
  6
CONTINUOUS
 10
4.776640
 20
0.978560
  0
VERTEX
  8
0
  6
CONTINUOUS
 10
4.776640
 20
1.645600
  0
VERTEX
  8
0
  6
CONTINUOUS
 10
5.491200
 20
1.645600
  0
VERTEX
  8
0
  6
CONTINUOUS
 10
5.542240
 20
1.642080
  0
VERTEX
  8
0
  6
CONTINUOUS
 10
5.588440
 20
1.631080
  0
VERTEX
  8
0
  6
CONTINUOUS
 10
5.629800
 20
1.614360
  0
VERTEX
  8
0
  6
CONTINUOUS
 10
5.666760
 20
1.591480
  0
VERTEX
  8
0
  6
CONTINUOUS
 10
5.698440
 20
1.564640
  0
VERTEX
  8
0
  6
CONTINUOUS
 10
5.724840
 20
1.533400
  0
VERTEX
  8
0
  6
CONTINUOUS
 10
5.745960
 20
1.499520
  0
VERTEX
  8
0
  6
CONTINUOUS
 10
5.761360
 20
1.463000
  0
VERTEX
  8
0
  6
CONTINUOUS
 10
5.771480
 20
1.425160
  0
VERTEX
  8
0
  6
CONTINUOUS
 10
5.775880
 20
1.386440
  0
VERTEX
  8
0
  6
CONTINUOUS
 10
5.773680
 20
1.348160
  0
VERTEX
  8
0
  6
CONTINUOUS
 10
5.766200
 20
1.310320
  0
VERTEX
  8
0
  6
CONTINUOUS
 10
5.751680
 20
1.274240
  0
VERTEX
  8
0
  6
CONTINUOUS
 10
5.731440
 20
1.240800
  0
VERTEX
  8
0
  6
CONTINUOUS
 10
5.704160
 20
1.210880
  0
VERTEX
  8
0
  6
CONTINUOUS
 10
5.670720
 20
1.184480
  0
VERTEX
  8
0
  6
CONTINUOUS
 10
5.635960
 20
1.161600
  0
VERTEX
  8
0
  6
CONTINUOUS
 10
5.605600
 20
1.140480
  0
VERTEX
  8
0
  6
CONTINUOUS
 10
5.579640
 20
1.121120
  0
VERTEX
  8
0
  6
CONTINUOUS
 10
5.557640
 20
1.103520
  0
VERTEX
  8
0
  6
CONTINUOUS
 10
5.539160
 20
1.086800
  0
VERTEX
  8
0
  6
CONTINUOUS
 10
5.523760
 20
1.072280
  0
VERTEX
  8
0
  6
CONTINUOUS
 10
5.502200
 20
1.046320
  0
VERTEX
  8
0
  6
CONTINUOUS
 10
5.489440
 20
1.024760
  0
VERTEX
  8
0
  6
CONTINUOUS
 10
5.483720
 20
1.006720
  0
VERTEX
  8
0
  6
CONTINUOUS
 10
5.481960
 20
0.991760
  0
VERTEX
  8
0
  6
CONTINUOUS
 10
5.481960
 20
0.984720
  0
VERTEX
  8
0
  6
CONTINUOUS
 10
5.481960
 20
0.978560
  0
SEQEND
  8
0
  0
TEXT
  8
0
 10
5.258880
 20
0.775280
 40
0.138120
  1
BA  1008
 41
1.000000
  7
SN0
 71
     0
 72
     5
 11
5.941707
 21
0.775280
  0
TEXT
  8
0
 10
5.200360
 20
0.583880
 40
0.138120
  1
11/16" x 1"
 41
1.000000
  7
SN0
 71
     0
 72
     5
 11
6.000589
 21
0.583880
  0
POLYLINE
  8
0
  6
CONTINUOUS
 66
     1
 40
0.014080
 41
0.014080
  0
VERTEX
  8
0
  6
CONTINUOUS
 10
7.432040
 20
1.338480
  0
VERTEX
  8
0
  6
CONTINUOUS
 10
6.726720
 20
1.338480
  0
VERTEX
  8
0
  6
CONTINUOUS
 10
6.726720
 20
2.005520
  0
VERTEX
  8
0
  6
CONTINUOUS
 10
7.441280
 20
2.005520
  0
VERTEX
  8
0
  6
CONTINUOUS
 10
7.467240
 20
2.004640
  0
VERTEX
  8
0
  6
CONTINUOUS
 10
7.492320
 20
2.001560
  0
VERTEX
  8
0
  6
CONTINUOUS
 10
7.516080
 20
1.997160
  0
VERTEX
  8
0
  6
CONTINUOUS
 10
7.538520
 20
1.991000
  0
VERTEX
  8
0
  6
CONTINUOUS
 10
7.560080
 20
1.983080
  0
VERTEX
  8
0
  6
CONTINUOUS
 10
7.580320
 20
1.973840
  0
VERTEX
  8
0
  6
CONTINUOUS
 10
7.599240
 20
1.963280
  0
VERTEX
  8
0
  6
CONTINUOUS
 10
7.633560
 20
1.938200
  0
VERTEX
  8
0
  6
CONTINUOUS
 10
7.662600
 20
1.909160
  0
VERTEX
  8
0
  6
CONTINUOUS
 10
7.686360
 20
1.876600
  0
VERTEX
  8
0
  6
CONTINUOUS
 10
7.704400
 20
1.840960
  0
VERTEX
  8
0
  6
CONTINUOUS
 10
7.711880
 20
1.822480
  0
VERTEX
  8
0
  6
CONTINUOUS
 10
7.721560
 20
1.784640
  0
VERTEX
  8
0
  6
CONTINUOUS
 10
7.725520
 20
1.746360
  0
VERTEX
  8
0
  6
CONTINUOUS
 10
7.725520
 20
1.727000
  0
VERTEX
  8
0
  6
CONTINUOUS
 10
7.720680
 20
1.688720
  0
VERTEX
  8
0
  6
CONTINUOUS
 10
7.709680
 20
1.651760
  0
VERTEX
  8
0
  6
CONTINUOUS
 10
7.692520
 20
1.617000
  0
VERTEX
  8
0
  6
CONTINUOUS
 10
7.668760
 20
1.585320
  0
VERTEX
  8
0
  6
CONTINUOUS
 10
7.654240
 20
1.570360
  0
VERTEX
  8
0
  6
CONTINUOUS
 10
7.637960
 20
1.556720
  0
VERTEX
  8
0
  6
CONTINUOUS
 10
7.542040
 20
1.490280
  0
VERTEX
  8
0
  6
CONTINUOUS
 10
7.498040
 20
1.454640
  0
VERTEX
  8
0
  6
CONTINUOUS
 10
7.461960
 20
1.418560
  0
VERTEX
  8
0
  6
CONTINUOUS
 10
7.445240
 20
1.394800
  0
VERTEX
  8
0
  6
CONTINUOUS
 10
7.436440
 20
1.375000
  0
VERTEX
  8
0
  6
CONTINUOUS
 10
7.433800
 20
1.366640
  0
VERTEX
  8
0
  6
CONTINUOUS
 10
7.432040
 20
1.338480
  0
SEQEND
  8
0
  0
TEXT
  8
0
 10
6.755320
 20
1.059080
 40
0.138120
  1
BA  1008
 41
1.000000
  7
SN0
 71
     0
 72
     5
 11
7.438147
 21
1.059080
  0
TEXT
  8
0
 10
6.696360
 20
0.867680
 40
0.138120
  1
11/16" x 1"
 41
1.000000
  7
SN0
 71
     0
 72
     5
 11
7.496589
 21
0.867680
  0
ENDSEC
  0
EOF
