  0
SECTION
  2
HEADER
  9
$ACADVER
  1
AC1006
  9
$EXTMIN
 10
4.514840
 20
0.593560
  9
$EXTMAX
 10
7.780520
 20
2.567840
  9
$LTSCALE
 40
0.044000
  9
$PDMODE
 70
    35
  9
$PDSIZE
 40
0.035200
  0
ENDSEC
  0
SECTION
  2
TABLES
  0
TABLE
  2
LTYPE
 70
     9
  0
LTYPE
  2
CONTINUOUS
 70
    64
  3
Solid line
 72
    65
 73
     0
 40
0.000000
  0
LTYPE
  2
DASHED
 70
    64
  3
__ __ __ __ __ __ __ __ __ __ __ __ __ __ __
 72
    65
 73
     2
 40
0.000330
 49
0.000220
 49
-0.000110
  0
LTYPE
  2
HIDDEN
 70
    64
  3
 _ _ _ _ _ _ _ _ _ _ _ _ _ _ _ _ _ _ _ _ _ _
 72
    65
 73
     2
 40
0.000165
 49
0.000110
 49
-0.000055
  0
LTYPE
  2
CENTER
 70
    64
  3
____ _ ____ _ ____ _ ____ _ ____ _ ____ _ ____
 72
    65
 73
     4
 40
0.000880
 49
0.000550
 49
-0.000110
 49
0.000110
 49
-0.000110
  0
LTYPE
  2
PHANTOM
 70
    64
  3
_____ _ _ _____ _ _ _____ _ _ _____ _ _ ____
 72
    65
 73
     6
 40
0.001100
 49
0.000550
 49
-0.000110
 49
0.000110
 49
-0.000110
 49
0.000110
 49
-0.000110
  0
LTYPE
  2
DOT
 70
    64
  3
...............................................
 72
    65
 73
     2
 40
0.000110
 49
0.000000
 49
-0.000110
  0
LTYPE
  2
DASHDOT
 70
    64
  3
__ . __ . __ . __ . __ . __ . __ . __ . __ . __
 72
    65
 73
     4
 40
0.000440
 49
0.000220
 49
-0.000110
 49
0.000000
 49
-0.000110
  0
LTYPE
  2
BORDER
 70
    64
  3
__ __ . __ __ . __ __ . __ __ . __ __ . __ __
 72
    65
 73
     6
 40
0.000770
 49
0.000220
 49
-0.000110
 49
0.000220
 49
-0.000110
 49
0.000000
 49
-0.000110
  0
LTYPE
  2
DIVIDE
 70
    64
  3
__ . . __ . . __ . . __ . . __ . . __ . . __
 72
    65
 73
     6
 40
0.000550
 49
0.000220
 49
-0.000110
 49
0.000000
 49
-0.000110
 49
0.000000
 49
-0.000110
  0
LTYPE
  2
DOTDOT
 70
    64
  3
 . .  . .  . .  . .  . .  . . 
 72
    65
 73
     5
 40
0.000242
 49
-0.000110
 49
0.000000
 49
-0.000110
 49
0.000000
 49
-0.000110
  0
ENDTAB
  0
TABLE
  2
STYLE
 70
     2
  0
STYLE
 70
     0
  2
SN0
 40
0.000000
 41
0.000440
 50
0.000000
 71
     0
 42
0.000000
  3
ROMAND
  0
STYLE
 70
    68
  2
SV0
 40
0.000000
 41
0.000440
 50
0.000000
 71
     0
 42
0.000000
  3
ROMAND
  0
ENDTAB
  0
TABLE
  2
LAYER
 70
     3
  0
LAYER
  2
FOREGROUND
 70
    64
 62
     7
  6
CONTINUOUS
  0
LAYER
  2
BACKGROUND
 70
    65
 62
    -7
  6
CONTINUOUS
  0
LAYER
  2
0
 70
    64
 62
     7
  6
CONTINUOUS
  0
ENDTAB
  0
ENDSEC
  0
SECTION
  2
ENTITIES
  0
POLYLINE
  8
FOREGROUND
  6
CONTINUOUS
 66
     1
 40
0.000000
 41
0.000000
  0
VERTEX
  8
FOREGROUND
  6
CONTINUOUS
 10
0.000000
 20
3.161400
  0
VERTEX
  8
FOREGROUND
  6
CONTINUOUS
 10
8.499920
 20
3.161400
  0
VERTEX
  8
FOREGROUND
  6
CONTINUOUS
 10
8.499920
 20
-7.838600
  0
VERTEX
  8
FOREGROUND
  6
CONTINUOUS
 10
0.000000
 20
-7.838600
  0
VERTEX
  8
FOREGROUND
  6
CONTINUOUS
 10
0.000000
 20
3.161400
  0
SEQEND
  8
0
  0
POLYLINE
  8
FOREGROUND
  6
CONTINUOUS
 66
     1
 40
0.000000
 41
0.000000
  0
VERTEX
  8
FOREGROUND
  6
CONTINUOUS
 10
0.000000
 20
3.161400
  0
VERTEX
  8
FOREGROUND
  6
CONTINUOUS
 10
8.499920
 20
3.161400
  0
VERTEX
  8
FOREGROUND
  6
CONTINUOUS
 10
8.499920
 20
-7.838600
  0
VERTEX
  8
FOREGROUND
  6
CONTINUOUS
 10
0.000000
 20
-7.838600
  0
VERTEX
  8
FOREGROUND
  6
CONTINUOUS
 10
0.000000
 20
3.161400
  0
SEQEND
  8
0
  0
SOLID
  8
0
 62
    15
 10
5.223680
 20
1.652640
 11
5.224120
 21
2.393600
 12
5.243040
 22
1.597640
 13
5.243480
 23
2.338600
  0
POLYLINE
  8
0
  6
CONTINUOUS
 66
     1
 40
0.000000
 41
0.000000
  0
VERTEX
  8
0
  6
CONTINUOUS
 10
5.223680
 20
1.652640
  0
VERTEX
  8
0
  6
CONTINUOUS
 10
5.224120
 20
2.393600
  0
VERTEX
  8
0
  6
CONTINUOUS
 10
5.243480
 20
2.338600
  0
VERTEX
  8
0
  6
CONTINUOUS
 10
5.243040
 20
1.597640
  0
VERTEX
  8
0
  6
CONTINUOUS
 10
5.223680
 20
1.652640
  0
SEQEND
  8
0
  0
SOLID
  8
0
 62
    15
 10
4.664880
 20
1.566840
 11
4.665760
 21
2.307800
 12
4.669720
 22
1.597200
 13
4.670600
 23
2.338160
  0
POLYLINE
  8
0
  6
CONTINUOUS
 66
     1
 40
0.000000
 41
0.000000
  0
VERTEX
  8
0
  6
CONTINUOUS
 10
4.664880
 20
1.566840
  0
VERTEX
  8
0
  6
CONTINUOUS
 10
4.665760
 20
2.307800
  0
VERTEX
  8
0
  6
CONTINUOUS
 10
4.670600
 20
2.338160
  0
VERTEX
  8
0
  6
CONTINUOUS
 10
4.669720
 20
1.597200
  0
VERTEX
  8
0
  6
CONTINUOUS
 10
4.664880
 20
1.566840
  0
SEQEND
  8
0
  0
SOLID
  8
0
 62
    15
 10
4.669720
 20
1.597200
 11
4.670600
 21
2.338160
 12
4.688200
 22
1.651760
 13
4.689080
 23
2.393160
  0
POLYLINE
  8
0
  6
CONTINUOUS
 66
     1
 40
0.000000
 41
0.000000
  0
VERTEX
  8
0
  6
CONTINUOUS
 10
4.669720
 20
1.597200
  0
VERTEX
  8
0
  6
CONTINUOUS
 10
4.670600
 20
2.338160
  0
VERTEX
  8
0
  6
CONTINUOUS
 10
4.689080
 20
2.393160
  0
VERTEX
  8
0
  6
CONTINUOUS
 10
4.688200
 20
1.651760
  0
VERTEX
  8
0
  6
CONTINUOUS
 10
4.669720
 20
1.597200
  0
SEQEND
  8
0
  0
SOLID
  8
0
 62
    15
 10
4.688200
 20
1.651760
 11
4.689080
 21
2.393160
 12
4.716800
 22
1.698400
 13
4.717680
 23
2.439360
  0
POLYLINE
  8
0
  6
CONTINUOUS
 66
     1
 40
0.000000
 41
0.000000
  0
VERTEX
  8
0
  6
CONTINUOUS
 10
4.688200
 20
1.651760
  0
VERTEX
  8
0
  6
CONTINUOUS
 10
4.689080
 20
2.393160
  0
VERTEX
  8
0
  6
CONTINUOUS
 10
4.717680
 20
2.439360
  0
VERTEX
  8
0
  6
CONTINUOUS
 10
4.716800
 20
1.698400
  0
VERTEX
  8
0
  6
CONTINUOUS
 10
4.688200
 20
1.651760
  0
SEQEND
  8
0
  0
SOLID
  8
0
 62
    15
 10
4.716800
 20
1.698400
 11
4.717680
 21
2.439360
 12
4.754200
 22
1.736240
 13
4.754640
 23
2.477200
  0
POLYLINE
  8
0
  6
CONTINUOUS
 66
     1
 40
0.000000
 41
0.000000
  0
VERTEX
  8
0
  6
CONTINUOUS
 10
4.716800
 20
1.698400
  0
VERTEX
  8
0
  6
CONTINUOUS
 10
4.717680
 20
2.439360
  0
VERTEX
  8
0
  6
CONTINUOUS
 10
4.754640
 20
2.477200
  0
VERTEX
  8
0
  6
CONTINUOUS
 10
4.754200
 20
1.736240
  0
VERTEX
  8
0
  6
CONTINUOUS
 10
4.716800
 20
1.698400
  0
SEQEND
  8
0
  0
SOLID
  8
0
 62
    15
 10
4.754200
 20
1.736240
 11
4.754640
 21
2.477200
 12
4.798200
 22
1.765720
 13
4.799080
 23
2.506680
  0
POLYLINE
  8
0
  6
CONTINUOUS
 66
     1
 40
0.000000
 41
0.000000
  0
VERTEX
  8
0
  6
CONTINUOUS
 10
4.754200
 20
1.736240
  0
VERTEX
  8
0
  6
CONTINUOUS
 10
4.754640
 20
2.477200
  0
VERTEX
  8
0
  6
CONTINUOUS
 10
4.799080
 20
2.506680
  0
VERTEX
  8
0
  6
CONTINUOUS
 10
4.798200
 20
1.765720
  0
VERTEX
  8
0
  6
CONTINUOUS
 10
4.754200
 20
1.736240
  0
SEQEND
  8
0
  0
SOLID
  8
0
 62
    15
 10
4.798200
 20
1.765720
 11
4.799080
 21
2.506680
 12
4.847480
 22
1.786840
 13
4.847920
 23
2.527800
  0
POLYLINE
  8
0
  6
CONTINUOUS
 66
     1
 40
0.000000
 41
0.000000
  0
VERTEX
  8
0
  6
CONTINUOUS
 10
4.798200
 20
1.765720
  0
VERTEX
  8
0
  6
CONTINUOUS
 10
4.799080
 20
2.506680
  0
VERTEX
  8
0
  6
CONTINUOUS
 10
4.847920
 20
2.527800
  0
VERTEX
  8
0
  6
CONTINUOUS
 10
4.847480
 20
1.786840
  0
VERTEX
  8
0
  6
CONTINUOUS
 10
4.798200
 20
1.765720
  0
SEQEND
  8
0
  0
SOLID
  8
0
 62
    15
 10
4.847480
 20
1.786840
 11
4.847920
 21
2.527800
 12
4.900280
 22
1.799600
 13
4.900720
 23
2.541000
  0
POLYLINE
  8
0
  6
CONTINUOUS
 66
     1
 40
0.000000
 41
0.000000
  0
VERTEX
  8
0
  6
CONTINUOUS
 10
4.847480
 20
1.786840
  0
VERTEX
  8
0
  6
CONTINUOUS
 10
4.847920
 20
2.527800
  0
VERTEX
  8
0
  6
CONTINUOUS
 10
4.900720
 20
2.541000
  0
VERTEX
  8
0
  6
CONTINUOUS
 10
4.900280
 20
1.799600
  0
VERTEX
  8
0
  6
CONTINUOUS
 10
4.847480
 20
1.786840
  0
SEQEND
  8
0
  0
SOLID
  8
0
 62
    15
 10
4.900280
 20
1.799600
 11
4.900720
 21
2.541000
 12
4.954840
 22
1.804000
 13
4.955280
 23
2.544960
  0
POLYLINE
  8
0
  6
CONTINUOUS
 66
     1
 40
0.000000
 41
0.000000
  0
VERTEX
  8
0
  6
CONTINUOUS
 10
4.900280
 20
1.799600
  0
VERTEX
  8
0
  6
CONTINUOUS
 10
4.900720
 20
2.541000
  0
VERTEX
  8
0
  6
CONTINUOUS
 10
4.955280
 20
2.544960
  0
VERTEX
  8
0
  6
CONTINUOUS
 10
4.954840
 20
1.804000
  0
VERTEX
  8
0
  6
CONTINUOUS
 10
4.900280
 20
1.799600
  0
SEQEND
  8
0
  0
SOLID
  8
0
 62
    15
 10
4.954840
 20
1.804000
 11
4.955280
 21
2.544960
 12
5.009400
 22
1.800040
 13
5.009840
 23
2.541000
  0
POLYLINE
  8
0
  6
CONTINUOUS
 66
     1
 40
0.000000
 41
0.000000
  0
VERTEX
  8
0
  6
CONTINUOUS
 10
4.954840
 20
1.804000
  0
VERTEX
  8
0
  6
CONTINUOUS
 10
4.955280
 20
2.544960
  0
VERTEX
  8
0
  6
CONTINUOUS
 10
5.009840
 20
2.541000
  0
VERTEX
  8
0
  6
CONTINUOUS
 10
5.009400
 20
1.800040
  0
VERTEX
  8
0
  6
CONTINUOUS
 10
4.954840
 20
1.804000
  0
SEQEND
  8
0
  0
SOLID
  8
0
 62
    15
 10
5.009400
 20
1.800040
 11
5.009840
 21
2.541000
 12
5.062200
 22
1.787720
 13
5.062640
 23
2.528680
  0
POLYLINE
  8
0
  6
CONTINUOUS
 66
     1
 40
0.000000
 41
0.000000
  0
VERTEX
  8
0
  6
CONTINUOUS
 10
5.009400
 20
1.800040
  0
VERTEX
  8
0
  6
CONTINUOUS
 10
5.009840
 20
2.541000
  0
VERTEX
  8
0
  6
CONTINUOUS
 10
5.062640
 20
2.528680
  0
VERTEX
  8
0
  6
CONTINUOUS
 10
5.062200
 20
1.787720
  0
VERTEX
  8
0
  6
CONTINUOUS
 10
5.009400
 20
1.800040
  0
SEQEND
  8
0
  0
SOLID
  8
0
 62
    15
 10
5.062200
 20
1.787720
 11
5.062640
 21
2.528680
 12
5.111920
 22
1.766600
 13
5.112360
 23
2.507560
  0
POLYLINE
  8
0
  6
CONTINUOUS
 66
     1
 40
0.000000
 41
0.000000
  0
VERTEX
  8
0
  6
CONTINUOUS
 10
5.062200
 20
1.787720
  0
VERTEX
  8
0
  6
CONTINUOUS
 10
5.062640
 20
2.528680
  0
VERTEX
  8
0
  6
CONTINUOUS
 10
5.112360
 20
2.507560
  0
VERTEX
  8
0
  6
CONTINUOUS
 10
5.111920
 20
1.766600
  0
VERTEX
  8
0
  6
CONTINUOUS
 10
5.062200
 20
1.787720
  0
SEQEND
  8
0
  0
SOLID
  8
0
 62
    15
 10
5.111920
 20
1.766600
 11
5.112360
 21
2.507560
 12
5.156360
 22
1.737120
 13
5.156800
 23
2.478080
  0
POLYLINE
  8
0
  6
CONTINUOUS
 66
     1
 40
0.000000
 41
0.000000
  0
VERTEX
  8
0
  6
CONTINUOUS
 10
5.111920
 20
1.766600
  0
VERTEX
  8
0
  6
CONTINUOUS
 10
5.112360
 20
2.507560
  0
VERTEX
  8
0
  6
CONTINUOUS
 10
5.156800
 20
2.478080
  0
VERTEX
  8
0
  6
CONTINUOUS
 10
5.156360
 20
1.737120
  0
VERTEX
  8
0
  6
CONTINUOUS
 10
5.111920
 20
1.766600
  0
SEQEND
  8
0
  0
SOLID
  8
0
 62
    15
 10
5.156360
 20
1.737120
 11
5.156800
 21
2.478080
 12
5.194200
 22
1.699280
 13
5.194640
 23
2.440240
  0
POLYLINE
  8
0
  6
CONTINUOUS
 66
     1
 40
0.000000
 41
0.000000
  0
VERTEX
  8
0
  6
CONTINUOUS
 10
5.156360
 20
1.737120
  0
VERTEX
  8
0
  6
CONTINUOUS
 10
5.156800
 20
2.478080
  0
VERTEX
  8
0
  6
CONTINUOUS
 10
5.194640
 20
2.440240
  0
VERTEX
  8
0
  6
CONTINUOUS
 10
5.194200
 20
1.699280
  0
VERTEX
  8
0
  6
CONTINUOUS
 10
5.156360
 20
1.737120
  0
SEQEND
  8
0
  0
SOLID
  8
0
 62
    15
 10
5.194200
 20
1.699280
 11
5.194640
 21
2.440240
 12
5.223680
 22
1.652640
 13
5.224120
 23
2.393600
  0
POLYLINE
  8
0
  6
CONTINUOUS
 66
     1
 40
0.000000
 41
0.000000
  0
VERTEX
  8
0
  6
CONTINUOUS
 10
5.194200
 20
1.699280
  0
VERTEX
  8
0
  6
CONTINUOUS
 10
5.194640
 20
2.440240
  0
VERTEX
  8
0
  6
CONTINUOUS
 10
5.224120
 20
2.393600
  0
VERTEX
  8
0
  6
CONTINUOUS
 10
5.223680
 20
1.652640
  0
VERTEX
  8
0
  6
CONTINUOUS
 10
5.194200
 20
1.699280
  0
SEQEND
  8
0
  0
SOLID
  8
0
 62
    15
 10
4.663560
 20
1.534280
 11
4.664000
 21
2.275240
 12
4.664880
 22
1.566840
 13
4.665760
 23
2.307800
  0
POLYLINE
  8
0
  6
CONTINUOUS
 66
     1
 40
0.000000
 41
0.000000
  0
VERTEX
  8
0
  6
CONTINUOUS
 10
4.663560
 20
1.534280
  0
VERTEX
  8
0
  6
CONTINUOUS
 10
4.664000
 20
2.275240
  0
VERTEX
  8
0
  6
CONTINUOUS
 10
4.665760
 20
2.307800
  0
VERTEX
  8
0
  6
CONTINUOUS
 10
4.664880
 20
1.566840
  0
VERTEX
  8
0
  6
CONTINUOUS
 10
4.663560
 20
1.534280
  0
SEQEND
  8
0
  0
SOLID
  8
0
 62
    15
 10
5.243040
 20
1.597640
 11
5.243480
 21
2.338600
 12
5.248320
 22
1.567280
 13
5.248760
 23
2.308240
  0
POLYLINE
  8
0
  6
CONTINUOUS
 66
     1
 40
0.000000
 41
0.000000
  0
VERTEX
  8
0
  6
CONTINUOUS
 10
5.243040
 20
1.597640
  0
VERTEX
  8
0
  6
CONTINUOUS
 10
5.243480
 20
2.338600
  0
VERTEX
  8
0
  6
CONTINUOUS
 10
5.248760
 20
2.308240
  0
VERTEX
  8
0
  6
CONTINUOUS
 10
5.248320
 20
1.567280
  0
VERTEX
  8
0
  6
CONTINUOUS
 10
5.243040
 20
1.597640
  0
SEQEND
  8
0
  0
SOLID
  8
0
 62
    15
 10
5.248320
 20
1.567280
 11
5.248760
 21
2.308240
 12
5.250520
 22
1.534280
 13
5.251400
 23
2.275240
  0
POLYLINE
  8
0
  6
CONTINUOUS
 66
     1
 40
0.000000
 41
0.000000
  0
VERTEX
  8
0
  6
CONTINUOUS
 10
5.248320
 20
1.567280
  0
VERTEX
  8
0
  6
CONTINUOUS
 10
5.248760
 20
2.308240
  0
VERTEX
  8
0
  6
CONTINUOUS
 10
5.251400
 20
2.275240
  0
VERTEX
  8
0
  6
CONTINUOUS
 10
5.250520
 20
1.534280
  0
VERTEX
  8
0
  6
CONTINUOUS
 10
5.248320
 20
1.567280
  0
SEQEND
  8
0
  0
SOLID
  8
0
 62
    15
 10
5.250520
 20
1.534280
 11
5.251400
 21
2.275240
 12
5.318720
 22
1.533400
 13
5.319160
 23
2.274360
  0
POLYLINE
  8
0
  6
CONTINUOUS
 66
     1
 40
0.000000
 41
0.000000
  0
VERTEX
  8
0
  6
CONTINUOUS
 10
5.250520
 20
1.534280
  0
VERTEX
  8
0
  6
CONTINUOUS
 10
5.251400
 20
2.275240
  0
VERTEX
  8
0
  6
CONTINUOUS
 10
5.319160
 20
2.274360
  0
VERTEX
  8
0
  6
CONTINUOUS
 10
5.318720
 20
1.533400
  0
VERTEX
  8
0
  6
CONTINUOUS
 10
5.250520
 20
1.534280
  0
SEQEND
  8
0
  0
SOLID
  8
0
 62
    15
 10
5.318720
 20
1.533400
 11
5.319160
 21
2.274360
 12
5.383840
 22
1.529880
 13
5.384280
 23
2.270840
  0
POLYLINE
  8
0
  6
CONTINUOUS
 66
     1
 40
0.000000
 41
0.000000
  0
VERTEX
  8
0
  6
CONTINUOUS
 10
5.318720
 20
1.533400
  0
VERTEX
  8
0
  6
CONTINUOUS
 10
5.319160
 20
2.274360
  0
VERTEX
  8
0
  6
CONTINUOUS
 10
5.384280
 20
2.270840
  0
VERTEX
  8
0
  6
CONTINUOUS
 10
5.383840
 20
1.529880
  0
VERTEX
  8
0
  6
CONTINUOUS
 10
5.318720
 20
1.533400
  0
SEQEND
  8
0
  0
SOLID
  8
0
 62
    15
 10
5.383840
 20
1.529880
 11
5.384280
 21
2.270840
 12
5.445880
 22
1.521960
 13
5.446320
 23
2.262920
  0
POLYLINE
  8
0
  6
CONTINUOUS
 66
     1
 40
0.000000
 41
0.000000
  0
VERTEX
  8
0
  6
CONTINUOUS
 10
5.383840
 20
1.529880
  0
VERTEX
  8
0
  6
CONTINUOUS
 10
5.384280
 20
2.270840
  0
VERTEX
  8
0
  6
CONTINUOUS
 10
5.446320
 20
2.262920
  0
VERTEX
  8
0
  6
CONTINUOUS
 10
5.445880
 20
1.521960
  0
VERTEX
  8
0
  6
CONTINUOUS
 10
5.383840
 20
1.529880
  0
SEQEND
  8
0
  0
SOLID
  8
0
 62
    15
 10
5.445880
 20
1.521960
 11
5.446320
 21
2.262920
 12
5.506160
 22
1.507880
 13
5.506600
 23
2.249280
  0
POLYLINE
  8
0
  6
CONTINUOUS
 66
     1
 40
0.000000
 41
0.000000
  0
VERTEX
  8
0
  6
CONTINUOUS
 10
5.445880
 20
1.521960
  0
VERTEX
  8
0
  6
CONTINUOUS
 10
5.446320
 20
2.262920
  0
VERTEX
  8
0
  6
CONTINUOUS
 10
5.506600
 20
2.249280
  0
VERTEX
  8
0
  6
CONTINUOUS
 10
5.506160
 20
1.507880
  0
VERTEX
  8
0
  6
CONTINUOUS
 10
5.445880
 20
1.521960
  0
SEQEND
  8
0
  0
SOLID
  8
0
 62
    15
 10
5.506160
 20
1.507880
 11
5.506600
 21
2.249280
 12
5.565560
 22
1.486320
 13
5.566000
 23
2.227720
  0
POLYLINE
  8
0
  6
CONTINUOUS
 66
     1
 40
0.000000
 41
0.000000
  0
VERTEX
  8
0
  6
CONTINUOUS
 10
5.506160
 20
1.507880
  0
VERTEX
  8
0
  6
CONTINUOUS
 10
5.506600
 20
2.249280
  0
VERTEX
  8
0
  6
CONTINUOUS
 10
5.566000
 20
2.227720
  0
VERTEX
  8
0
  6
CONTINUOUS
 10
5.565560
 20
1.486320
  0
VERTEX
  8
0
  6
CONTINUOUS
 10
5.506160
 20
1.507880
  0
SEQEND
  8
0
  0
SOLID
  8
0
 62
    15
 10
5.565560
 20
1.486320
 11
5.566000
 21
2.227720
 12
5.624080
 22
1.455960
 13
5.624960
 23
2.196920
  0
POLYLINE
  8
0
  6
CONTINUOUS
 66
     1
 40
0.000000
 41
0.000000
  0
VERTEX
  8
0
  6
CONTINUOUS
 10
5.565560
 20
1.486320
  0
VERTEX
  8
0
  6
CONTINUOUS
 10
5.566000
 20
2.227720
  0
VERTEX
  8
0
  6
CONTINUOUS
 10
5.624960
 20
2.196920
  0
VERTEX
  8
0
  6
CONTINUOUS
 10
5.624080
 20
1.455960
  0
VERTEX
  8
0
  6
CONTINUOUS
 10
5.565560
 20
1.486320
  0
SEQEND
  8
0
  0
SOLID
  8
0
 62
    15
 10
5.624080
 20
1.455960
 11
5.624960
 21
2.196920
 12
5.683480
 22
1.414160
 13
5.683920
 23
2.155120
  0
POLYLINE
  8
0
  6
CONTINUOUS
 66
     1
 40
0.000000
 41
0.000000
  0
VERTEX
  8
0
  6
CONTINUOUS
 10
5.624080
 20
1.455960
  0
VERTEX
  8
0
  6
CONTINUOUS
 10
5.624960
 20
2.196920
  0
VERTEX
  8
0
  6
CONTINUOUS
 10
5.683920
 20
2.155120
  0
VERTEX
  8
0
  6
CONTINUOUS
 10
5.683480
 20
1.414160
  0
VERTEX
  8
0
  6
CONTINUOUS
 10
5.624080
 20
1.455960
  0
SEQEND
  8
0
  0
SOLID
  8
0
 62
    15
 10
5.683480
 20
1.414160
 11
5.683920
 21
2.155120
 12
5.743320
 22
1.360040
 13
5.744200
 23
2.101000
  0
POLYLINE
  8
0
  6
CONTINUOUS
 66
     1
 40
0.000000
 41
0.000000
  0
VERTEX
  8
0
  6
CONTINUOUS
 10
5.683480
 20
1.414160
  0
VERTEX
  8
0
  6
CONTINUOUS
 10
5.683920
 20
2.155120
  0
VERTEX
  8
0
  6
CONTINUOUS
 10
5.744200
 20
2.101000
  0
VERTEX
  8
0
  6
CONTINUOUS
 10
5.743320
 20
1.360040
  0
VERTEX
  8
0
  6
CONTINUOUS
 10
5.683480
 20
1.414160
  0
SEQEND
  8
0
  0
SOLID
  8
0
 62
    15
 10
6.031520
 20
1.360040
 11
6.032400
 21
2.101000
 12
6.031520
 22
1.045000
 13
6.032400
 23
1.786400
  0
POLYLINE
  8
0
  6
CONTINUOUS
 66
     1
 40
0.000000
 41
0.000000
  0
VERTEX
  8
0
  6
CONTINUOUS
 10
6.031520
 20
1.360040
  0
VERTEX
  8
0
  6
CONTINUOUS
 10
6.032400
 20
2.101000
  0
VERTEX
  8
0
  6
CONTINUOUS
 10
6.032400
 20
1.786400
  0
VERTEX
  8
0
  6
CONTINUOUS
 10
6.031520
 20
1.045000
  0
VERTEX
  8
0
  6
CONTINUOUS
 10
6.031520
 20
1.360040
  0
SEQEND
  8
0
  0
SOLID
  8
0
 62
    15
 10
5.743320
 20
1.360040
 11
5.744200
 21
2.101000
 12
6.031520
 22
1.360040
 13
6.032400
 23
2.101000
  0
POLYLINE
  8
0
  6
CONTINUOUS
 66
     1
 40
0.000000
 41
0.000000
  0
VERTEX
  8
0
  6
CONTINUOUS
 10
5.743320
 20
1.360040
  0
VERTEX
  8
0
  6
CONTINUOUS
 10
5.744200
 20
2.101000
  0
VERTEX
  8
0
  6
CONTINUOUS
 10
6.032400
 20
2.101000
  0
VERTEX
  8
0
  6
CONTINUOUS
 10
6.031520
 20
1.360040
  0
VERTEX
  8
0
  6
CONTINUOUS
 10
5.743320
 20
1.360040
  0
SEQEND
  8
0
  0
SOLID
  8
0
 62
    15
 10
4.515720
 20
1.533400
 11
4.516160
 21
2.274360
 12
4.662680
 22
1.533400
 13
4.663120
 23
2.274360
  0
POLYLINE
  8
0
  6
CONTINUOUS
 66
     1
 40
0.000000
 41
0.000000
  0
VERTEX
  8
0
  6
CONTINUOUS
 10
4.515720
 20
1.533400
  0
VERTEX
  8
0
  6
CONTINUOUS
 10
4.516160
 20
2.274360
  0
VERTEX
  8
0
  6
CONTINUOUS
 10
4.663120
 20
2.274360
  0
VERTEX
  8
0
  6
CONTINUOUS
 10
4.662680
 20
1.533400
  0
VERTEX
  8
0
  6
CONTINUOUS
 10
4.515720
 20
1.533400
  0
SEQEND
  8
0
  0
SOLID
  8
0
 62
    15
 10
4.662680
 20
1.533400
 11
4.663120
 21
2.274360
 12
4.663560
 22
1.534280
 13
4.664000
 23
2.275240
  0
POLYLINE
  8
0
  6
CONTINUOUS
 66
     1
 40
0.000000
 41
0.000000
  0
VERTEX
  8
0
  6
CONTINUOUS
 10
4.662680
 20
1.533400
  0
VERTEX
  8
0
  6
CONTINUOUS
 10
4.663120
 20
2.274360
  0
VERTEX
  8
0
  6
CONTINUOUS
 10
4.664000
 20
2.275240
  0
VERTEX
  8
0
  6
CONTINUOUS
 10
4.663560
 20
1.534280
  0
VERTEX
  8
0
  6
CONTINUOUS
 10
4.662680
 20
1.533400
  0
SEQEND
  8
0
  0
POLYLINE
  8
0
  6
CONTINUOUS
 66
     1
 40
0.000000
 41
0.000000
  0
VERTEX
  8
0
  6
CONTINUOUS
 10
4.663560
 20
1.534280
  0
VERTEX
  8
0
  6
CONTINUOUS
 10
4.664880
 20
1.566840
  0
VERTEX
  8
0
  6
CONTINUOUS
 10
4.669720
 20
1.597200
  0
VERTEX
  8
0
  6
CONTINUOUS
 10
4.688200
 20
1.651760
  0
VERTEX
  8
0
  6
CONTINUOUS
 10
4.716800
 20
1.698400
  0
VERTEX
  8
0
  6
CONTINUOUS
 10
4.754200
 20
1.736240
  0
VERTEX
  8
0
  6
CONTINUOUS
 10
4.798200
 20
1.765720
  0
VERTEX
  8
0
  6
CONTINUOUS
 10
4.847480
 20
1.786840
  0
VERTEX
  8
0
  6
CONTINUOUS
 10
4.900280
 20
1.799600
  0
VERTEX
  8
0
  6
CONTINUOUS
 10
4.954840
 20
1.804000
  0
VERTEX
  8
0
  6
CONTINUOUS
 10
5.009400
 20
1.800040
  0
VERTEX
  8
0
  6
CONTINUOUS
 10
5.062200
 20
1.787720
  0
VERTEX
  8
0
  6
CONTINUOUS
 10
5.111920
 20
1.766600
  0
VERTEX
  8
0
  6
CONTINUOUS
 10
5.156360
 20
1.737120
  0
VERTEX
  8
0
  6
CONTINUOUS
 10
5.194200
 20
1.699280
  0
VERTEX
  8
0
  6
CONTINUOUS
 10
5.223680
 20
1.652640
  0
VERTEX
  8
0
  6
CONTINUOUS
 10
5.243040
 20
1.597640
  0
VERTEX
  8
0
  6
CONTINUOUS
 10
5.248320
 20
1.567280
  0
VERTEX
  8
0
  6
CONTINUOUS
 10
5.250520
 20
1.534280
  0
VERTEX
  8
0
  6
CONTINUOUS
 10
5.318720
 20
1.533400
  0
VERTEX
  8
0
  6
CONTINUOUS
 10
5.383840
 20
1.529880
  0
VERTEX
  8
0
  6
CONTINUOUS
 10
5.445880
 20
1.521960
  0
VERTEX
  8
0
  6
CONTINUOUS
 10
5.506160
 20
1.507880
  0
VERTEX
  8
0
  6
CONTINUOUS
 10
5.565560
 20
1.486320
  0
VERTEX
  8
0
  6
CONTINUOUS
 10
5.624080
 20
1.455960
  0
VERTEX
  8
0
  6
CONTINUOUS
 10
5.683480
 20
1.414160
  0
VERTEX
  8
0
  6
CONTINUOUS
 10
5.743320
 20
1.360040
  0
VERTEX
  8
0
  6
CONTINUOUS
 10
6.031520
 20
1.360040
  0
VERTEX
  8
0
  6
CONTINUOUS
 10
6.031520
 20
1.045000
  0
VERTEX
  8
0
  6
CONTINUOUS
 10
4.515720
 20
1.045000
  0
VERTEX
  8
0
  6
CONTINUOUS
 10
4.515720
 20
1.533400
  0
VERTEX
  8
0
  6
CONTINUOUS
 10
4.662680
 20
1.533400
  0
VERTEX
  8
0
  6
CONTINUOUS
 10
4.663560
 20
1.534280
  0
SEQEND
  8
0
  0
TEXT
  8
0
 10
4.931960
 20
0.828960
 40
0.138007
  1
BA  1004
 41
1.000000
  7
SN0
 71
     0
 72
     5
 11
5.614487
 21
0.828960
  0
TEXT
  8
0
 10
4.821960
 20
0.637560
 40
0.138007
  1
3/4" x 1-1/2"
 41
1.000000
  7
SN0
 71
     0
 72
     5
 11
5.722635
 21
0.637560
  0
POLYLINE
  8
0
  6
CONTINUOUS
 66
     1
 40
0.014080
 41
0.014080
  0
VERTEX
  8
0
  6
CONTINUOUS
 10
6.405080
 20
2.290200
  0
VERTEX
  8
0
  6
CONTINUOUS
 10
6.406840
 20
2.322760
  0
VERTEX
  8
0
  6
CONTINUOUS
 10
6.411680
 20
2.353120
  0
VERTEX
  8
0
  6
CONTINUOUS
 10
6.419600
 20
2.381720
  0
VERTEX
  8
0
  6
CONTINUOUS
 10
6.436320
 20
2.420440
  0
VERTEX
  8
0
  6
CONTINUOUS
 10
6.458760
 20
2.454320
  0
VERTEX
  8
0
  6
CONTINUOUS
 10
6.476360
 20
2.474560
  0
VERTEX
  8
0
  6
CONTINUOUS
 10
6.506280
 20
2.500520
  0
VERTEX
  8
0
  6
CONTINUOUS
 10
6.540160
 20
2.522080
  0
VERTEX
  8
0
  6
CONTINUOUS
 10
6.564360
 20
2.533520
  0
VERTEX
  8
0
  6
CONTINUOUS
 10
6.589440
 20
2.543200
  0
VERTEX
  8
0
  6
CONTINUOUS
 10
6.615400
 20
2.550680
  0
VERTEX
  8
0
  6
CONTINUOUS
 10
6.641800
 20
2.555960
  0
VERTEX
  8
0
  6
CONTINUOUS
 10
6.669080
 20
2.559040
  0
VERTEX
  8
0
  6
CONTINUOUS
 10
6.696360
 20
2.559920
  0
VERTEX
  8
0
  6
CONTINUOUS
 10
6.723640
 20
2.559040
  0
VERTEX
  8
0
  6
CONTINUOUS
 10
6.750920
 20
2.555960
  0
VERTEX
  8
0
  6
CONTINUOUS
 10
6.777760
 20
2.550680
  0
VERTEX
  8
0
  6
CONTINUOUS
 10
6.803720
 20
2.543640
  0
VERTEX
  8
0
  6
CONTINUOUS
 10
6.829240
 20
2.533960
  0
VERTEX
  8
0
  6
CONTINUOUS
 10
6.865320
 20
2.515920
  0
VERTEX
  8
0
  6
CONTINUOUS
 10
6.898320
 20
2.493040
  0
VERTEX
  8
0
  6
CONTINUOUS
 10
6.927360
 20
2.465320
  0
VERTEX
  8
0
  6
CONTINUOUS
 10
6.952000
 20
2.432760
  0
VERTEX
  8
0
  6
CONTINUOUS
 10
6.971360
 20
2.395800
  0
VERTEX
  8
0
  6
CONTINUOUS
 10
6.981040
 20
2.368080
  0
VERTEX
  8
0
  6
CONTINUOUS
 10
6.988080
 20
2.338600
  0
VERTEX
  8
0
  6
CONTINUOUS
 10
6.991600
 20
2.306920
  0
VERTEX
  8
0
  6
CONTINUOUS
 10
6.992480
 20
2.290200
  0
VERTEX
  8
0
  6
CONTINUOUS
 10
7.060680
 20
2.289320
  0
VERTEX
  8
0
  6
CONTINUOUS
 10
7.125360
 20
2.285800
  0
VERTEX
  8
0
  6
CONTINUOUS
 10
7.156600
 20
2.282720
  0
VERTEX
  8
0
  6
CONTINUOUS
 10
7.217760
 20
2.271720
  0
VERTEX
  8
0
  6
CONTINUOUS
 10
7.248120
 20
2.263800
  0
VERTEX
  8
0
  6
CONTINUOUS
 10
7.307080
 20
2.242680
  0
VERTEX
  8
0
  6
CONTINUOUS
 10
7.336560
 20
2.228600
  0
VERTEX
  8
0
  6
CONTINUOUS
 10
7.380560
 20
2.202640
  0
VERTEX
  8
0
  6
CONTINUOUS
 10
7.425000
 20
2.170520
  0
VERTEX
  8
0
  6
CONTINUOUS
 10
7.470320
 20
2.131360
  0
VERTEX
  8
0
  6
CONTINUOUS
 10
7.485280
 20
2.116400
  0
VERTEX
  8
0
  6
CONTINUOUS
 10
7.773480
 20
2.116400
  0
VERTEX
  8
0
  6
CONTINUOUS
 10
7.773480
 20
1.801360
  0
VERTEX
  8
0
  6
CONTINUOUS
 10
6.257240
 20
1.801360
  0
VERTEX
  8
0
  6
CONTINUOUS
 10
6.257240
 20
2.289320
  0
VERTEX
  8
0
  6
CONTINUOUS
 10
6.404200
 20
2.289320
  0
VERTEX
  8
0
  6
CONTINUOUS
 10
6.405080
 20
2.290200
  0
SEQEND
  8
0
  0
TEXT
  8
0
 10
6.523440
 20
2.035440
 40
0.138007
  1
BA  1004
 41
1.000000
  7
SN0
 71
     0
 72
     5
 11
7.205967
 21
2.035440
  0
TEXT
  8
0
 10
6.413880
 20
1.843600
 40
0.138007
  1
3/4" x 1-1/2"
 41
1.000000
  7
SN0
 71
     0
 72
     5
 11
7.314555
 21
1.843600
  0
ENDSEC
  0
EOF
