  0
SECTION
  2
HEADER
  9
$ACADVER
  1
AC1006
  9
$EXTMIN
 10
3.121800
 20
0.624800
  9
$EXTMAX
 10
7.410920
 20
3.666520
  9
$LTSCALE
 40
0.044000
  9
$PDMODE
 70
    35
  9
$PDSIZE
 40
0.035200
  0
ENDSEC
  0
SECTION
  2
TABLES
  0
TABLE
  2
LTYPE
 70
     9
  0
LTYPE
  2
CONTINUOUS
 70
    64
  3
Solid line
 72
    65
 73
     0
 40
0.000000
  0
LTYPE
  2
DASHED
 70
    64
  3
__ __ __ __ __ __ __ __ __ __ __ __ __ __ __
 72
    65
 73
     2
 40
0.000330
 49
0.000220
 49
-0.000110
  0
LTYPE
  2
HIDDEN
 70
    64
  3
 _ _ _ _ _ _ _ _ _ _ _ _ _ _ _ _ _ _ _ _ _ _
 72
    65
 73
     2
 40
0.000165
 49
0.000110
 49
-0.000055
  0
LTYPE
  2
CENTER
 70
    64
  3
____ _ ____ _ ____ _ ____ _ ____ _ ____ _ ____
 72
    65
 73
     4
 40
0.000880
 49
0.000550
 49
-0.000110
 49
0.000110
 49
-0.000110
  0
LTYPE
  2
PHANTOM
 70
    64
  3
_____ _ _ _____ _ _ _____ _ _ _____ _ _ ____
 72
    65
 73
     6
 40
0.001100
 49
0.000550
 49
-0.000110
 49
0.000110
 49
-0.000110
 49
0.000110
 49
-0.000110
  0
LTYPE
  2
DOT
 70
    64
  3
...............................................
 72
    65
 73
     2
 40
0.000110
 49
0.000000
 49
-0.000110
  0
LTYPE
  2
DASHDOT
 70
    64
  3
__ . __ . __ . __ . __ . __ . __ . __ . __ . __
 72
    65
 73
     4
 40
0.000440
 49
0.000220
 49
-0.000110
 49
0.000000
 49
-0.000110
  0
LTYPE
  2
BORDER
 70
    64
  3
__ __ . __ __ . __ __ . __ __ . __ __ . __ __
 72
    65
 73
     6
 40
0.000770
 49
0.000220
 49
-0.000110
 49
0.000220
 49
-0.000110
 49
0.000000
 49
-0.000110
  0
LTYPE
  2
DIVIDE
 70
    64
  3
__ . . __ . . __ . . __ . . __ . . __ . . __
 72
    65
 73
     6
 40
0.000550
 49
0.000220
 49
-0.000110
 49
0.000000
 49
-0.000110
 49
0.000000
 49
-0.000110
  0
LTYPE
  2
DOTDOT
 70
    64
  3
 . .  . .  . .  . .  . .  . . 
 72
    65
 73
     5
 40
0.000242
 49
-0.000110
 49
0.000000
 49
-0.000110
 49
0.000000
 49
-0.000110
  0
ENDTAB
  0
TABLE
  2
STYLE
 70
     2
  0
STYLE
 70
     0
  2
SN0
 40
0.000000
 41
0.000440
 50
0.000000
 71
     0
 42
0.000000
  3
ROMAND
  0
STYLE
 70
    68
  2
SV0
 40
0.000000
 41
0.000440
 50
0.000000
 71
     0
 42
0.000000
  3
ROMAND
  0
ENDTAB
  0
TABLE
  2
LAYER
 70
     3
  0
LAYER
  2
FOREGROUND
 70
    64
 62
     7
  6
CONTINUOUS
  0
LAYER
  2
BACKGROUND
 70
    65
 62
    -7
  6
CONTINUOUS
  0
LAYER
  2
0
 70
    64
 62
     7
  6
CONTINUOUS
  0
ENDTAB
  0
ENDSEC
  0
SECTION
  2
ENTITIES
  0
POLYLINE
  8
FOREGROUND
  6
CONTINUOUS
 66
     1
 40
0.000000
 41
0.000000
  0
VERTEX
  8
FOREGROUND
  6
CONTINUOUS
 10
0.000000
 20
4.291320
  0
VERTEX
  8
FOREGROUND
  6
CONTINUOUS
 10
8.499920
 20
4.291320
  0
VERTEX
  8
FOREGROUND
  6
CONTINUOUS
 10
8.499920
 20
-6.708680
  0
VERTEX
  8
FOREGROUND
  6
CONTINUOUS
 10
0.000000
 20
-6.708680
  0
VERTEX
  8
FOREGROUND
  6
CONTINUOUS
 10
0.000000
 20
4.291320
  0
SEQEND
  8
0
  0
POLYLINE
  8
FOREGROUND
  6
CONTINUOUS
 66
     1
 40
0.000000
 41
0.000000
  0
VERTEX
  8
FOREGROUND
  6
CONTINUOUS
 10
0.000000
 20
4.291320
  0
VERTEX
  8
FOREGROUND
  6
CONTINUOUS
 10
8.499920
 20
4.291320
  0
VERTEX
  8
FOREGROUND
  6
CONTINUOUS
 10
8.499920
 20
-6.708680
  0
VERTEX
  8
FOREGROUND
  6
CONTINUOUS
 10
0.000000
 20
-6.708680
  0
VERTEX
  8
FOREGROUND
  6
CONTINUOUS
 10
0.000000
 20
4.291320
  0
SEQEND
  8
0
  0
SOLID
  8
0
 62
    15
 10
3.457080
 20
1.109240
 11
4.215200
 21
1.106600
 12
3.123120
 22
1.109240
 13
3.880800
 23
1.106600
  0
POLYLINE
  8
0
  6
CONTINUOUS
 66
     1
 40
0.000000
 41
0.000000
  0
VERTEX
  8
0
  6
CONTINUOUS
 10
3.457080
 20
1.109240
  0
VERTEX
  8
0
  6
CONTINUOUS
 10
4.215200
 20
1.106600
  0
VERTEX
  8
0
  6
CONTINUOUS
 10
3.880800
 20
1.106600
  0
VERTEX
  8
0
  6
CONTINUOUS
 10
3.123120
 20
1.109240
  0
VERTEX
  8
0
  6
CONTINUOUS
 10
3.457080
 20
1.109240
  0
SEQEND
  8
0
  0
SOLID
  8
0
 62
    15
 10
3.819200
 20
1.866040
 11
4.577320
 21
1.863400
 12
3.817440
 22
1.824680
 13
4.575560
 23
1.822480
  0
POLYLINE
  8
0
  6
CONTINUOUS
 66
     1
 40
0.000000
 41
0.000000
  0
VERTEX
  8
0
  6
CONTINUOUS
 10
3.819200
 20
1.866040
  0
VERTEX
  8
0
  6
CONTINUOUS
 10
4.577320
 20
1.863400
  0
VERTEX
  8
0
  6
CONTINUOUS
 10
4.575560
 20
1.822480
  0
VERTEX
  8
0
  6
CONTINUOUS
 10
3.817440
 20
1.824680
  0
VERTEX
  8
0
  6
CONTINUOUS
 10
3.819200
 20
1.866040
  0
SEQEND
  8
0
  0
SOLID
  8
0
 62
    15
 10
3.888720
 20
1.866040
 11
4.646840
 21
1.863400
 12
3.819200
 22
1.866040
 13
4.577320
 23
1.863400
  0
POLYLINE
  8
0
  6
CONTINUOUS
 66
     1
 40
0.000000
 41
0.000000
  0
VERTEX
  8
0
  6
CONTINUOUS
 10
3.888720
 20
1.866040
  0
VERTEX
  8
0
  6
CONTINUOUS
 10
4.646840
 20
1.863400
  0
VERTEX
  8
0
  6
CONTINUOUS
 10
4.577320
 20
1.863400
  0
VERTEX
  8
0
  6
CONTINUOUS
 10
3.819200
 20
1.866040
  0
VERTEX
  8
0
  6
CONTINUOUS
 10
3.888720
 20
1.866040
  0
SEQEND
  8
0
  0
SOLID
  8
0
 62
    15
 10
3.817440
 20
1.824680
 11
4.575560
 21
1.822480
 12
3.813040
 22
1.785520
 13
4.570720
 23
1.783320
  0
POLYLINE
  8
0
  6
CONTINUOUS
 66
     1
 40
0.000000
 41
0.000000
  0
VERTEX
  8
0
  6
CONTINUOUS
 10
3.817440
 20
1.824680
  0
VERTEX
  8
0
  6
CONTINUOUS
 10
4.575560
 20
1.822480
  0
VERTEX
  8
0
  6
CONTINUOUS
 10
4.570720
 20
1.783320
  0
VERTEX
  8
0
  6
CONTINUOUS
 10
3.813040
 20
1.785520
  0
VERTEX
  8
0
  6
CONTINUOUS
 10
3.817440
 20
1.824680
  0
SEQEND
  8
0
  0
SOLID
  8
0
 62
    15
 10
3.813040
 20
1.785520
 11
4.570720
 21
1.783320
 12
3.795440
 22
1.713800
 13
4.553560
 23
1.711600
  0
POLYLINE
  8
0
  6
CONTINUOUS
 66
     1
 40
0.000000
 41
0.000000
  0
VERTEX
  8
0
  6
CONTINUOUS
 10
3.813040
 20
1.785520
  0
VERTEX
  8
0
  6
CONTINUOUS
 10
4.570720
 20
1.783320
  0
VERTEX
  8
0
  6
CONTINUOUS
 10
4.553560
 20
1.711600
  0
VERTEX
  8
0
  6
CONTINUOUS
 10
3.795440
 20
1.713800
  0
VERTEX
  8
0
  6
CONTINUOUS
 10
3.813040
 20
1.785520
  0
SEQEND
  8
0
  0
SOLID
  8
0
 62
    15
 10
3.795440
 20
1.713800
 11
4.553560
 21
1.711600
 12
3.770360
 22
1.651320
 13
4.528480
 23
1.649120
  0
POLYLINE
  8
0
  6
CONTINUOUS
 66
     1
 40
0.000000
 41
0.000000
  0
VERTEX
  8
0
  6
CONTINUOUS
 10
3.795440
 20
1.713800
  0
VERTEX
  8
0
  6
CONTINUOUS
 10
4.553560
 20
1.711600
  0
VERTEX
  8
0
  6
CONTINUOUS
 10
4.528480
 20
1.649120
  0
VERTEX
  8
0
  6
CONTINUOUS
 10
3.770360
 20
1.651320
  0
VERTEX
  8
0
  6
CONTINUOUS
 10
3.795440
 20
1.713800
  0
SEQEND
  8
0
  0
SOLID
  8
0
 62
    15
 10
3.770360
 20
1.651320
 11
4.528480
 21
1.649120
 12
3.740880
 22
1.597640
 13
4.499000
 23
1.595440
  0
POLYLINE
  8
0
  6
CONTINUOUS
 66
     1
 40
0.000000
 41
0.000000
  0
VERTEX
  8
0
  6
CONTINUOUS
 10
3.770360
 20
1.651320
  0
VERTEX
  8
0
  6
CONTINUOUS
 10
4.528480
 20
1.649120
  0
VERTEX
  8
0
  6
CONTINUOUS
 10
4.499000
 20
1.595440
  0
VERTEX
  8
0
  6
CONTINUOUS
 10
3.740880
 20
1.597640
  0
VERTEX
  8
0
  6
CONTINUOUS
 10
3.770360
 20
1.651320
  0
SEQEND
  8
0
  0
SOLID
  8
0
 62
    15
 10
3.740880
 20
1.597640
 11
4.499000
 21
1.595440
 12
3.709640
 22
1.553640
 13
4.467760
 23
1.551440
  0
POLYLINE
  8
0
  6
CONTINUOUS
 66
     1
 40
0.000000
 41
0.000000
  0
VERTEX
  8
0
  6
CONTINUOUS
 10
3.740880
 20
1.597640
  0
VERTEX
  8
0
  6
CONTINUOUS
 10
4.499000
 20
1.595440
  0
VERTEX
  8
0
  6
CONTINUOUS
 10
4.467760
 20
1.551440
  0
VERTEX
  8
0
  6
CONTINUOUS
 10
3.709640
 20
1.553640
  0
VERTEX
  8
0
  6
CONTINUOUS
 10
3.740880
 20
1.597640
  0
SEQEND
  8
0
  0
SOLID
  8
0
 62
    15
 10
3.709640
 20
1.553640
 11
4.467760
 21
1.551440
 12
3.680160
 22
1.519760
 13
4.438280
 23
1.517560
  0
POLYLINE
  8
0
  6
CONTINUOUS
 66
     1
 40
0.000000
 41
0.000000
  0
VERTEX
  8
0
  6
CONTINUOUS
 10
3.709640
 20
1.553640
  0
VERTEX
  8
0
  6
CONTINUOUS
 10
4.467760
 20
1.551440
  0
VERTEX
  8
0
  6
CONTINUOUS
 10
4.438280
 20
1.517560
  0
VERTEX
  8
0
  6
CONTINUOUS
 10
3.680160
 20
1.519760
  0
VERTEX
  8
0
  6
CONTINUOUS
 10
3.709640
 20
1.553640
  0
SEQEND
  8
0
  0
SOLID
  8
0
 62
    15
 10
3.680160
 20
1.519760
 11
4.438280
 21
1.517560
 12
3.655520
 22
1.496000
 13
4.413200
 23
1.493800
  0
POLYLINE
  8
0
  6
CONTINUOUS
 66
     1
 40
0.000000
 41
0.000000
  0
VERTEX
  8
0
  6
CONTINUOUS
 10
3.680160
 20
1.519760
  0
VERTEX
  8
0
  6
CONTINUOUS
 10
4.438280
 20
1.517560
  0
VERTEX
  8
0
  6
CONTINUOUS
 10
4.413200
 20
1.493800
  0
VERTEX
  8
0
  6
CONTINUOUS
 10
3.655520
 20
1.496000
  0
VERTEX
  8
0
  6
CONTINUOUS
 10
3.680160
 20
1.519760
  0
SEQEND
  8
0
  0
SOLID
  8
0
 62
    15
 10
3.655520
 20
1.496000
 11
4.413200
 21
1.493800
 12
3.638360
 22
1.482800
 13
4.396040
 23
1.480600
  0
POLYLINE
  8
0
  6
CONTINUOUS
 66
     1
 40
0.000000
 41
0.000000
  0
VERTEX
  8
0
  6
CONTINUOUS
 10
3.655520
 20
1.496000
  0
VERTEX
  8
0
  6
CONTINUOUS
 10
4.413200
 20
1.493800
  0
VERTEX
  8
0
  6
CONTINUOUS
 10
4.396040
 20
1.480600
  0
VERTEX
  8
0
  6
CONTINUOUS
 10
3.638360
 20
1.482800
  0
VERTEX
  8
0
  6
CONTINUOUS
 10
3.655520
 20
1.496000
  0
SEQEND
  8
0
  0
SOLID
  8
0
 62
    15
 10
3.638360
 20
1.482800
 11
4.396040
 21
1.480600
 12
3.630880
 22
1.477520
 13
4.388560
 23
1.475320
  0
POLYLINE
  8
0
  6
CONTINUOUS
 66
     1
 40
0.000000
 41
0.000000
  0
VERTEX
  8
0
  6
CONTINUOUS
 10
3.638360
 20
1.482800
  0
VERTEX
  8
0
  6
CONTINUOUS
 10
4.396040
 20
1.480600
  0
VERTEX
  8
0
  6
CONTINUOUS
 10
4.388560
 20
1.475320
  0
VERTEX
  8
0
  6
CONTINUOUS
 10
3.630880
 20
1.477520
  0
VERTEX
  8
0
  6
CONTINUOUS
 10
3.638360
 20
1.482800
  0
SEQEND
  8
0
  0
SOLID
  8
0
 62
    15
 10
3.630880
 20
1.477520
 11
4.388560
 21
1.475320
 12
3.621200
 22
1.469160
 13
4.378880
 23
1.466960
  0
POLYLINE
  8
0
  6
CONTINUOUS
 66
     1
 40
0.000000
 41
0.000000
  0
VERTEX
  8
0
  6
CONTINUOUS
 10
3.630880
 20
1.477520
  0
VERTEX
  8
0
  6
CONTINUOUS
 10
4.388560
 20
1.475320
  0
VERTEX
  8
0
  6
CONTINUOUS
 10
4.378880
 20
1.466960
  0
VERTEX
  8
0
  6
CONTINUOUS
 10
3.621200
 20
1.469160
  0
VERTEX
  8
0
  6
CONTINUOUS
 10
3.630880
 20
1.477520
  0
SEQEND
  8
0
  0
SOLID
  8
0
 62
    15
 10
3.621200
 20
1.469160
 11
4.378880
 21
1.466960
 12
3.596120
 22
1.444960
 13
4.354240
 23
1.442760
  0
POLYLINE
  8
0
  6
CONTINUOUS
 66
     1
 40
0.000000
 41
0.000000
  0
VERTEX
  8
0
  6
CONTINUOUS
 10
3.621200
 20
1.469160
  0
VERTEX
  8
0
  6
CONTINUOUS
 10
4.378880
 20
1.466960
  0
VERTEX
  8
0
  6
CONTINUOUS
 10
4.354240
 20
1.442760
  0
VERTEX
  8
0
  6
CONTINUOUS
 10
3.596120
 20
1.444960
  0
VERTEX
  8
0
  6
CONTINUOUS
 10
3.621200
 20
1.469160
  0
SEQEND
  8
0
  0
SOLID
  8
0
 62
    15
 10
3.596120
 20
1.444960
 11
4.354240
 21
1.442760
 12
3.566640
 22
1.410640
 13
4.324320
 23
1.408000
  0
POLYLINE
  8
0
  6
CONTINUOUS
 66
     1
 40
0.000000
 41
0.000000
  0
VERTEX
  8
0
  6
CONTINUOUS
 10
3.596120
 20
1.444960
  0
VERTEX
  8
0
  6
CONTINUOUS
 10
4.354240
 20
1.442760
  0
VERTEX
  8
0
  6
CONTINUOUS
 10
4.324320
 20
1.408000
  0
VERTEX
  8
0
  6
CONTINUOUS
 10
3.566640
 20
1.410640
  0
VERTEX
  8
0
  6
CONTINUOUS
 10
3.596120
 20
1.444960
  0
SEQEND
  8
0
  0
SOLID
  8
0
 62
    15
 10
3.566640
 20
1.410640
 11
4.324320
 21
1.408000
 12
3.535400
 22
1.366640
 13
4.293520
 23
1.364000
  0
POLYLINE
  8
0
  6
CONTINUOUS
 66
     1
 40
0.000000
 41
0.000000
  0
VERTEX
  8
0
  6
CONTINUOUS
 10
3.566640
 20
1.410640
  0
VERTEX
  8
0
  6
CONTINUOUS
 10
4.324320
 20
1.408000
  0
VERTEX
  8
0
  6
CONTINUOUS
 10
4.293520
 20
1.364000
  0
VERTEX
  8
0
  6
CONTINUOUS
 10
3.535400
 20
1.366640
  0
VERTEX
  8
0
  6
CONTINUOUS
 10
3.566640
 20
1.410640
  0
SEQEND
  8
0
  0
SOLID
  8
0
 62
    15
 10
3.535400
 20
1.366640
 11
4.293520
 21
1.364000
 12
3.505920
 22
1.313840
 13
4.263600
 23
1.311200
  0
POLYLINE
  8
0
  6
CONTINUOUS
 66
     1
 40
0.000000
 41
0.000000
  0
VERTEX
  8
0
  6
CONTINUOUS
 10
3.535400
 20
1.366640
  0
VERTEX
  8
0
  6
CONTINUOUS
 10
4.293520
 20
1.364000
  0
VERTEX
  8
0
  6
CONTINUOUS
 10
4.263600
 20
1.311200
  0
VERTEX
  8
0
  6
CONTINUOUS
 10
3.505920
 20
1.313840
  0
VERTEX
  8
0
  6
CONTINUOUS
 10
3.535400
 20
1.366640
  0
SEQEND
  8
0
  0
SOLID
  8
0
 62
    15
 10
3.505920
 20
1.313840
 11
4.263600
 21
1.311200
 12
3.480840
 22
1.252680
 13
4.238960
 23
1.250480
  0
POLYLINE
  8
0
  6
CONTINUOUS
 66
     1
 40
0.000000
 41
0.000000
  0
VERTEX
  8
0
  6
CONTINUOUS
 10
3.505920
 20
1.313840
  0
VERTEX
  8
0
  6
CONTINUOUS
 10
4.263600
 20
1.311200
  0
VERTEX
  8
0
  6
CONTINUOUS
 10
4.238960
 20
1.250480
  0
VERTEX
  8
0
  6
CONTINUOUS
 10
3.480840
 20
1.252680
  0
VERTEX
  8
0
  6
CONTINUOUS
 10
3.505920
 20
1.313840
  0
SEQEND
  8
0
  0
SOLID
  8
0
 62
    15
 10
3.480840
 20
1.252680
 11
4.238960
 21
1.250480
 12
3.463680
 22
1.184480
 13
4.221360
 23
1.181840
  0
POLYLINE
  8
0
  6
CONTINUOUS
 66
     1
 40
0.000000
 41
0.000000
  0
VERTEX
  8
0
  6
CONTINUOUS
 10
3.480840
 20
1.252680
  0
VERTEX
  8
0
  6
CONTINUOUS
 10
4.238960
 20
1.250480
  0
VERTEX
  8
0
  6
CONTINUOUS
 10
4.221360
 20
1.181840
  0
VERTEX
  8
0
  6
CONTINUOUS
 10
3.463680
 20
1.184480
  0
VERTEX
  8
0
  6
CONTINUOUS
 10
3.480840
 20
1.252680
  0
SEQEND
  8
0
  0
SOLID
  8
0
 62
    15
 10
3.463680
 20
1.184480
 11
4.221360
 21
1.181840
 12
3.458840
 22
1.147520
 13
4.216520
 23
1.145320
  0
POLYLINE
  8
0
  6
CONTINUOUS
 66
     1
 40
0.000000
 41
0.000000
  0
VERTEX
  8
0
  6
CONTINUOUS
 10
3.463680
 20
1.184480
  0
VERTEX
  8
0
  6
CONTINUOUS
 10
4.221360
 20
1.181840
  0
VERTEX
  8
0
  6
CONTINUOUS
 10
4.216520
 20
1.145320
  0
VERTEX
  8
0
  6
CONTINUOUS
 10
3.458840
 20
1.147520
  0
VERTEX
  8
0
  6
CONTINUOUS
 10
3.463680
 20
1.184480
  0
SEQEND
  8
0
  0
SOLID
  8
0
 62
    15
 10
3.458840
 20
1.147520
 11
4.216520
 21
1.145320
 12
3.457080
 22
1.109240
 13
4.215200
 23
1.106600
  0
POLYLINE
  8
0
  6
CONTINUOUS
 66
     1
 40
0.000000
 41
0.000000
  0
VERTEX
  8
0
  6
CONTINUOUS
 10
3.458840
 20
1.147520
  0
VERTEX
  8
0
  6
CONTINUOUS
 10
4.216520
 20
1.145320
  0
VERTEX
  8
0
  6
CONTINUOUS
 10
4.215200
 20
1.106600
  0
VERTEX
  8
0
  6
CONTINUOUS
 10
3.457080
 20
1.109240
  0
VERTEX
  8
0
  6
CONTINUOUS
 10
3.458840
 20
1.147520
  0
SEQEND
  8
0
  0
SOLID
  8
0
 62
    15
 10
3.888720
 20
2.883320
 11
4.646840
 21
2.881120
 12
3.888720
 22
1.866040
 13
4.646840
 23
1.863400
  0
POLYLINE
  8
0
  6
CONTINUOUS
 66
     1
 40
0.000000
 41
0.000000
  0
VERTEX
  8
0
  6
CONTINUOUS
 10
3.888720
 20
2.883320
  0
VERTEX
  8
0
  6
CONTINUOUS
 10
4.646840
 20
2.881120
  0
VERTEX
  8
0
  6
CONTINUOUS
 10
4.646840
 20
1.863400
  0
VERTEX
  8
0
  6
CONTINUOUS
 10
3.888720
 20
1.866040
  0
VERTEX
  8
0
  6
CONTINUOUS
 10
3.888720
 20
2.883320
  0
SEQEND
  8
0
  0
SOLID
  8
0
 62
    15
 10
3.457080
 20
3.640560
 11
4.214760
 21
3.638360
 12
3.458840
 22
3.602280
 13
4.216520
 23
3.599640
  0
POLYLINE
  8
0
  6
CONTINUOUS
 66
     1
 40
0.000000
 41
0.000000
  0
VERTEX
  8
0
  6
CONTINUOUS
 10
3.457080
 20
3.640560
  0
VERTEX
  8
0
  6
CONTINUOUS
 10
4.214760
 20
3.638360
  0
VERTEX
  8
0
  6
CONTINUOUS
 10
4.216520
 20
3.599640
  0
VERTEX
  8
0
  6
CONTINUOUS
 10
3.458840
 20
3.602280
  0
VERTEX
  8
0
  6
CONTINUOUS
 10
3.457080
 20
3.640560
  0
SEQEND
  8
0
  0
SOLID
  8
0
 62
    15
 10
3.458840
 20
3.602280
 11
4.216520
 21
3.599640
 12
3.463680
 22
3.565320
 13
4.221360
 23
3.563120
  0
POLYLINE
  8
0
  6
CONTINUOUS
 66
     1
 40
0.000000
 41
0.000000
  0
VERTEX
  8
0
  6
CONTINUOUS
 10
3.458840
 20
3.602280
  0
VERTEX
  8
0
  6
CONTINUOUS
 10
4.216520
 20
3.599640
  0
VERTEX
  8
0
  6
CONTINUOUS
 10
4.221360
 20
3.563120
  0
VERTEX
  8
0
  6
CONTINUOUS
 10
3.463680
 20
3.565320
  0
VERTEX
  8
0
  6
CONTINUOUS
 10
3.458840
 20
3.602280
  0
SEQEND
  8
0
  0
SOLID
  8
0
 62
    15
 10
3.463680
 20
3.565320
 11
4.221360
 21
3.563120
 12
3.480840
 22
3.496680
 13
4.238520
 23
3.494480
  0
POLYLINE
  8
0
  6
CONTINUOUS
 66
     1
 40
0.000000
 41
0.000000
  0
VERTEX
  8
0
  6
CONTINUOUS
 10
3.463680
 20
3.565320
  0
VERTEX
  8
0
  6
CONTINUOUS
 10
4.221360
 20
3.563120
  0
VERTEX
  8
0
  6
CONTINUOUS
 10
4.238520
 20
3.494480
  0
VERTEX
  8
0
  6
CONTINUOUS
 10
3.480840
 20
3.496680
  0
VERTEX
  8
0
  6
CONTINUOUS
 10
3.463680
 20
3.565320
  0
SEQEND
  8
0
  0
SOLID
  8
0
 62
    15
 10
3.480840
 20
3.496680
 11
4.238520
 21
3.494480
 12
3.505920
 22
3.435960
 13
4.263600
 23
3.433760
  0
POLYLINE
  8
0
  6
CONTINUOUS
 66
     1
 40
0.000000
 41
0.000000
  0
VERTEX
  8
0
  6
CONTINUOUS
 10
3.480840
 20
3.496680
  0
VERTEX
  8
0
  6
CONTINUOUS
 10
4.238520
 20
3.494480
  0
VERTEX
  8
0
  6
CONTINUOUS
 10
4.263600
 20
3.433760
  0
VERTEX
  8
0
  6
CONTINUOUS
 10
3.505920
 20
3.435960
  0
VERTEX
  8
0
  6
CONTINUOUS
 10
3.480840
 20
3.496680
  0
SEQEND
  8
0
  0
SOLID
  8
0
 62
    15
 10
3.505920
 20
3.435960
 11
4.263600
 21
3.433760
 12
3.535400
 22
3.383160
 13
4.293520
 23
3.380960
  0
POLYLINE
  8
0
  6
CONTINUOUS
 66
     1
 40
0.000000
 41
0.000000
  0
VERTEX
  8
0
  6
CONTINUOUS
 10
3.505920
 20
3.435960
  0
VERTEX
  8
0
  6
CONTINUOUS
 10
4.263600
 20
3.433760
  0
VERTEX
  8
0
  6
CONTINUOUS
 10
4.293520
 20
3.380960
  0
VERTEX
  8
0
  6
CONTINUOUS
 10
3.535400
 20
3.383160
  0
VERTEX
  8
0
  6
CONTINUOUS
 10
3.505920
 20
3.435960
  0
SEQEND
  8
0
  0
SOLID
  8
0
 62
    15
 10
3.535400
 20
3.383160
 11
4.293520
 21
3.380960
 12
3.566640
 22
3.339160
 13
4.324320
 23
3.336960
  0
POLYLINE
  8
0
  6
CONTINUOUS
 66
     1
 40
0.000000
 41
0.000000
  0
VERTEX
  8
0
  6
CONTINUOUS
 10
3.535400
 20
3.383160
  0
VERTEX
  8
0
  6
CONTINUOUS
 10
4.293520
 20
3.380960
  0
VERTEX
  8
0
  6
CONTINUOUS
 10
4.324320
 20
3.336960
  0
VERTEX
  8
0
  6
CONTINUOUS
 10
3.566640
 20
3.339160
  0
VERTEX
  8
0
  6
CONTINUOUS
 10
3.535400
 20
3.383160
  0
SEQEND
  8
0
  0
SOLID
  8
0
 62
    15
 10
3.566640
 20
3.339160
 11
4.324320
 21
3.336960
 12
3.596120
 22
3.304400
 13
4.353800
 23
3.302200
  0
POLYLINE
  8
0
  6
CONTINUOUS
 66
     1
 40
0.000000
 41
0.000000
  0
VERTEX
  8
0
  6
CONTINUOUS
 10
3.566640
 20
3.339160
  0
VERTEX
  8
0
  6
CONTINUOUS
 10
4.324320
 20
3.336960
  0
VERTEX
  8
0
  6
CONTINUOUS
 10
4.353800
 20
3.302200
  0
VERTEX
  8
0
  6
CONTINUOUS
 10
3.596120
 20
3.304400
  0
VERTEX
  8
0
  6
CONTINUOUS
 10
3.566640
 20
3.339160
  0
SEQEND
  8
0
  0
SOLID
  8
0
 62
    15
 10
3.596120
 20
3.304400
 11
4.353800
 21
3.302200
 12
3.621200
 22
3.280200
 13
4.378880
 23
3.278000
  0
POLYLINE
  8
0
  6
CONTINUOUS
 66
     1
 40
0.000000
 41
0.000000
  0
VERTEX
  8
0
  6
CONTINUOUS
 10
3.596120
 20
3.304400
  0
VERTEX
  8
0
  6
CONTINUOUS
 10
4.353800
 20
3.302200
  0
VERTEX
  8
0
  6
CONTINUOUS
 10
4.378880
 20
3.278000
  0
VERTEX
  8
0
  6
CONTINUOUS
 10
3.621200
 20
3.280200
  0
VERTEX
  8
0
  6
CONTINUOUS
 10
3.596120
 20
3.304400
  0
SEQEND
  8
0
  0
SOLID
  8
0
 62
    15
 10
3.621200
 20
3.280200
 11
4.378880
 21
3.278000
 12
3.630880
 22
3.272280
 13
4.388560
 23
3.269640
  0
POLYLINE
  8
0
  6
CONTINUOUS
 66
     1
 40
0.000000
 41
0.000000
  0
VERTEX
  8
0
  6
CONTINUOUS
 10
3.621200
 20
3.280200
  0
VERTEX
  8
0
  6
CONTINUOUS
 10
4.378880
 20
3.278000
  0
VERTEX
  8
0
  6
CONTINUOUS
 10
4.388560
 20
3.269640
  0
VERTEX
  8
0
  6
CONTINUOUS
 10
3.630880
 20
3.272280
  0
VERTEX
  8
0
  6
CONTINUOUS
 10
3.621200
 20
3.280200
  0
SEQEND
  8
0
  0
SOLID
  8
0
 62
    15
 10
3.630880
 20
3.272280
 11
4.388560
 21
3.269640
 12
3.638360
 22
3.266560
 13
4.396040
 23
3.264360
  0
POLYLINE
  8
0
  6
CONTINUOUS
 66
     1
 40
0.000000
 41
0.000000
  0
VERTEX
  8
0
  6
CONTINUOUS
 10
3.630880
 20
3.272280
  0
VERTEX
  8
0
  6
CONTINUOUS
 10
4.388560
 20
3.269640
  0
VERTEX
  8
0
  6
CONTINUOUS
 10
4.396040
 20
3.264360
  0
VERTEX
  8
0
  6
CONTINUOUS
 10
3.638360
 20
3.266560
  0
VERTEX
  8
0
  6
CONTINUOUS
 10
3.630880
 20
3.272280
  0
SEQEND
  8
0
  0
SOLID
  8
0
 62
    15
 10
3.638360
 20
3.266560
 11
4.396040
 21
3.264360
 12
3.655080
 22
3.253360
 13
4.413200
 23
3.251160
  0
POLYLINE
  8
0
  6
CONTINUOUS
 66
     1
 40
0.000000
 41
0.000000
  0
VERTEX
  8
0
  6
CONTINUOUS
 10
3.638360
 20
3.266560
  0
VERTEX
  8
0
  6
CONTINUOUS
 10
4.396040
 20
3.264360
  0
VERTEX
  8
0
  6
CONTINUOUS
 10
4.413200
 20
3.251160
  0
VERTEX
  8
0
  6
CONTINUOUS
 10
3.655080
 20
3.253360
  0
VERTEX
  8
0
  6
CONTINUOUS
 10
3.638360
 20
3.266560
  0
SEQEND
  8
0
  0
SOLID
  8
0
 62
    15
 10
3.655080
 20
3.253360
 11
4.413200
 21
3.251160
 12
3.680160
 22
3.229600
 13
4.437840
 23
3.227400
  0
POLYLINE
  8
0
  6
CONTINUOUS
 66
     1
 40
0.000000
 41
0.000000
  0
VERTEX
  8
0
  6
CONTINUOUS
 10
3.655080
 20
3.253360
  0
VERTEX
  8
0
  6
CONTINUOUS
 10
4.413200
 20
3.251160
  0
VERTEX
  8
0
  6
CONTINUOUS
 10
4.437840
 20
3.227400
  0
VERTEX
  8
0
  6
CONTINUOUS
 10
3.680160
 20
3.229600
  0
VERTEX
  8
0
  6
CONTINUOUS
 10
3.655080
 20
3.253360
  0
SEQEND
  8
0
  0
SOLID
  8
0
 62
    15
 10
3.680160
 20
3.229600
 11
4.437840
 21
3.227400
 12
3.709640
 22
3.195720
 13
4.467760
 23
3.193520
  0
POLYLINE
  8
0
  6
CONTINUOUS
 66
     1
 40
0.000000
 41
0.000000
  0
VERTEX
  8
0
  6
CONTINUOUS
 10
3.680160
 20
3.229600
  0
VERTEX
  8
0
  6
CONTINUOUS
 10
4.437840
 20
3.227400
  0
VERTEX
  8
0
  6
CONTINUOUS
 10
4.467760
 20
3.193520
  0
VERTEX
  8
0
  6
CONTINUOUS
 10
3.709640
 20
3.195720
  0
VERTEX
  8
0
  6
CONTINUOUS
 10
3.680160
 20
3.229600
  0
SEQEND
  8
0
  0
SOLID
  8
0
 62
    15
 10
3.709640
 20
3.195720
 11
4.467760
 21
3.193520
 12
3.740880
 22
3.151720
 13
4.498560
 23
3.149520
  0
POLYLINE
  8
0
  6
CONTINUOUS
 66
     1
 40
0.000000
 41
0.000000
  0
VERTEX
  8
0
  6
CONTINUOUS
 10
3.709640
 20
3.195720
  0
VERTEX
  8
0
  6
CONTINUOUS
 10
4.467760
 20
3.193520
  0
VERTEX
  8
0
  6
CONTINUOUS
 10
4.498560
 20
3.149520
  0
VERTEX
  8
0
  6
CONTINUOUS
 10
3.740880
 20
3.151720
  0
VERTEX
  8
0
  6
CONTINUOUS
 10
3.709640
 20
3.195720
  0
SEQEND
  8
0
  0
SOLID
  8
0
 62
    15
 10
3.740880
 20
3.151720
 11
4.498560
 21
3.149520
 12
3.770360
 22
3.098480
 13
4.528480
 23
3.095840
  0
POLYLINE
  8
0
  6
CONTINUOUS
 66
     1
 40
0.000000
 41
0.000000
  0
VERTEX
  8
0
  6
CONTINUOUS
 10
3.740880
 20
3.151720
  0
VERTEX
  8
0
  6
CONTINUOUS
 10
4.498560
 20
3.149520
  0
VERTEX
  8
0
  6
CONTINUOUS
 10
4.528480
 20
3.095840
  0
VERTEX
  8
0
  6
CONTINUOUS
 10
3.770360
 20
3.098480
  0
VERTEX
  8
0
  6
CONTINUOUS
 10
3.740880
 20
3.151720
  0
SEQEND
  8
0
  0
SOLID
  8
0
 62
    15
 10
3.770360
 20
3.098480
 11
4.528480
 21
3.095840
 12
3.795440
 22
3.035560
 13
4.553560
 23
3.033360
  0
POLYLINE
  8
0
  6
CONTINUOUS
 66
     1
 40
0.000000
 41
0.000000
  0
VERTEX
  8
0
  6
CONTINUOUS
 10
3.770360
 20
3.098480
  0
VERTEX
  8
0
  6
CONTINUOUS
 10
4.528480
 20
3.095840
  0
VERTEX
  8
0
  6
CONTINUOUS
 10
4.553560
 20
3.033360
  0
VERTEX
  8
0
  6
CONTINUOUS
 10
3.795440
 20
3.035560
  0
VERTEX
  8
0
  6
CONTINUOUS
 10
3.770360
 20
3.098480
  0
SEQEND
  8
0
  0
SOLID
  8
0
 62
    15
 10
3.795440
 20
3.035560
 11
4.553560
 21
3.033360
 12
3.812600
 22
2.963840
 13
4.570720
 23
2.961640
  0
POLYLINE
  8
0
  6
CONTINUOUS
 66
     1
 40
0.000000
 41
0.000000
  0
VERTEX
  8
0
  6
CONTINUOUS
 10
3.795440
 20
3.035560
  0
VERTEX
  8
0
  6
CONTINUOUS
 10
4.553560
 20
3.033360
  0
VERTEX
  8
0
  6
CONTINUOUS
 10
4.570720
 20
2.961640
  0
VERTEX
  8
0
  6
CONTINUOUS
 10
3.812600
 20
2.963840
  0
VERTEX
  8
0
  6
CONTINUOUS
 10
3.795440
 20
3.035560
  0
SEQEND
  8
0
  0
SOLID
  8
0
 62
    15
 10
3.812600
 20
2.963840
 11
4.570720
 21
2.961640
 12
3.817440
 22
2.924680
 13
4.575560
 23
2.922480
  0
POLYLINE
  8
0
  6
CONTINUOUS
 66
     1
 40
0.000000
 41
0.000000
  0
VERTEX
  8
0
  6
CONTINUOUS
 10
3.812600
 20
2.963840
  0
VERTEX
  8
0
  6
CONTINUOUS
 10
4.570720
 20
2.961640
  0
VERTEX
  8
0
  6
CONTINUOUS
 10
4.575560
 20
2.922480
  0
VERTEX
  8
0
  6
CONTINUOUS
 10
3.817440
 20
2.924680
  0
VERTEX
  8
0
  6
CONTINUOUS
 10
3.812600
 20
2.963840
  0
SEQEND
  8
0
  0
SOLID
  8
0
 62
    15
 10
3.817440
 20
2.924680
 11
4.575560
 21
2.922480
 12
3.819200
 22
2.883760
 13
4.576880
 23
2.881560
  0
POLYLINE
  8
0
  6
CONTINUOUS
 66
     1
 40
0.000000
 41
0.000000
  0
VERTEX
  8
0
  6
CONTINUOUS
 10
3.817440
 20
2.924680
  0
VERTEX
  8
0
  6
CONTINUOUS
 10
4.575560
 20
2.922480
  0
VERTEX
  8
0
  6
CONTINUOUS
 10
4.576880
 20
2.881560
  0
VERTEX
  8
0
  6
CONTINUOUS
 10
3.819200
 20
2.883760
  0
VERTEX
  8
0
  6
CONTINUOUS
 10
3.817440
 20
2.924680
  0
SEQEND
  8
0
  0
SOLID
  8
0
 62
    15
 10
3.888720
 20
2.883760
 11
4.646840
 21
2.881560
 12
3.888720
 22
2.883320
 13
4.646840
 23
2.881120
  0
POLYLINE
  8
0
  6
CONTINUOUS
 66
     1
 40
0.000000
 41
0.000000
  0
VERTEX
  8
0
  6
CONTINUOUS
 10
3.888720
 20
2.883760
  0
VERTEX
  8
0
  6
CONTINUOUS
 10
4.646840
 20
2.881560
  0
VERTEX
  8
0
  6
CONTINUOUS
 10
4.646840
 20
2.881120
  0
VERTEX
  8
0
  6
CONTINUOUS
 10
3.888720
 20
2.883320
  0
VERTEX
  8
0
  6
CONTINUOUS
 10
3.888720
 20
2.883760
  0
SEQEND
  8
0
  0
POLYLINE
  8
0
  6
CONTINUOUS
 66
     1
 40
0.000000
 41
0.000000
  0
VERTEX
  8
0
  6
CONTINUOUS
 10
3.888720
 20
2.883320
  0
VERTEX
  8
0
  6
CONTINUOUS
 10
3.888720
 20
1.866040
  0
VERTEX
  8
0
  6
CONTINUOUS
 10
3.819200
 20
1.866040
  0
VERTEX
  8
0
  6
CONTINUOUS
 10
3.817440
 20
1.824680
  0
VERTEX
  8
0
  6
CONTINUOUS
 10
3.813040
 20
1.785520
  0
VERTEX
  8
0
  6
CONTINUOUS
 10
3.795440
 20
1.713800
  0
VERTEX
  8
0
  6
CONTINUOUS
 10
3.770360
 20
1.651320
  0
VERTEX
  8
0
  6
CONTINUOUS
 10
3.740880
 20
1.597640
  0
VERTEX
  8
0
  6
CONTINUOUS
 10
3.709640
 20
1.553640
  0
VERTEX
  8
0
  6
CONTINUOUS
 10
3.680160
 20
1.519760
  0
VERTEX
  8
0
  6
CONTINUOUS
 10
3.655520
 20
1.496000
  0
VERTEX
  8
0
  6
CONTINUOUS
 10
3.638360
 20
1.482800
  0
VERTEX
  8
0
  6
CONTINUOUS
 10
3.630880
 20
1.477520
  0
VERTEX
  8
0
  6
CONTINUOUS
 10
3.621200
 20
1.469160
  0
VERTEX
  8
0
  6
CONTINUOUS
 10
3.596120
 20
1.444960
  0
VERTEX
  8
0
  6
CONTINUOUS
 10
3.566640
 20
1.410640
  0
VERTEX
  8
0
  6
CONTINUOUS
 10
3.535400
 20
1.366640
  0
VERTEX
  8
0
  6
CONTINUOUS
 10
3.505920
 20
1.313840
  0
VERTEX
  8
0
  6
CONTINUOUS
 10
3.480840
 20
1.252680
  0
VERTEX
  8
0
  6
CONTINUOUS
 10
3.463680
 20
1.184480
  0
VERTEX
  8
0
  6
CONTINUOUS
 10
3.458840
 20
1.147520
  0
VERTEX
  8
0
  6
CONTINUOUS
 10
3.457080
 20
1.109240
  0
VERTEX
  8
0
  6
CONTINUOUS
 10
3.123120
 20
1.109240
  0
VERTEX
  8
0
  6
CONTINUOUS
 10
3.122680
 20
3.640560
  0
VERTEX
  8
0
  6
CONTINUOUS
 10
3.457080
 20
3.640560
  0
VERTEX
  8
0
  6
CONTINUOUS
 10
3.458840
 20
3.602280
  0
VERTEX
  8
0
  6
CONTINUOUS
 10
3.463680
 20
3.565320
  0
VERTEX
  8
0
  6
CONTINUOUS
 10
3.480840
 20
3.496680
  0
VERTEX
  8
0
  6
CONTINUOUS
 10
3.505920
 20
3.435960
  0
VERTEX
  8
0
  6
CONTINUOUS
 10
3.535400
 20
3.383160
  0
VERTEX
  8
0
  6
CONTINUOUS
 10
3.566640
 20
3.339160
  0
VERTEX
  8
0
  6
CONTINUOUS
 10
3.596120
 20
3.304400
  0
VERTEX
  8
0
  6
CONTINUOUS
 10
3.621200
 20
3.280200
  0
VERTEX
  8
0
  6
CONTINUOUS
 10
3.630880
 20
3.272280
  0
VERTEX
  8
0
  6
CONTINUOUS
 10
3.638360
 20
3.266560
  0
VERTEX
  8
0
  6
CONTINUOUS
 10
3.655080
 20
3.253360
  0
VERTEX
  8
0
  6
CONTINUOUS
 10
3.680160
 20
3.229600
  0
VERTEX
  8
0
  6
CONTINUOUS
 10
3.709640
 20
3.195720
  0
VERTEX
  8
0
  6
CONTINUOUS
 10
3.740880
 20
3.151720
  0
VERTEX
  8
0
  6
CONTINUOUS
 10
3.770360
 20
3.098480
  0
VERTEX
  8
0
  6
CONTINUOUS
 10
3.795440
 20
3.035560
  0
VERTEX
  8
0
  6
CONTINUOUS
 10
3.812600
 20
2.963840
  0
VERTEX
  8
0
  6
CONTINUOUS
 10
3.817440
 20
2.924680
  0
VERTEX
  8
0
  6
CONTINUOUS
 10
3.819200
 20
2.883760
  0
VERTEX
  8
0
  6
CONTINUOUS
 10
3.888720
 20
2.883760
  0
VERTEX
  8
0
  6
CONTINUOUS
 10
3.888720
 20
2.883320
  0
SEQEND
  8
0
  0
TEXT
  8
0
 10
3.542440
 20
0.860200
 40
0.138007
  1
BA  1003
 41
1.000000
  7
SN0
 71
     0
 72
     5
 11
4.224839
 21
0.860200
  0
TEXT
  8
0
 10
3.432880
 20
0.668360
 40
0.138007
  1
3/4" x 2-1/2"
 41
1.000000
  7
SN0
 71
     0
 72
     5
 11
4.332737
 21
0.668360
  0
POLYLINE
  8
0
  6
CONTINUOUS
 66
     1
 40
0.014080
 41
0.014080
  0
VERTEX
  8
0
  6
CONTINUOUS
 10
6.646640
 20
3.658600
  0
VERTEX
  8
0
  6
CONTINUOUS
 10
6.646640
 20
3.589080
  0
VERTEX
  8
0
  6
CONTINUOUS
 10
6.688000
 20
3.587320
  0
VERTEX
  8
0
  6
CONTINUOUS
 10
6.707800
 20
3.585560
  0
VERTEX
  8
0
  6
CONTINUOUS
 10
6.745640
 20
3.579400
  0
VERTEX
  8
0
  6
CONTINUOUS
 10
6.798440
 20
3.565320
  0
VERTEX
  8
0
  6
CONTINUOUS
 10
6.846400
 20
3.547280
  0
VERTEX
  8
0
  6
CONTINUOUS
 10
6.889080
 20
3.525720
  0
VERTEX
  8
0
  6
CONTINUOUS
 10
6.915040
 20
3.510760
  0
VERTEX
  8
0
  6
CONTINUOUS
 10
6.968280
 20
3.471600
  0
VERTEX
  8
0
  6
CONTINUOUS
 10
7.006120
 20
3.436840
  0
VERTEX
  8
0
  6
CONTINUOUS
 10
7.029880
 20
3.407800
  0
VERTEX
  8
0
  6
CONTINUOUS
 10
7.048360
 20
3.385360
  0
VERTEX
  8
0
  6
CONTINUOUS
 10
7.092360
 20
3.344000
  0
VERTEX
  8
0
  6
CONTINUOUS
 10
7.146040
 20
3.305280
  0
VERTEX
  8
0
  6
CONTINUOUS
 10
7.198840
 20
3.275800
  0
VERTEX
  8
0
  6
CONTINUOUS
 10
7.243720
 20
3.256440
  0
VERTEX
  8
0
  6
CONTINUOUS
 10
7.293000
 20
3.241040
  0
VERTEX
  8
0
  6
CONTINUOUS
 10
7.328200
 20
3.233560
  0
VERTEX
  8
0
  6
CONTINUOUS
 10
7.365160
 20
3.228720
  0
VERTEX
  8
0
  6
CONTINUOUS
 10
7.403440
 20
3.226960
  0
VERTEX
  8
0
  6
CONTINUOUS
 10
7.403440
 20
2.892560
  0
VERTEX
  8
0
  6
CONTINUOUS
 10
4.872120
 20
2.892560
  0
VERTEX
  8
0
  6
CONTINUOUS
 10
4.872120
 20
3.226960
  0
VERTEX
  8
0
  6
CONTINUOUS
 10
4.910400
 20
3.228720
  0
VERTEX
  8
0
  6
CONTINUOUS
 10
4.947360
 20
3.233560
  0
VERTEX
  8
0
  6
CONTINUOUS
 10
4.982560
 20
3.241040
  0
VERTEX
  8
0
  6
CONTINUOUS
 10
5.031840
 20
3.256440
  0
VERTEX
  8
0
  6
CONTINUOUS
 10
5.076720
 20
3.275800
  0
VERTEX
  8
0
  6
CONTINUOUS
 10
5.129520
 20
3.305280
  0
VERTEX
  8
0
  6
CONTINUOUS
 10
5.173520
 20
3.336520
  0
VERTEX
  8
0
  6
CONTINUOUS
 10
5.215320
 20
3.373040
  0
VERTEX
  8
0
  6
CONTINUOUS
 10
5.243920
 20
3.404720
  0
VERTEX
  8
0
  6
CONTINUOUS
 10
5.264160
 20
3.430680
  0
VERTEX
  8
0
  6
CONTINUOUS
 10
5.298480
 20
3.464560
  0
VERTEX
  8
0
  6
CONTINUOUS
 10
5.337640
 20
3.494920
  0
VERTEX
  8
0
  6
CONTINUOUS
 10
5.360960
 20
3.510760
  0
VERTEX
  8
0
  6
CONTINUOUS
 10
5.414200
 20
3.540240
  0
VERTEX
  8
0
  6
CONTINUOUS
 10
5.460400
 20
3.559600
  0
VERTEX
  8
0
  6
CONTINUOUS
 10
5.494280
 20
3.570600
  0
VERTEX
  8
0
  6
CONTINUOUS
 10
5.529920
 20
3.579400
  0
VERTEX
  8
0
  6
CONTINUOUS
 10
5.567760
 20
3.585560
  0
VERTEX
  8
0
  6
CONTINUOUS
 10
5.608240
 20
3.588640
  0
VERTEX
  8
0
  6
CONTINUOUS
 10
5.628920
 20
3.589080
  0
VERTEX
  8
0
  6
CONTINUOUS
 10
5.628920
 20
3.658600
  0
VERTEX
  8
0
  6
CONTINUOUS
 10
6.646640
 20
3.658600
  0
SEQEND
  8
0
  0
TEXT
  8
0
 10
5.913160
 20
3.192200
 40
0.138007
  1
BA  1003
 41
1.000000
  7
SN0
 71
     0
 72
     5
 11
6.595559
 21
3.192200
  0
TEXT
  8
0
 10
5.803600
 20
3.000360
 40
0.138007
  1
3/4" x 2-1/2"
 41
1.000000
  7
SN0
 71
     0
 72
     5
 11
6.703457
 21
3.000360
  0
ENDSEC
  0
EOF
