  0
SECTION
  2
HEADER
  9
$ACADVER
  1
AC1006
  9
$EXTMIN
 10
1.448920
 20
0.734800
  9
$EXTMAX
 10
7.336120
 20
4.190560
  9
$LTSCALE
 40
0.044000
  9
$PDMODE
 70
    35
  9
$PDSIZE
 40
0.035200
  0
ENDSEC
  0
SECTION
  2
TABLES
  0
TABLE
  2
LTYPE
 70
     9
  0
LTYPE
  2
CONTINUOUS
 70
    64
  3
Solid line
 72
    65
 73
     0
 40
0.000000
  0
LTYPE
  2
DASHED
 70
    64
  3
__ __ __ __ __ __ __ __ __ __ __ __ __ __ __
 72
    65
 73
     2
 40
0.000330
 49
0.000220
 49
-0.000110
  0
LTYPE
  2
HIDDEN
 70
    64
  3
 _ _ _ _ _ _ _ _ _ _ _ _ _ _ _ _ _ _ _ _ _ _
 72
    65
 73
     2
 40
0.000165
 49
0.000110
 49
-0.000055
  0
LTYPE
  2
CENTER
 70
    64
  3
____ _ ____ _ ____ _ ____ _ ____ _ ____ _ ____
 72
    65
 73
     4
 40
0.000880
 49
0.000550
 49
-0.000110
 49
0.000110
 49
-0.000110
  0
LTYPE
  2
PHANTOM
 70
    64
  3
_____ _ _ _____ _ _ _____ _ _ _____ _ _ ____
 72
    65
 73
     6
 40
0.001100
 49
0.000550
 49
-0.000110
 49
0.000110
 49
-0.000110
 49
0.000110
 49
-0.000110
  0
LTYPE
  2
DOT
 70
    64
  3
...............................................
 72
    65
 73
     2
 40
0.000110
 49
0.000000
 49
-0.000110
  0
LTYPE
  2
DASHDOT
 70
    64
  3
__ . __ . __ . __ . __ . __ . __ . __ . __ . __
 72
    65
 73
     4
 40
0.000440
 49
0.000220
 49
-0.000110
 49
0.000000
 49
-0.000110
  0
LTYPE
  2
BORDER
 70
    64
  3
__ __ . __ __ . __ __ . __ __ . __ __ . __ __
 72
    65
 73
     6
 40
0.000770
 49
0.000220
 49
-0.000110
 49
0.000220
 49
-0.000110
 49
0.000000
 49
-0.000110
  0
LTYPE
  2
DIVIDE
 70
    64
  3
__ . . __ . . __ . . __ . . __ . . __ . . __
 72
    65
 73
     6
 40
0.000550
 49
0.000220
 49
-0.000110
 49
0.000000
 49
-0.000110
 49
0.000000
 49
-0.000110
  0
LTYPE
  2
DOTDOT
 70
    64
  3
 . .  . .  . .  . .  . .  . . 
 72
    65
 73
     5
 40
0.000242
 49
-0.000110
 49
0.000000
 49
-0.000110
 49
0.000000
 49
-0.000110
  0
ENDTAB
  0
TABLE
  2
STYLE
 70
     2
  0
STYLE
 70
     0
  2
SN0
 40
0.000000
 41
0.000440
 50
0.000000
 71
     0
 42
0.000000
  3
ROMAND
  0
STYLE
 70
    68
  2
SV0
 40
0.000000
 41
0.000440
 50
0.000000
 71
     0
 42
0.000000
  3
ROMAND
  0
ENDTAB
  0
TABLE
  2
LAYER
 70
     3
  0
LAYER
  2
FOREGROUND
 70
    64
 62
     7
  6
CONTINUOUS
  0
LAYER
  2
BACKGROUND
 70
    65
 62
    -7
  6
CONTINUOUS
  0
LAYER
  2
0
 70
    64
 62
     7
  6
CONTINUOUS
  0
ENDTAB
  0
ENDSEC
  0
SECTION
  2
ENTITIES
  0
POLYLINE
  8
FOREGROUND
  6
CONTINUOUS
 66
     1
 40
0.000000
 41
0.000000
  0
VERTEX
  8
FOREGROUND
  6
CONTINUOUS
 10
0.000000
 20
4.925360
  0
VERTEX
  8
FOREGROUND
  6
CONTINUOUS
 10
8.499920
 20
4.925360
  0
VERTEX
  8
FOREGROUND
  6
CONTINUOUS
 10
8.499920
 20
-6.074640
  0
VERTEX
  8
FOREGROUND
  6
CONTINUOUS
 10
0.000000
 20
-6.074640
  0
VERTEX
  8
FOREGROUND
  6
CONTINUOUS
 10
0.000000
 20
4.925360
  0
SEQEND
  8
0
  0
POLYLINE
  8
FOREGROUND
  6
CONTINUOUS
 66
     1
 40
0.000000
 41
0.000000
  0
VERTEX
  8
FOREGROUND
  6
CONTINUOUS
 10
0.000000
 20
4.925360
  0
VERTEX
  8
FOREGROUND
  6
CONTINUOUS
 10
8.499920
 20
4.925360
  0
VERTEX
  8
FOREGROUND
  6
CONTINUOUS
 10
8.499920
 20
-6.074640
  0
VERTEX
  8
FOREGROUND
  6
CONTINUOUS
 10
0.000000
 20
-6.074640
  0
VERTEX
  8
FOREGROUND
  6
CONTINUOUS
 10
0.000000
 20
4.925360
  0
SEQEND
  8
0
  0
SOLID
  8
0
 62
    15
 10
2.623280
 20
1.741080
 11
2.623720
 21
2.482920
 12
2.672120
 22
1.725240
 13
2.672560
 23
2.466640
  0
POLYLINE
  8
0
  6
CONTINUOUS
 66
     1
 40
0.000000
 41
0.000000
  0
VERTEX
  8
0
  6
CONTINUOUS
 10
2.623280
 20
1.741080
  0
VERTEX
  8
0
  6
CONTINUOUS
 10
2.623720
 20
2.482920
  0
VERTEX
  8
0
  6
CONTINUOUS
 10
2.672560
 20
2.466640
  0
VERTEX
  8
0
  6
CONTINUOUS
 10
2.672120
 20
1.725240
  0
VERTEX
  8
0
  6
CONTINUOUS
 10
2.623280
 20
1.741080
  0
SEQEND
  8
0
  0
SOLID
  8
0
 62
    15
 10
2.459600
 20
1.927640
 11
2.459600
 21
2.669480
 12
2.472360
 22
1.881000
 13
2.472360
 23
2.622400
  0
POLYLINE
  8
0
  6
CONTINUOUS
 66
     1
 40
0.000000
 41
0.000000
  0
VERTEX
  8
0
  6
CONTINUOUS
 10
2.459600
 20
1.927640
  0
VERTEX
  8
0
  6
CONTINUOUS
 10
2.459600
 20
2.669480
  0
VERTEX
  8
0
  6
CONTINUOUS
 10
2.472360
 20
2.622400
  0
VERTEX
  8
0
  6
CONTINUOUS
 10
2.472360
 20
1.881000
  0
VERTEX
  8
0
  6
CONTINUOUS
 10
2.459600
 20
1.927640
  0
SEQEND
  8
0
  0
SOLID
  8
0
 62
    15
 10
2.472360
 20
1.881000
 11
2.472360
 21
2.622400
 12
2.483800
 22
1.855920
 13
2.484240
 23
2.597320
  0
POLYLINE
  8
0
  6
CONTINUOUS
 66
     1
 40
0.000000
 41
0.000000
  0
VERTEX
  8
0
  6
CONTINUOUS
 10
2.472360
 20
1.881000
  0
VERTEX
  8
0
  6
CONTINUOUS
 10
2.472360
 20
2.622400
  0
VERTEX
  8
0
  6
CONTINUOUS
 10
2.484240
 20
2.597320
  0
VERTEX
  8
0
  6
CONTINUOUS
 10
2.483800
 20
1.855920
  0
VERTEX
  8
0
  6
CONTINUOUS
 10
2.472360
 20
1.881000
  0
SEQEND
  8
0
  0
SOLID
  8
0
 62
    15
 10
2.483800
 20
1.855920
 11
2.484240
 21
2.597320
 12
2.500520
 22
1.830400
 13
2.500520
 23
2.572240
  0
POLYLINE
  8
0
  6
CONTINUOUS
 66
     1
 40
0.000000
 41
0.000000
  0
VERTEX
  8
0
  6
CONTINUOUS
 10
2.483800
 20
1.855920
  0
VERTEX
  8
0
  6
CONTINUOUS
 10
2.484240
 20
2.597320
  0
VERTEX
  8
0
  6
CONTINUOUS
 10
2.500520
 20
2.572240
  0
VERTEX
  8
0
  6
CONTINUOUS
 10
2.500520
 20
1.830400
  0
VERTEX
  8
0
  6
CONTINUOUS
 10
2.483800
 20
1.855920
  0
SEQEND
  8
0
  0
SOLID
  8
0
 62
    15
 10
2.500520
 20
1.830400
 11
2.500520
 21
2.572240
 12
2.521640
 22
1.805760
 13
2.521640
 23
2.547600
  0
POLYLINE
  8
0
  6
CONTINUOUS
 66
     1
 40
0.000000
 41
0.000000
  0
VERTEX
  8
0
  6
CONTINUOUS
 10
2.500520
 20
1.830400
  0
VERTEX
  8
0
  6
CONTINUOUS
 10
2.500520
 20
2.572240
  0
VERTEX
  8
0
  6
CONTINUOUS
 10
2.521640
 20
2.547600
  0
VERTEX
  8
0
  6
CONTINUOUS
 10
2.521640
 20
1.805760
  0
VERTEX
  8
0
  6
CONTINUOUS
 10
2.500520
 20
1.830400
  0
SEQEND
  8
0
  0
SOLID
  8
0
 62
    15
 10
2.521640
 20
1.805760
 11
2.521640
 21
2.547600
 12
2.548920
 22
1.782000
 13
2.548920
 23
2.523840
  0
POLYLINE
  8
0
  6
CONTINUOUS
 66
     1
 40
0.000000
 41
0.000000
  0
VERTEX
  8
0
  6
CONTINUOUS
 10
2.521640
 20
1.805760
  0
VERTEX
  8
0
  6
CONTINUOUS
 10
2.521640
 20
2.547600
  0
VERTEX
  8
0
  6
CONTINUOUS
 10
2.548920
 20
2.523840
  0
VERTEX
  8
0
  6
CONTINUOUS
 10
2.548920
 20
1.782000
  0
VERTEX
  8
0
  6
CONTINUOUS
 10
2.521640
 20
1.805760
  0
SEQEND
  8
0
  0
SOLID
  8
0
 62
    15
 10
2.548920
 20
1.782000
 11
2.548920
 21
2.523840
 12
2.582360
 22
1.760440
 13
2.582800
 23
2.502280
  0
POLYLINE
  8
0
  6
CONTINUOUS
 66
     1
 40
0.000000
 41
0.000000
  0
VERTEX
  8
0
  6
CONTINUOUS
 10
2.548920
 20
1.782000
  0
VERTEX
  8
0
  6
CONTINUOUS
 10
2.548920
 20
2.523840
  0
VERTEX
  8
0
  6
CONTINUOUS
 10
2.582800
 20
2.502280
  0
VERTEX
  8
0
  6
CONTINUOUS
 10
2.582360
 20
1.760440
  0
VERTEX
  8
0
  6
CONTINUOUS
 10
2.548920
 20
1.782000
  0
SEQEND
  8
0
  0
SOLID
  8
0
 62
    15
 10
2.582360
 20
1.760440
 11
2.582800
 21
2.502280
 12
2.623280
 22
1.741080
 13
2.623720
 23
2.482920
  0
POLYLINE
  8
0
  6
CONTINUOUS
 66
     1
 40
0.000000
 41
0.000000
  0
VERTEX
  8
0
  6
CONTINUOUS
 10
2.582360
 20
1.760440
  0
VERTEX
  8
0
  6
CONTINUOUS
 10
2.582800
 20
2.502280
  0
VERTEX
  8
0
  6
CONTINUOUS
 10
2.623720
 20
2.482920
  0
VERTEX
  8
0
  6
CONTINUOUS
 10
2.623280
 20
1.741080
  0
VERTEX
  8
0
  6
CONTINUOUS
 10
2.582360
 20
1.760440
  0
SEQEND
  8
0
  0
SOLID
  8
0
 62
    15
 10
2.456080
 20
1.966360
 11
2.456080
 21
2.708200
 12
2.459600
 22
1.927640
 13
2.459600
 23
2.669480
  0
POLYLINE
  8
0
  6
CONTINUOUS
 66
     1
 40
0.000000
 41
0.000000
  0
VERTEX
  8
0
  6
CONTINUOUS
 10
2.456080
 20
1.966360
  0
VERTEX
  8
0
  6
CONTINUOUS
 10
2.456080
 20
2.708200
  0
VERTEX
  8
0
  6
CONTINUOUS
 10
2.459600
 20
2.669480
  0
VERTEX
  8
0
  6
CONTINUOUS
 10
2.459600
 20
1.927640
  0
VERTEX
  8
0
  6
CONTINUOUS
 10
2.456080
 20
1.966360
  0
SEQEND
  8
0
  0
SOLID
  8
0
 62
    15
 10
2.672120
 20
1.725240
 11
2.672560
 21
2.466640
 12
2.729760
 22
1.712480
 13
2.729760
 23
2.454320
  0
POLYLINE
  8
0
  6
CONTINUOUS
 66
     1
 40
0.000000
 41
0.000000
  0
VERTEX
  8
0
  6
CONTINUOUS
 10
2.672120
 20
1.725240
  0
VERTEX
  8
0
  6
CONTINUOUS
 10
2.672560
 20
2.466640
  0
VERTEX
  8
0
  6
CONTINUOUS
 10
2.729760
 20
2.454320
  0
VERTEX
  8
0
  6
CONTINUOUS
 10
2.729760
 20
1.712480
  0
VERTEX
  8
0
  6
CONTINUOUS
 10
2.672120
 20
1.725240
  0
SEQEND
  8
0
  0
SOLID
  8
0
 62
    15
 10
2.729760
 20
1.712480
 11
2.729760
 21
2.454320
 12
2.796200
 22
1.704560
 13
2.796200
 23
2.446400
  0
POLYLINE
  8
0
  6
CONTINUOUS
 66
     1
 40
0.000000
 41
0.000000
  0
VERTEX
  8
0
  6
CONTINUOUS
 10
2.729760
 20
1.712480
  0
VERTEX
  8
0
  6
CONTINUOUS
 10
2.729760
 20
2.454320
  0
VERTEX
  8
0
  6
CONTINUOUS
 10
2.796200
 20
2.446400
  0
VERTEX
  8
0
  6
CONTINUOUS
 10
2.796200
 20
1.704560
  0
VERTEX
  8
0
  6
CONTINUOUS
 10
2.729760
 20
1.712480
  0
SEQEND
  8
0
  0
SOLID
  8
0
 62
    15
 10
2.796200
 20
1.704560
 11
2.796200
 21
2.446400
 12
2.872760
 22
1.701920
 13
2.873200
 23
2.443760
  0
POLYLINE
  8
0
  6
CONTINUOUS
 66
     1
 40
0.000000
 41
0.000000
  0
VERTEX
  8
0
  6
CONTINUOUS
 10
2.796200
 20
1.704560
  0
VERTEX
  8
0
  6
CONTINUOUS
 10
2.796200
 20
2.446400
  0
VERTEX
  8
0
  6
CONTINUOUS
 10
2.873200
 20
2.443760
  0
VERTEX
  8
0
  6
CONTINUOUS
 10
2.872760
 20
1.701920
  0
VERTEX
  8
0
  6
CONTINUOUS
 10
2.796200
 20
1.704560
  0
SEQEND
  8
0
  0
SOLID
  8
0
 62
    15
 10
7.290800
 20
1.702800
 11
7.290800
 21
2.444640
 12
7.290800
 22
1.230680
 13
7.290800
 23
1.972520
  0
POLYLINE
  8
0
  6
CONTINUOUS
 66
     1
 40
0.000000
 41
0.000000
  0
VERTEX
  8
0
  6
CONTINUOUS
 10
7.290800
 20
1.702800
  0
VERTEX
  8
0
  6
CONTINUOUS
 10
7.290800
 20
2.444640
  0
VERTEX
  8
0
  6
CONTINUOUS
 10
7.290800
 20
1.972520
  0
VERTEX
  8
0
  6
CONTINUOUS
 10
7.290800
 20
1.230680
  0
VERTEX
  8
0
  6
CONTINUOUS
 10
7.290800
 20
1.702800
  0
SEQEND
  8
0
  0
SOLID
  8
0
 62
    15
 10
2.872760
 20
1.701920
 11
2.873200
 21
2.443760
 12
7.290800
 22
1.702800
 13
7.290800
 23
2.444640
  0
POLYLINE
  8
0
  6
CONTINUOUS
 66
     1
 40
0.000000
 41
0.000000
  0
VERTEX
  8
0
  6
CONTINUOUS
 10
2.872760
 20
1.701920
  0
VERTEX
  8
0
  6
CONTINUOUS
 10
2.873200
 20
2.443760
  0
VERTEX
  8
0
  6
CONTINUOUS
 10
7.290800
 20
2.444640
  0
VERTEX
  8
0
  6
CONTINUOUS
 10
7.290800
 20
1.702800
  0
VERTEX
  8
0
  6
CONTINUOUS
 10
2.872760
 20
1.701920
  0
SEQEND
  8
0
  0
SOLID
  8
0
 62
    15
 10
1.449360
 20
1.991000
 11
1.449360
 21
2.732840
 12
2.456520
 22
1.991000
 13
2.456960
 23
2.732840
  0
POLYLINE
  8
0
  6
CONTINUOUS
 66
     1
 40
0.000000
 41
0.000000
  0
VERTEX
  8
0
  6
CONTINUOUS
 10
1.449360
 20
1.991000
  0
VERTEX
  8
0
  6
CONTINUOUS
 10
1.449360
 20
2.732840
  0
VERTEX
  8
0
  6
CONTINUOUS
 10
2.456960
 20
2.732840
  0
VERTEX
  8
0
  6
CONTINUOUS
 10
2.456520
 20
1.991000
  0
VERTEX
  8
0
  6
CONTINUOUS
 10
1.449360
 20
1.991000
  0
SEQEND
  8
0
  0
SOLID
  8
0
 62
    15
 10
2.456520
 20
1.991000
 11
2.456960
 21
2.732840
 12
2.456520
 22
1.991000
 13
2.456960
 23
1.991000
  0
POLYLINE
  8
0
  6
CONTINUOUS
 66
     1
 40
0.000000
 41
0.000000
  0
VERTEX
  8
0
  6
CONTINUOUS
 10
2.456520
 20
1.991000
  0
VERTEX
  8
0
  6
CONTINUOUS
 10
2.456960
 20
2.732840
  0
VERTEX
  8
0
  6
CONTINUOUS
 10
2.456960
 20
1.991000
  0
VERTEX
  8
0
  6
CONTINUOUS
 10
2.456520
 20
1.991000
  0
SEQEND
  8
0
  0
POLYLINE
  8
0
  6
CONTINUOUS
 66
     1
 40
0.000000
 41
0.000000
  0
VERTEX
  8
0
  6
CONTINUOUS
 10
2.456960
 20
1.991000
  0
VERTEX
  8
0
  6
CONTINUOUS
 10
2.456520
 20
1.980440
  0
VERTEX
  8
0
  6
CONTINUOUS
 10
2.456080
 20
1.966360
  0
VERTEX
  8
0
  6
CONTINUOUS
 10
2.459600
 20
1.927640
  0
VERTEX
  8
0
  6
CONTINUOUS
 10
2.472360
 20
1.881000
  0
VERTEX
  8
0
  6
CONTINUOUS
 10
2.483800
 20
1.855920
  0
VERTEX
  8
0
  6
CONTINUOUS
 10
2.500520
 20
1.830400
  0
VERTEX
  8
0
  6
CONTINUOUS
 10
2.521640
 20
1.805760
  0
VERTEX
  8
0
  6
CONTINUOUS
 10
2.548920
 20
1.782000
  0
VERTEX
  8
0
  6
CONTINUOUS
 10
2.582360
 20
1.760440
  0
VERTEX
  8
0
  6
CONTINUOUS
 10
2.623280
 20
1.741080
  0
VERTEX
  8
0
  6
CONTINUOUS
 10
2.672120
 20
1.725240
  0
VERTEX
  8
0
  6
CONTINUOUS
 10
2.729760
 20
1.712480
  0
VERTEX
  8
0
  6
CONTINUOUS
 10
2.796200
 20
1.704560
  0
VERTEX
  8
0
  6
CONTINUOUS
 10
2.872760
 20
1.701920
  0
VERTEX
  8
0
  6
CONTINUOUS
 10
7.290800
 20
1.702800
  0
VERTEX
  8
0
  6
CONTINUOUS
 10
7.290800
 20
1.230680
  0
VERTEX
  8
0
  6
CONTINUOUS
 10
1.449360
 20
1.230680
  0
VERTEX
  8
0
  6
CONTINUOUS
 10
1.449360
 20
1.991000
  0
VERTEX
  8
0
  6
CONTINUOUS
 10
2.456520
 20
1.991000
  0
VERTEX
  8
0
  6
CONTINUOUS
 10
2.456960
 20
1.991000
  0
SEQEND
  8
0
  0
TEXT
  8
0
 10
4.028200
 20
0.970200
 40
0.137888
  1
BA  1002
 41
1.000000
  7
SN0
 71
     0
 72
     5
 11
4.710232
 21
0.970200
  0
TEXT
  8
0
 10
3.918640
 20
0.778360
 40
0.137888
  1
3/4" x 5-7/8"
 41
1.000000
  7
SN0
 71
     0
 72
     5
 11
4.819087
 21
0.778360
  0
POLYLINE
  8
0
  6
CONTINUOUS
 66
     1
 40
0.014080
 41
0.014080
  0
VERTEX
  8
0
  6
CONTINUOUS
 10
2.495240
 20
4.183080
  0
VERTEX
  8
0
  6
CONTINUOUS
 10
2.494800
 20
4.178680
  0
VERTEX
  8
0
  6
CONTINUOUS
 10
2.494800
 20
4.172960
  0
VERTEX
  8
0
  6
CONTINUOUS
 10
2.494360
 20
4.165920
  0
VERTEX
  8
0
  6
CONTINUOUS
 10
2.494360
 20
4.158440
  0
VERTEX
  8
0
  6
CONTINUOUS
 10
2.494800
 20
4.150080
  0
VERTEX
  8
0
  6
CONTINUOUS
 10
2.495240
 20
4.140400
  0
VERTEX
  8
0
  6
CONTINUOUS
 10
2.496120
 20
4.130720
  0
VERTEX
  8
0
  6
CONTINUOUS
 10
2.497880
 20
4.119720
  0
VERTEX
  8
0
  6
CONTINUOUS
 10
2.500080
 20
4.108720
  0
VERTEX
  8
0
  6
CONTINUOUS
 10
2.502720
 20
4.097280
  0
VERTEX
  8
0
  6
CONTINUOUS
 10
2.506240
 20
4.084960
  0
VERTEX
  8
0
  6
CONTINUOUS
 10
2.510640
 20
4.072640
  0
VERTEX
  8
0
  6
CONTINUOUS
 10
2.515920
 20
4.060320
  0
VERTEX
  8
0
  6
CONTINUOUS
 10
2.522520
 20
4.047560
  0
VERTEX
  8
0
  6
CONTINUOUS
 10
2.530000
 20
4.035240
  0
VERTEX
  8
0
  6
CONTINUOUS
 10
2.538800
 20
4.022480
  0
VERTEX
  8
0
  6
CONTINUOUS
 10
2.548480
 20
4.010160
  0
VERTEX
  8
0
  6
CONTINUOUS
 10
2.559920
 20
3.997840
  0
VERTEX
  8
0
  6
CONTINUOUS
 10
2.572680
 20
3.985960
  0
VERTEX
  8
0
  6
CONTINUOUS
 10
2.587200
 20
3.974080
  0
VERTEX
  8
0
  6
CONTINUOUS
 10
2.603480
 20
3.963080
  0
VERTEX
  8
0
  6
CONTINUOUS
 10
2.621080
 20
3.952520
  0
VERTEX
  8
0
  6
CONTINUOUS
 10
2.640440
 20
3.942400
  0
VERTEX
  8
0
  6
CONTINUOUS
 10
2.662000
 20
3.933160
  0
VERTEX
  8
0
  6
CONTINUOUS
 10
2.685320
 20
3.924800
  0
VERTEX
  8
0
  6
CONTINUOUS
 10
2.710840
 20
3.916880
  0
VERTEX
  8
0
  6
CONTINUOUS
 10
2.738560
 20
3.910280
  0
VERTEX
  8
0
  6
CONTINUOUS
 10
2.753080
 20
3.907200
  0
VERTEX
  8
0
  6
CONTINUOUS
 10
2.768040
 20
3.904560
  0
VERTEX
  8
0
  6
CONTINUOUS
 10
2.783880
 20
3.902360
  0
VERTEX
  8
0
  6
CONTINUOUS
 10
2.800160
 20
3.900160
  0
VERTEX
  8
0
  6
CONTINUOUS
 10
2.817320
 20
3.898400
  0
VERTEX
  8
0
  6
CONTINUOUS
 10
2.834920
 20
3.896640
  0
VERTEX
  8
0
  6
CONTINUOUS
 10
2.852960
 20
3.895760
  0
VERTEX
  8
0
  6
CONTINUOUS
 10
2.871880
 20
3.894880
  0
VERTEX
  8
0
  6
CONTINUOUS
 10
2.891240
 20
3.894000
  0
VERTEX
  8
0
  6
CONTINUOUS
 10
2.911480
 20
3.894000
  0
VERTEX
  8
0
  6
CONTINUOUS
 10
7.329080
 20
3.894880
  0
VERTEX
  8
0
  6
CONTINUOUS
 10
7.329080
 20
3.422760
  0
VERTEX
  8
0
  6
CONTINUOUS
 10
1.487640
 20
3.422760
  0
VERTEX
  8
0
  6
CONTINUOUS
 10
1.487640
 20
4.183080
  0
VERTEX
  8
0
  6
CONTINUOUS
 10
2.375560
 20
4.183080
  0
VERTEX
  8
0
  6
CONTINUOUS
 10
2.494800
 20
4.183080
  0
VERTEX
  8
0
  6
CONTINUOUS
 10
2.495240
 20
4.183080
  0
SEQEND
  8
0
  0
TEXT
  8
0
 10
3.937560
 20
3.680600
 40
0.137888
  1
BA  1002
 41
1.000000
  7
SN0
 71
     0
 72
     5
 11
4.619592
 21
3.680600
  0
TEXT
  8
0
 10
3.827560
 20
3.489200
 40
0.137888
  1
3/4" x 5-7/8"
 41
1.000000
  7
SN0
 71
     0
 72
     5
 11
4.728007
 21
3.489200
  0
ENDSEC
  0
EOF
