  0
SECTION
  2
HEADER
  9
$ACADVER
  1
AC1006
  9
$EXTMIN
 10
2.163040
 20
0.678040
  9
$EXTMAX
 10
6.192120
 20
4.494600
  9
$LTSCALE
 40
0.044000
  9
$PDMODE
 70
    35
  9
$PDSIZE
 40
0.035200
  0
ENDSEC
  0
SECTION
  2
TABLES
  0
TABLE
  2
LTYPE
 70
     9
  0
LTYPE
  2
CONTINUOUS
 70
    64
  3
Solid line
 72
    65
 73
     0
 40
0.000000
  0
LTYPE
  2
DASHED
 70
    64
  3
__ __ __ __ __ __ __ __ __ __ __ __ __ __ __
 72
    65
 73
     2
 40
0.000330
 49
0.000220
 49
-0.000110
  0
LTYPE
  2
HIDDEN
 70
    64
  3
 _ _ _ _ _ _ _ _ _ _ _ _ _ _ _ _ _ _ _ _ _ _
 72
    65
 73
     2
 40
0.000165
 49
0.000110
 49
-0.000055
  0
LTYPE
  2
CENTER
 70
    64
  3
____ _ ____ _ ____ _ ____ _ ____ _ ____ _ ____
 72
    65
 73
     4
 40
0.000880
 49
0.000550
 49
-0.000110
 49
0.000110
 49
-0.000110
  0
LTYPE
  2
PHANTOM
 70
    64
  3
_____ _ _ _____ _ _ _____ _ _ _____ _ _ ____
 72
    65
 73
     6
 40
0.001100
 49
0.000550
 49
-0.000110
 49
0.000110
 49
-0.000110
 49
0.000110
 49
-0.000110
  0
LTYPE
  2
DOT
 70
    64
  3
...............................................
 72
    65
 73
     2
 40
0.000110
 49
0.000000
 49
-0.000110
  0
LTYPE
  2
DASHDOT
 70
    64
  3
__ . __ . __ . __ . __ . __ . __ . __ . __ . __
 72
    65
 73
     4
 40
0.000440
 49
0.000220
 49
-0.000110
 49
0.000000
 49
-0.000110
  0
LTYPE
  2
BORDER
 70
    64
  3
__ __ . __ __ . __ __ . __ __ . __ __ . __ __
 72
    65
 73
     6
 40
0.000770
 49
0.000220
 49
-0.000110
 49
0.000220
 49
-0.000110
 49
0.000000
 49
-0.000110
  0
LTYPE
  2
DIVIDE
 70
    64
  3
__ . . __ . . __ . . __ . . __ . . __ . . __
 72
    65
 73
     6
 40
0.000550
 49
0.000220
 49
-0.000110
 49
0.000000
 49
-0.000110
 49
0.000000
 49
-0.000110
  0
LTYPE
  2
DOTDOT
 70
    64
  3
 . .  . .  . .  . .  . .  . . 
 72
    65
 73
     5
 40
0.000242
 49
-0.000110
 49
0.000000
 49
-0.000110
 49
0.000000
 49
-0.000110
  0
ENDTAB
  0
TABLE
  2
STYLE
 70
     2
  0
STYLE
 70
     0
  2
SN0
 40
0.000000
 41
0.000440
 50
0.000000
 71
     0
 42
0.000000
  3
ROMAND
  0
STYLE
 70
    68
  2
SV0
 40
0.000000
 41
0.000440
 50
0.000000
 71
     0
 42
0.000000
  3
ROMAND
  0
ENDTAB
  0
TABLE
  2
LAYER
 70
     3
  0
LAYER
  2
FOREGROUND
 70
    64
 62
     7
  6
CONTINUOUS
  0
LAYER
  2
BACKGROUND
 70
    65
 62
    -7
  6
CONTINUOUS
  0
LAYER
  2
0
 70
    64
 62
     7
  6
CONTINUOUS
  0
ENDTAB
  0
ENDSEC
  0
SECTION
  2
ENTITIES
  0
POLYLINE
  8
FOREGROUND
  6
CONTINUOUS
 66
     1
 40
0.000000
 41
0.000000
  0
VERTEX
  8
FOREGROUND
  6
CONTINUOUS
 10
0.000000
 20
5.172640
  0
VERTEX
  8
FOREGROUND
  6
CONTINUOUS
 10
8.499920
 20
5.172640
  0
VERTEX
  8
FOREGROUND
  6
CONTINUOUS
 10
8.499920
 20
-5.827360
  0
VERTEX
  8
FOREGROUND
  6
CONTINUOUS
 10
0.000000
 20
-5.827360
  0
VERTEX
  8
FOREGROUND
  6
CONTINUOUS
 10
0.000000
 20
5.172640
  0
SEQEND
  8
0
  0
POLYLINE
  8
FOREGROUND
  6
CONTINUOUS
 66
     1
 40
0.000000
 41
0.000000
  0
VERTEX
  8
FOREGROUND
  6
CONTINUOUS
 10
0.000000
 20
5.172640
  0
VERTEX
  8
FOREGROUND
  6
CONTINUOUS
 10
8.499920
 20
5.172640
  0
VERTEX
  8
FOREGROUND
  6
CONTINUOUS
 10
8.499920
 20
-5.827360
  0
VERTEX
  8
FOREGROUND
  6
CONTINUOUS
 10
0.000000
 20
-5.827360
  0
VERTEX
  8
FOREGROUND
  6
CONTINUOUS
 10
0.000000
 20
5.172640
  0
SEQEND
  8
0
  0
TEXT
  8
0
 10
3.845600
 20
0.916960
 40
0.138135
  1
BA 1001
 41
1.000000
  7
SN0
 71
     0
 72
     5
 11
4.481187
 21
0.916960
  0
TEXT
  8
0
 10
3.782240
 20
0.725560
 40
0.138135
  1
1-1/8" x 4"
 41
1.000000
  7
SN0
 71
     0
 72
     5
 11
4.543132
 21
0.725560
  0
SOLID
  8
0
 62
    15
 10
3.716240
 20
1.768800
 11
3.713160
 21
2.512840
 12
3.718440
 22
1.756480
 13
3.715360
 23
2.500520
  0
POLYLINE
  8
0
  6
CONTINUOUS
 66
     1
 40
0.000000
 41
0.000000
  0
VERTEX
  8
0
  6
CONTINUOUS
 10
3.716240
 20
1.768800
  0
VERTEX
  8
0
  6
CONTINUOUS
 10
3.713160
 20
2.512840
  0
VERTEX
  8
0
  6
CONTINUOUS
 10
3.715360
 20
2.500520
  0
VERTEX
  8
0
  6
CONTINUOUS
 10
3.718440
 20
1.756480
  0
VERTEX
  8
0
  6
CONTINUOUS
 10
3.716240
 20
1.768800
  0
SEQEND
  8
0
  0
SOLID
  8
0
 62
    15
 10
2.439360
 20
2.137960
 11
2.435840
 21
2.881560
 12
2.643960
 22
2.137520
 13
2.640880
 23
2.881560
  0
POLYLINE
  8
0
  6
CONTINUOUS
 66
     1
 40
0.000000
 41
0.000000
  0
VERTEX
  8
0
  6
CONTINUOUS
 10
2.439360
 20
2.137960
  0
VERTEX
  8
0
  6
CONTINUOUS
 10
2.435840
 20
2.881560
  0
VERTEX
  8
0
  6
CONTINUOUS
 10
2.640880
 20
2.881560
  0
VERTEX
  8
0
  6
CONTINUOUS
 10
2.643960
 20
2.137520
  0
VERTEX
  8
0
  6
CONTINUOUS
 10
2.439360
 20
2.137960
  0
SEQEND
  8
0
  0
SOLID
  8
0
 62
    15
 10
2.167000
 20
1.143120
 11
2.163480
 21
1.887160
 12
2.167000
 22
2.259840
 13
2.163480
 23
3.003880
  0
POLYLINE
  8
0
  6
CONTINUOUS
 66
     1
 40
0.000000
 41
0.000000
  0
VERTEX
  8
0
  6
CONTINUOUS
 10
2.167000
 20
1.143120
  0
VERTEX
  8
0
  6
CONTINUOUS
 10
2.163480
 20
1.887160
  0
VERTEX
  8
0
  6
CONTINUOUS
 10
2.163480
 20
3.003880
  0
VERTEX
  8
0
  6
CONTINUOUS
 10
2.167000
 20
2.259840
  0
VERTEX
  8
0
  6
CONTINUOUS
 10
2.167000
 20
1.143120
  0
SEQEND
  8
0
  0
SOLID
  8
0
 62
    15
 10
2.643960
 20
2.137520
 11
2.640880
 21
2.881560
 12
2.654960
 22
2.087360
 13
2.651440
 23
2.831400
  0
POLYLINE
  8
0
  6
CONTINUOUS
 66
     1
 40
0.000000
 41
0.000000
  0
VERTEX
  8
0
  6
CONTINUOUS
 10
2.643960
 20
2.137520
  0
VERTEX
  8
0
  6
CONTINUOUS
 10
2.640880
 20
2.881560
  0
VERTEX
  8
0
  6
CONTINUOUS
 10
2.651440
 20
2.831400
  0
VERTEX
  8
0
  6
CONTINUOUS
 10
2.654960
 20
2.087360
  0
VERTEX
  8
0
  6
CONTINUOUS
 10
2.643960
 20
2.137520
  0
SEQEND
  8
0
  0
SOLID
  8
0
 62
    15
 10
2.654960
 20
2.087360
 11
2.651440
 21
2.831400
 12
2.670800
 22
2.049520
 13
2.667280
 23
2.793120
  0
POLYLINE
  8
0
  6
CONTINUOUS
 66
     1
 40
0.000000
 41
0.000000
  0
VERTEX
  8
0
  6
CONTINUOUS
 10
2.654960
 20
2.087360
  0
VERTEX
  8
0
  6
CONTINUOUS
 10
2.651440
 20
2.831400
  0
VERTEX
  8
0
  6
CONTINUOUS
 10
2.667280
 20
2.793120
  0
VERTEX
  8
0
  6
CONTINUOUS
 10
2.670800
 20
2.049520
  0
VERTEX
  8
0
  6
CONTINUOUS
 10
2.654960
 20
2.087360
  0
SEQEND
  8
0
  0
SOLID
  8
0
 62
    15
 10
2.670800
 20
2.049520
 11
2.667280
 21
2.793120
 12
2.693680
 22
2.021360
 13
2.690160
 23
2.765400
  0
POLYLINE
  8
0
  6
CONTINUOUS
 66
     1
 40
0.000000
 41
0.000000
  0
VERTEX
  8
0
  6
CONTINUOUS
 10
2.670800
 20
2.049520
  0
VERTEX
  8
0
  6
CONTINUOUS
 10
2.667280
 20
2.793120
  0
VERTEX
  8
0
  6
CONTINUOUS
 10
2.690160
 20
2.765400
  0
VERTEX
  8
0
  6
CONTINUOUS
 10
2.693680
 20
2.021360
  0
VERTEX
  8
0
  6
CONTINUOUS
 10
2.670800
 20
2.049520
  0
SEQEND
  8
0
  0
SOLID
  8
0
 62
    15
 10
2.693680
 20
2.021360
 11
2.690160
 21
2.765400
 12
2.724920
 22
2.001560
 13
2.721400
 23
2.745600
  0
POLYLINE
  8
0
  6
CONTINUOUS
 66
     1
 40
0.000000
 41
0.000000
  0
VERTEX
  8
0
  6
CONTINUOUS
 10
2.693680
 20
2.021360
  0
VERTEX
  8
0
  6
CONTINUOUS
 10
2.690160
 20
2.765400
  0
VERTEX
  8
0
  6
CONTINUOUS
 10
2.721400
 20
2.745600
  0
VERTEX
  8
0
  6
CONTINUOUS
 10
2.724920
 20
2.001560
  0
VERTEX
  8
0
  6
CONTINUOUS
 10
2.693680
 20
2.021360
  0
SEQEND
  8
0
  0
SOLID
  8
0
 62
    15
 10
2.724920
 20
2.001560
 11
2.721400
 21
2.745600
 12
2.765840
 22
1.987920
 13
2.762320
 23
2.731520
  0
POLYLINE
  8
0
  6
CONTINUOUS
 66
     1
 40
0.000000
 41
0.000000
  0
VERTEX
  8
0
  6
CONTINUOUS
 10
2.724920
 20
2.001560
  0
VERTEX
  8
0
  6
CONTINUOUS
 10
2.721400
 20
2.745600
  0
VERTEX
  8
0
  6
CONTINUOUS
 10
2.762320
 20
2.731520
  0
VERTEX
  8
0
  6
CONTINUOUS
 10
2.765840
 20
1.987920
  0
VERTEX
  8
0
  6
CONTINUOUS
 10
2.724920
 20
2.001560
  0
SEQEND
  8
0
  0
SOLID
  8
0
 62
    15
 10
2.765840
 20
1.987920
 11
2.762320
 21
2.731520
 12
2.818200
 22
1.977800
 13
2.814680
 23
2.721840
  0
POLYLINE
  8
0
  6
CONTINUOUS
 66
     1
 40
0.000000
 41
0.000000
  0
VERTEX
  8
0
  6
CONTINUOUS
 10
2.765840
 20
1.987920
  0
VERTEX
  8
0
  6
CONTINUOUS
 10
2.762320
 20
2.731520
  0
VERTEX
  8
0
  6
CONTINUOUS
 10
2.814680
 20
2.721840
  0
VERTEX
  8
0
  6
CONTINUOUS
 10
2.818200
 20
1.977800
  0
VERTEX
  8
0
  6
CONTINUOUS
 10
2.765840
 20
1.987920
  0
SEQEND
  8
0
  0
SOLID
  8
0
 62
    15
 10
2.818200
 20
1.977800
 11
2.814680
 21
2.721840
 12
2.883760
 22
1.970320
 13
2.880240
 23
2.713920
  0
POLYLINE
  8
0
  6
CONTINUOUS
 66
     1
 40
0.000000
 41
0.000000
  0
VERTEX
  8
0
  6
CONTINUOUS
 10
2.818200
 20
1.977800
  0
VERTEX
  8
0
  6
CONTINUOUS
 10
2.814680
 20
2.721840
  0
VERTEX
  8
0
  6
CONTINUOUS
 10
2.880240
 20
2.713920
  0
VERTEX
  8
0
  6
CONTINUOUS
 10
2.883760
 20
1.970320
  0
VERTEX
  8
0
  6
CONTINUOUS
 10
2.818200
 20
1.977800
  0
SEQEND
  8
0
  0
SOLID
  8
0
 62
    15
 10
2.883760
 20
1.970320
 11
2.880240
 21
2.713920
 12
2.963840
 22
1.962400
 13
2.960320
 23
2.706000
  0
POLYLINE
  8
0
  6
CONTINUOUS
 66
     1
 40
0.000000
 41
0.000000
  0
VERTEX
  8
0
  6
CONTINUOUS
 10
2.883760
 20
1.970320
  0
VERTEX
  8
0
  6
CONTINUOUS
 10
2.880240
 20
2.713920
  0
VERTEX
  8
0
  6
CONTINUOUS
 10
2.960320
 20
2.706000
  0
VERTEX
  8
0
  6
CONTINUOUS
 10
2.963840
 20
1.962400
  0
VERTEX
  8
0
  6
CONTINUOUS
 10
2.883760
 20
1.970320
  0
SEQEND
  8
0
  0
SOLID
  8
0
 62
    15
 10
2.963840
 20
1.962400
 11
2.960320
 21
2.706000
 12
3.047440
 22
1.953160
 13
3.043920
 23
2.697200
  0
POLYLINE
  8
0
  6
CONTINUOUS
 66
     1
 40
0.000000
 41
0.000000
  0
VERTEX
  8
0
  6
CONTINUOUS
 10
2.963840
 20
1.962400
  0
VERTEX
  8
0
  6
CONTINUOUS
 10
2.960320
 20
2.706000
  0
VERTEX
  8
0
  6
CONTINUOUS
 10
3.043920
 20
2.697200
  0
VERTEX
  8
0
  6
CONTINUOUS
 10
3.047440
 20
1.953160
  0
VERTEX
  8
0
  6
CONTINUOUS
 10
2.963840
 20
1.962400
  0
SEQEND
  8
0
  0
SOLID
  8
0
 62
    15
 10
3.047440
 20
1.953160
 11
3.043920
 21
2.697200
 12
3.121360
 22
1.942600
 13
3.117840
 23
2.686200
  0
POLYLINE
  8
0
  6
CONTINUOUS
 66
     1
 40
0.000000
 41
0.000000
  0
VERTEX
  8
0
  6
CONTINUOUS
 10
3.047440
 20
1.953160
  0
VERTEX
  8
0
  6
CONTINUOUS
 10
3.043920
 20
2.697200
  0
VERTEX
  8
0
  6
CONTINUOUS
 10
3.117840
 20
2.686200
  0
VERTEX
  8
0
  6
CONTINUOUS
 10
3.121360
 20
1.942600
  0
VERTEX
  8
0
  6
CONTINUOUS
 10
3.047440
 20
1.953160
  0
SEQEND
  8
0
  0
SOLID
  8
0
 62
    15
 10
3.121360
 20
1.942600
 11
3.117840
 21
2.686200
 12
3.186040
 22
1.929400
 13
3.182520
 23
2.673000
  0
POLYLINE
  8
0
  6
CONTINUOUS
 66
     1
 40
0.000000
 41
0.000000
  0
VERTEX
  8
0
  6
CONTINUOUS
 10
3.121360
 20
1.942600
  0
VERTEX
  8
0
  6
CONTINUOUS
 10
3.117840
 20
2.686200
  0
VERTEX
  8
0
  6
CONTINUOUS
 10
3.182520
 20
2.673000
  0
VERTEX
  8
0
  6
CONTINUOUS
 10
3.186040
 20
1.929400
  0
VERTEX
  8
0
  6
CONTINUOUS
 10
3.121360
 20
1.942600
  0
SEQEND
  8
0
  0
SOLID
  8
0
 62
    15
 10
3.186040
 20
1.929400
 11
3.182520
 21
2.673000
 12
3.240160
 22
1.913120
 13
3.236640
 23
2.656720
  0
POLYLINE
  8
0
  6
CONTINUOUS
 66
     1
 40
0.000000
 41
0.000000
  0
VERTEX
  8
0
  6
CONTINUOUS
 10
3.186040
 20
1.929400
  0
VERTEX
  8
0
  6
CONTINUOUS
 10
3.182520
 20
2.673000
  0
VERTEX
  8
0
  6
CONTINUOUS
 10
3.236640
 20
2.656720
  0
VERTEX
  8
0
  6
CONTINUOUS
 10
3.240160
 20
1.913120
  0
VERTEX
  8
0
  6
CONTINUOUS
 10
3.186040
 20
1.929400
  0
SEQEND
  8
0
  0
SOLID
  8
0
 62
    15
 10
3.240160
 20
1.913120
 11
3.236640
 21
2.656720
 12
3.283720
 22
1.892440
 13
3.280200
 23
2.636480
  0
POLYLINE
  8
0
  6
CONTINUOUS
 66
     1
 40
0.000000
 41
0.000000
  0
VERTEX
  8
0
  6
CONTINUOUS
 10
3.240160
 20
1.913120
  0
VERTEX
  8
0
  6
CONTINUOUS
 10
3.236640
 20
2.656720
  0
VERTEX
  8
0
  6
CONTINUOUS
 10
3.280200
 20
2.636480
  0
VERTEX
  8
0
  6
CONTINUOUS
 10
3.283720
 20
1.892440
  0
VERTEX
  8
0
  6
CONTINUOUS
 10
3.240160
 20
1.913120
  0
SEQEND
  8
0
  0
SOLID
  8
0
 62
    15
 10
3.283720
 20
1.892440
 11
3.280200
 21
2.636480
 12
3.316280
 22
1.867800
 13
3.313200
 23
2.611400
  0
POLYLINE
  8
0
  6
CONTINUOUS
 66
     1
 40
0.000000
 41
0.000000
  0
VERTEX
  8
0
  6
CONTINUOUS
 10
3.283720
 20
1.892440
  0
VERTEX
  8
0
  6
CONTINUOUS
 10
3.280200
 20
2.636480
  0
VERTEX
  8
0
  6
CONTINUOUS
 10
3.313200
 20
2.611400
  0
VERTEX
  8
0
  6
CONTINUOUS
 10
3.316280
 20
1.867800
  0
VERTEX
  8
0
  6
CONTINUOUS
 10
3.283720
 20
1.892440
  0
SEQEND
  8
0
  0
SOLID
  8
0
 62
    15
 10
3.316280
 20
1.867800
 11
3.313200
 21
2.611400
 12
3.337400
 22
1.837440
 13
3.334320
 23
2.581040
  0
POLYLINE
  8
0
  6
CONTINUOUS
 66
     1
 40
0.000000
 41
0.000000
  0
VERTEX
  8
0
  6
CONTINUOUS
 10
3.316280
 20
1.867800
  0
VERTEX
  8
0
  6
CONTINUOUS
 10
3.313200
 20
2.611400
  0
VERTEX
  8
0
  6
CONTINUOUS
 10
3.334320
 20
2.581040
  0
VERTEX
  8
0
  6
CONTINUOUS
 10
3.337400
 20
1.837440
  0
VERTEX
  8
0
  6
CONTINUOUS
 10
3.316280
 20
1.867800
  0
SEQEND
  8
0
  0
SOLID
  8
0
 62
    15
 10
3.337400
 20
1.837440
 11
3.334320
 21
2.581040
 12
3.346640
 22
1.800480
 13
3.343560
 23
2.544520
  0
POLYLINE
  8
0
  6
CONTINUOUS
 66
     1
 40
0.000000
 41
0.000000
  0
VERTEX
  8
0
  6
CONTINUOUS
 10
3.337400
 20
1.837440
  0
VERTEX
  8
0
  6
CONTINUOUS
 10
3.334320
 20
2.581040
  0
VERTEX
  8
0
  6
CONTINUOUS
 10
3.343560
 20
2.544520
  0
VERTEX
  8
0
  6
CONTINUOUS
 10
3.346640
 20
1.800480
  0
VERTEX
  8
0
  6
CONTINUOUS
 10
3.337400
 20
1.837440
  0
SEQEND
  8
0
  0
SOLID
  8
0
 62
    15
 10
3.346640
 20
1.800480
 11
3.343560
 21
2.544520
 12
3.411320
 22
1.800040
 13
3.407800
 23
2.544080
  0
POLYLINE
  8
0
  6
CONTINUOUS
 66
     1
 40
0.000000
 41
0.000000
  0
VERTEX
  8
0
  6
CONTINUOUS
 10
3.346640
 20
1.800480
  0
VERTEX
  8
0
  6
CONTINUOUS
 10
3.343560
 20
2.544520
  0
VERTEX
  8
0
  6
CONTINUOUS
 10
3.407800
 20
2.544080
  0
VERTEX
  8
0
  6
CONTINUOUS
 10
3.411320
 20
1.800040
  0
VERTEX
  8
0
  6
CONTINUOUS
 10
3.346640
 20
1.800480
  0
SEQEND
  8
0
  0
SOLID
  8
0
 62
    15
 10
3.411320
 20
1.800040
 11
3.407800
 21
2.544080
 12
3.420560
 22
1.837880
 13
3.417040
 23
2.581480
  0
POLYLINE
  8
0
  6
CONTINUOUS
 66
     1
 40
0.000000
 41
0.000000
  0
VERTEX
  8
0
  6
CONTINUOUS
 10
3.411320
 20
1.800040
  0
VERTEX
  8
0
  6
CONTINUOUS
 10
3.407800
 20
2.544080
  0
VERTEX
  8
0
  6
CONTINUOUS
 10
3.417040
 20
2.581480
  0
VERTEX
  8
0
  6
CONTINUOUS
 10
3.420560
 20
1.837880
  0
VERTEX
  8
0
  6
CONTINUOUS
 10
3.411320
 20
1.800040
  0
SEQEND
  8
0
  0
SOLID
  8
0
 62
    15
 10
3.420560
 20
1.837880
 11
3.417040
 21
2.581480
 12
3.441240
 22
1.864720
 13
3.437720
 23
2.608320
  0
POLYLINE
  8
0
  6
CONTINUOUS
 66
     1
 40
0.000000
 41
0.000000
  0
VERTEX
  8
0
  6
CONTINUOUS
 10
3.420560
 20
1.837880
  0
VERTEX
  8
0
  6
CONTINUOUS
 10
3.417040
 20
2.581480
  0
VERTEX
  8
0
  6
CONTINUOUS
 10
3.437720
 20
2.608320
  0
VERTEX
  8
0
  6
CONTINUOUS
 10
3.441240
 20
1.864720
  0
VERTEX
  8
0
  6
CONTINUOUS
 10
3.420560
 20
1.837880
  0
SEQEND
  8
0
  0
SOLID
  8
0
 62
    15
 10
3.441240
 20
1.864720
 11
3.437720
 21
2.608320
 12
3.468960
 22
1.880560
 13
3.465880
 23
2.624600
  0
POLYLINE
  8
0
  6
CONTINUOUS
 66
     1
 40
0.000000
 41
0.000000
  0
VERTEX
  8
0
  6
CONTINUOUS
 10
3.441240
 20
1.864720
  0
VERTEX
  8
0
  6
CONTINUOUS
 10
3.437720
 20
2.608320
  0
VERTEX
  8
0
  6
CONTINUOUS
 10
3.465880
 20
2.624600
  0
VERTEX
  8
0
  6
CONTINUOUS
 10
3.468960
 20
1.880560
  0
VERTEX
  8
0
  6
CONTINUOUS
 10
3.441240
 20
1.864720
  0
SEQEND
  8
0
  0
SOLID
  8
0
 62
    15
 10
3.468960
 20
1.880560
 11
3.465880
 21
2.624600
 12
3.500640
 22
1.885400
 13
3.497120
 23
2.629000
  0
POLYLINE
  8
0
  6
CONTINUOUS
 66
     1
 40
0.000000
 41
0.000000
  0
VERTEX
  8
0
  6
CONTINUOUS
 10
3.468960
 20
1.880560
  0
VERTEX
  8
0
  6
CONTINUOUS
 10
3.465880
 20
2.624600
  0
VERTEX
  8
0
  6
CONTINUOUS
 10
3.497120
 20
2.629000
  0
VERTEX
  8
0
  6
CONTINUOUS
 10
3.500640
 20
1.885400
  0
VERTEX
  8
0
  6
CONTINUOUS
 10
3.468960
 20
1.880560
  0
SEQEND
  8
0
  0
SOLID
  8
0
 62
    15
 10
3.500640
 20
1.885400
 11
3.497120
 21
2.629000
 12
3.531440
 22
1.878800
 13
3.528360
 23
2.622840
  0
POLYLINE
  8
0
  6
CONTINUOUS
 66
     1
 40
0.000000
 41
0.000000
  0
VERTEX
  8
0
  6
CONTINUOUS
 10
3.500640
 20
1.885400
  0
VERTEX
  8
0
  6
CONTINUOUS
 10
3.497120
 20
2.629000
  0
VERTEX
  8
0
  6
CONTINUOUS
 10
3.528360
 20
2.622840
  0
VERTEX
  8
0
  6
CONTINUOUS
 10
3.531440
 20
1.878800
  0
VERTEX
  8
0
  6
CONTINUOUS
 10
3.500640
 20
1.885400
  0
SEQEND
  8
0
  0
SOLID
  8
0
 62
    15
 10
3.531440
 20
1.878800
 11
3.528360
 21
2.622840
 12
3.558720
 22
1.860760
 13
3.555200
 23
2.604800
  0
POLYLINE
  8
0
  6
CONTINUOUS
 66
     1
 40
0.000000
 41
0.000000
  0
VERTEX
  8
0
  6
CONTINUOUS
 10
3.531440
 20
1.878800
  0
VERTEX
  8
0
  6
CONTINUOUS
 10
3.528360
 20
2.622840
  0
VERTEX
  8
0
  6
CONTINUOUS
 10
3.555200
 20
2.604800
  0
VERTEX
  8
0
  6
CONTINUOUS
 10
3.558720
 20
1.860760
  0
VERTEX
  8
0
  6
CONTINUOUS
 10
3.531440
 20
1.878800
  0
SEQEND
  8
0
  0
SOLID
  8
0
 62
    15
 10
3.558720
 20
1.860760
 11
3.555200
 21
2.604800
 12
3.577640
 22
1.831280
 13
3.574120
 23
2.575320
  0
POLYLINE
  8
0
  6
CONTINUOUS
 66
     1
 40
0.000000
 41
0.000000
  0
VERTEX
  8
0
  6
CONTINUOUS
 10
3.558720
 20
1.860760
  0
VERTEX
  8
0
  6
CONTINUOUS
 10
3.555200
 20
2.604800
  0
VERTEX
  8
0
  6
CONTINUOUS
 10
3.574120
 20
2.575320
  0
VERTEX
  8
0
  6
CONTINUOUS
 10
3.577640
 20
1.831280
  0
VERTEX
  8
0
  6
CONTINUOUS
 10
3.558720
 20
1.860760
  0
SEQEND
  8
0
  0
SOLID
  8
0
 62
    15
 10
3.577640
 20
1.831280
 11
3.574120
 21
2.575320
 12
3.584240
 22
1.789920
 13
3.581160
 23
2.533520
  0
POLYLINE
  8
0
  6
CONTINUOUS
 66
     1
 40
0.000000
 41
0.000000
  0
VERTEX
  8
0
  6
CONTINUOUS
 10
3.577640
 20
1.831280
  0
VERTEX
  8
0
  6
CONTINUOUS
 10
3.574120
 20
2.575320
  0
VERTEX
  8
0
  6
CONTINUOUS
 10
3.581160
 20
2.533520
  0
VERTEX
  8
0
  6
CONTINUOUS
 10
3.584240
 20
1.789920
  0
VERTEX
  8
0
  6
CONTINUOUS
 10
3.577640
 20
1.831280
  0
SEQEND
  8
0
  0
SOLID
  8
0
 62
    15
 10
3.584240
 20
1.789920
 11
3.581160
 21
2.533520
 12
3.633520
 22
1.789040
 13
3.630440
 23
2.532640
  0
POLYLINE
  8
0
  6
CONTINUOUS
 66
     1
 40
0.000000
 41
0.000000
  0
VERTEX
  8
0
  6
CONTINUOUS
 10
3.584240
 20
1.789920
  0
VERTEX
  8
0
  6
CONTINUOUS
 10
3.581160
 20
2.533520
  0
VERTEX
  8
0
  6
CONTINUOUS
 10
3.630440
 20
2.532640
  0
VERTEX
  8
0
  6
CONTINUOUS
 10
3.633520
 20
1.789040
  0
VERTEX
  8
0
  6
CONTINUOUS
 10
3.584240
 20
1.789920
  0
SEQEND
  8
0
  0
SOLID
  8
0
 62
    15
 10
3.633520
 20
1.789040
 11
3.630440
 21
2.532640
 12
3.668720
 22
1.788600
 13
3.665640
 23
2.532200
  0
POLYLINE
  8
0
  6
CONTINUOUS
 66
     1
 40
0.000000
 41
0.000000
  0
VERTEX
  8
0
  6
CONTINUOUS
 10
3.633520
 20
1.789040
  0
VERTEX
  8
0
  6
CONTINUOUS
 10
3.630440
 20
2.532640
  0
VERTEX
  8
0
  6
CONTINUOUS
 10
3.665640
 20
2.532200
  0
VERTEX
  8
0
  6
CONTINUOUS
 10
3.668720
 20
1.788600
  0
VERTEX
  8
0
  6
CONTINUOUS
 10
3.633520
 20
1.789040
  0
SEQEND
  8
0
  0
SOLID
  8
0
 62
    15
 10
3.668720
 20
1.788600
 11
3.665640
 21
2.532200
 12
3.692480
 22
1.788160
 13
3.688960
 23
2.532200
  0
POLYLINE
  8
0
  6
CONTINUOUS
 66
     1
 40
0.000000
 41
0.000000
  0
VERTEX
  8
0
  6
CONTINUOUS
 10
3.668720
 20
1.788600
  0
VERTEX
  8
0
  6
CONTINUOUS
 10
3.665640
 20
2.532200
  0
VERTEX
  8
0
  6
CONTINUOUS
 10
3.688960
 20
2.532200
  0
VERTEX
  8
0
  6
CONTINUOUS
 10
3.692480
 20
1.788160
  0
VERTEX
  8
0
  6
CONTINUOUS
 10
3.668720
 20
1.788600
  0
SEQEND
  8
0
  0
SOLID
  8
0
 62
    15
 10
3.692480
 20
1.788160
 11
3.688960
 21
2.532200
 12
3.707000
 22
1.787280
 13
3.703480
 23
2.531320
  0
POLYLINE
  8
0
  6
CONTINUOUS
 66
     1
 40
0.000000
 41
0.000000
  0
VERTEX
  8
0
  6
CONTINUOUS
 10
3.692480
 20
1.788160
  0
VERTEX
  8
0
  6
CONTINUOUS
 10
3.688960
 20
2.532200
  0
VERTEX
  8
0
  6
CONTINUOUS
 10
3.703480
 20
2.531320
  0
VERTEX
  8
0
  6
CONTINUOUS
 10
3.707000
 20
1.787280
  0
VERTEX
  8
0
  6
CONTINUOUS
 10
3.692480
 20
1.788160
  0
SEQEND
  8
0
  0
SOLID
  8
0
 62
    15
 10
3.707000
 20
1.787280
 11
3.703480
 21
2.531320
 12
3.716680
 22
1.782000
 13
3.713160
 23
2.526040
  0
POLYLINE
  8
0
  6
CONTINUOUS
 66
     1
 40
0.000000
 41
0.000000
  0
VERTEX
  8
0
  6
CONTINUOUS
 10
3.707000
 20
1.787280
  0
VERTEX
  8
0
  6
CONTINUOUS
 10
3.703480
 20
2.531320
  0
VERTEX
  8
0
  6
CONTINUOUS
 10
3.713160
 20
2.526040
  0
VERTEX
  8
0
  6
CONTINUOUS
 10
3.716680
 20
1.782000
  0
VERTEX
  8
0
  6
CONTINUOUS
 10
3.707000
 20
1.787280
  0
SEQEND
  8
0
  0
SOLID
  8
0
 62
    15
 10
2.167000
 20
2.259840
 11
2.163480
 21
3.003880
 12
2.439360
 22
2.261600
 13
2.435840
 23
3.005640
  0
POLYLINE
  8
0
  6
CONTINUOUS
 66
     1
 40
0.000000
 41
0.000000
  0
VERTEX
  8
0
  6
CONTINUOUS
 10
2.167000
 20
2.259840
  0
VERTEX
  8
0
  6
CONTINUOUS
 10
2.163480
 20
3.003880
  0
VERTEX
  8
0
  6
CONTINUOUS
 10
2.435840
 20
3.005640
  0
VERTEX
  8
0
  6
CONTINUOUS
 10
2.439360
 20
2.261600
  0
VERTEX
  8
0
  6
CONTINUOUS
 10
2.167000
 20
2.259840
  0
SEQEND
  8
0
  0
SOLID
  8
0
 62
    15
 10
3.718440
 20
1.756480
 11
3.715360
 21
2.500520
 12
3.724600
 22
1.740200
 13
3.721080
 23
2.483800
  0
POLYLINE
  8
0
  6
CONTINUOUS
 66
     1
 40
0.000000
 41
0.000000
  0
VERTEX
  8
0
  6
CONTINUOUS
 10
3.718440
 20
1.756480
  0
VERTEX
  8
0
  6
CONTINUOUS
 10
3.715360
 20
2.500520
  0
VERTEX
  8
0
  6
CONTINUOUS
 10
3.721080
 20
2.483800
  0
VERTEX
  8
0
  6
CONTINUOUS
 10
3.724600
 20
1.740200
  0
VERTEX
  8
0
  6
CONTINUOUS
 10
3.718440
 20
1.756480
  0
SEQEND
  8
0
  0
SOLID
  8
0
 62
    15
 10
3.724600
 20
1.740200
 11
3.721080
 21
2.483800
 12
3.747040
 22
1.701920
 13
3.743520
 23
2.445520
  0
POLYLINE
  8
0
  6
CONTINUOUS
 66
     1
 40
0.000000
 41
0.000000
  0
VERTEX
  8
0
  6
CONTINUOUS
 10
3.724600
 20
1.740200
  0
VERTEX
  8
0
  6
CONTINUOUS
 10
3.721080
 20
2.483800
  0
VERTEX
  8
0
  6
CONTINUOUS
 10
3.743520
 20
2.445520
  0
VERTEX
  8
0
  6
CONTINUOUS
 10
3.747040
 20
1.701920
  0
VERTEX
  8
0
  6
CONTINUOUS
 10
3.724600
 20
1.740200
  0
SEQEND
  8
0
  0
SOLID
  8
0
 62
    15
 10
3.747040
 20
1.701920
 11
3.743520
 21
2.445520
 12
3.784880
 22
1.668920
 13
3.781800
 23
2.412960
  0
POLYLINE
  8
0
  6
CONTINUOUS
 66
     1
 40
0.000000
 41
0.000000
  0
VERTEX
  8
0
  6
CONTINUOUS
 10
3.747040
 20
1.701920
  0
VERTEX
  8
0
  6
CONTINUOUS
 10
3.743520
 20
2.445520
  0
VERTEX
  8
0
  6
CONTINUOUS
 10
3.781800
 20
2.412960
  0
VERTEX
  8
0
  6
CONTINUOUS
 10
3.784880
 20
1.668920
  0
VERTEX
  8
0
  6
CONTINUOUS
 10
3.747040
 20
1.701920
  0
SEQEND
  8
0
  0
SOLID
  8
0
 62
    15
 10
3.784880
 20
1.668920
 11
3.781800
 21
2.412960
 12
3.809960
 22
1.659240
 13
3.806440
 23
2.403280
  0
POLYLINE
  8
0
  6
CONTINUOUS
 66
     1
 40
0.000000
 41
0.000000
  0
VERTEX
  8
0
  6
CONTINUOUS
 10
3.784880
 20
1.668920
  0
VERTEX
  8
0
  6
CONTINUOUS
 10
3.781800
 20
2.412960
  0
VERTEX
  8
0
  6
CONTINUOUS
 10
3.806440
 20
2.403280
  0
VERTEX
  8
0
  6
CONTINUOUS
 10
3.809960
 20
1.659240
  0
VERTEX
  8
0
  6
CONTINUOUS
 10
3.784880
 20
1.668920
  0
SEQEND
  8
0
  0
SOLID
  8
0
 62
    15
 10
3.809960
 20
1.659240
 11
3.806440
 21
2.403280
 12
3.839000
 22
1.656600
 13
3.835480
 23
2.400640
  0
POLYLINE
  8
0
  6
CONTINUOUS
 66
     1
 40
0.000000
 41
0.000000
  0
VERTEX
  8
0
  6
CONTINUOUS
 10
3.809960
 20
1.659240
  0
VERTEX
  8
0
  6
CONTINUOUS
 10
3.806440
 20
2.403280
  0
VERTEX
  8
0
  6
CONTINUOUS
 10
3.835480
 20
2.400640
  0
VERTEX
  8
0
  6
CONTINUOUS
 10
3.839000
 20
1.656600
  0
VERTEX
  8
0
  6
CONTINUOUS
 10
3.809960
 20
1.659240
  0
SEQEND
  8
0
  0
SOLID
  8
0
 62
    15
 10
3.839000
 20
1.656600
 11
3.835480
 21
2.400640
 12
4.781920
 22
1.653960
 13
4.778840
 23
2.397560
  0
POLYLINE
  8
0
  6
CONTINUOUS
 66
     1
 40
0.000000
 41
0.000000
  0
VERTEX
  8
0
  6
CONTINUOUS
 10
3.839000
 20
1.656600
  0
VERTEX
  8
0
  6
CONTINUOUS
 10
3.835480
 20
2.400640
  0
VERTEX
  8
0
  6
CONTINUOUS
 10
4.778840
 20
2.397560
  0
VERTEX
  8
0
  6
CONTINUOUS
 10
4.781920
 20
1.653960
  0
VERTEX
  8
0
  6
CONTINUOUS
 10
3.839000
 20
1.656600
  0
SEQEND
  8
0
  0
SOLID
  8
0
 62
    15
 10
4.781920
 20
1.653960
 11
4.778840
 21
2.397560
 12
4.787640
 22
1.640760
 13
4.784560
 23
2.384800
  0
POLYLINE
  8
0
  6
CONTINUOUS
 66
     1
 40
0.000000
 41
0.000000
  0
VERTEX
  8
0
  6
CONTINUOUS
 10
4.781920
 20
1.653960
  0
VERTEX
  8
0
  6
CONTINUOUS
 10
4.778840
 20
2.397560
  0
VERTEX
  8
0
  6
CONTINUOUS
 10
4.784560
 20
2.384800
  0
VERTEX
  8
0
  6
CONTINUOUS
 10
4.787640
 20
1.640760
  0
VERTEX
  8
0
  6
CONTINUOUS
 10
4.781920
 20
1.653960
  0
SEQEND
  8
0
  0
SOLID
  8
0
 62
    15
 10
4.787640
 20
1.640760
 11
4.784560
 21
2.384800
 12
4.792920
 22
1.628440
 13
4.789840
 23
2.372040
  0
POLYLINE
  8
0
  6
CONTINUOUS
 66
     1
 40
0.000000
 41
0.000000
  0
VERTEX
  8
0
  6
CONTINUOUS
 10
4.787640
 20
1.640760
  0
VERTEX
  8
0
  6
CONTINUOUS
 10
4.784560
 20
2.384800
  0
VERTEX
  8
0
  6
CONTINUOUS
 10
4.789840
 20
2.372040
  0
VERTEX
  8
0
  6
CONTINUOUS
 10
4.792920
 20
1.628440
  0
VERTEX
  8
0
  6
CONTINUOUS
 10
4.787640
 20
1.640760
  0
SEQEND
  8
0
  0
SOLID
  8
0
 62
    15
 10
4.792920
 20
1.628440
 11
4.789840
 21
2.372040
 12
4.803920
 22
1.604680
 13
4.800840
 23
2.348280
  0
POLYLINE
  8
0
  6
CONTINUOUS
 66
     1
 40
0.000000
 41
0.000000
  0
VERTEX
  8
0
  6
CONTINUOUS
 10
4.792920
 20
1.628440
  0
VERTEX
  8
0
  6
CONTINUOUS
 10
4.789840
 20
2.372040
  0
VERTEX
  8
0
  6
CONTINUOUS
 10
4.800840
 20
2.348280
  0
VERTEX
  8
0
  6
CONTINUOUS
 10
4.803920
 20
1.604680
  0
VERTEX
  8
0
  6
CONTINUOUS
 10
4.792920
 20
1.628440
  0
SEQEND
  8
0
  0
SOLID
  8
0
 62
    15
 10
4.803920
 20
1.604680
 11
4.800840
 21
2.348280
 12
4.817120
 22
1.583120
 13
4.814040
 23
2.326720
  0
POLYLINE
  8
0
  6
CONTINUOUS
 66
     1
 40
0.000000
 41
0.000000
  0
VERTEX
  8
0
  6
CONTINUOUS
 10
4.803920
 20
1.604680
  0
VERTEX
  8
0
  6
CONTINUOUS
 10
4.800840
 20
2.348280
  0
VERTEX
  8
0
  6
CONTINUOUS
 10
4.814040
 20
2.326720
  0
VERTEX
  8
0
  6
CONTINUOUS
 10
4.817120
 20
1.583120
  0
VERTEX
  8
0
  6
CONTINUOUS
 10
4.803920
 20
1.604680
  0
SEQEND
  8
0
  0
SOLID
  8
0
 62
    15
 10
4.817120
 20
1.583120
 11
4.814040
 21
2.326720
 12
4.835160
 22
1.564200
 13
4.831640
 23
2.308240
  0
POLYLINE
  8
0
  6
CONTINUOUS
 66
     1
 40
0.000000
 41
0.000000
  0
VERTEX
  8
0
  6
CONTINUOUS
 10
4.817120
 20
1.583120
  0
VERTEX
  8
0
  6
CONTINUOUS
 10
4.814040
 20
2.326720
  0
VERTEX
  8
0
  6
CONTINUOUS
 10
4.831640
 20
2.308240
  0
VERTEX
  8
0
  6
CONTINUOUS
 10
4.835160
 20
1.564200
  0
VERTEX
  8
0
  6
CONTINUOUS
 10
4.817120
 20
1.583120
  0
SEQEND
  8
0
  0
SOLID
  8
0
 62
    15
 10
4.835160
 20
1.564200
 11
4.831640
 21
2.308240
 12
4.859800
 22
1.548800
 13
4.856280
 23
2.292840
  0
POLYLINE
  8
0
  6
CONTINUOUS
 66
     1
 40
0.000000
 41
0.000000
  0
VERTEX
  8
0
  6
CONTINUOUS
 10
4.835160
 20
1.564200
  0
VERTEX
  8
0
  6
CONTINUOUS
 10
4.831640
 20
2.308240
  0
VERTEX
  8
0
  6
CONTINUOUS
 10
4.856280
 20
2.292840
  0
VERTEX
  8
0
  6
CONTINUOUS
 10
4.859800
 20
1.548800
  0
VERTEX
  8
0
  6
CONTINUOUS
 10
4.835160
 20
1.564200
  0
SEQEND
  8
0
  0
SOLID
  8
0
 62
    15
 10
4.859800
 20
1.548800
 11
4.856280
 21
2.292840
 12
4.893680
 22
1.537360
 13
4.890160
 23
2.280960
  0
POLYLINE
  8
0
  6
CONTINUOUS
 66
     1
 40
0.000000
 41
0.000000
  0
VERTEX
  8
0
  6
CONTINUOUS
 10
4.859800
 20
1.548800
  0
VERTEX
  8
0
  6
CONTINUOUS
 10
4.856280
 20
2.292840
  0
VERTEX
  8
0
  6
CONTINUOUS
 10
4.890160
 20
2.280960
  0
VERTEX
  8
0
  6
CONTINUOUS
 10
4.893680
 20
1.537360
  0
VERTEX
  8
0
  6
CONTINUOUS
 10
4.859800
 20
1.548800
  0
SEQEND
  8
0
  0
SOLID
  8
0
 62
    15
 10
4.893680
 20
1.537360
 11
4.890160
 21
2.280960
 12
4.938560
 22
1.530320
 13
4.935480
 23
2.273920
  0
POLYLINE
  8
0
  6
CONTINUOUS
 66
     1
 40
0.000000
 41
0.000000
  0
VERTEX
  8
0
  6
CONTINUOUS
 10
4.893680
 20
1.537360
  0
VERTEX
  8
0
  6
CONTINUOUS
 10
4.890160
 20
2.280960
  0
VERTEX
  8
0
  6
CONTINUOUS
 10
4.935480
 20
2.273920
  0
VERTEX
  8
0
  6
CONTINUOUS
 10
4.938560
 20
1.530320
  0
VERTEX
  8
0
  6
CONTINUOUS
 10
4.893680
 20
1.537360
  0
SEQEND
  8
0
  0
SOLID
  8
0
 62
    15
 10
4.938560
 20
1.530320
 11
4.935480
 21
2.273920
 12
4.997520
 22
1.528120
 13
4.994000
 23
2.271720
  0
POLYLINE
  8
0
  6
CONTINUOUS
 66
     1
 40
0.000000
 41
0.000000
  0
VERTEX
  8
0
  6
CONTINUOUS
 10
4.938560
 20
1.530320
  0
VERTEX
  8
0
  6
CONTINUOUS
 10
4.935480
 20
2.273920
  0
VERTEX
  8
0
  6
CONTINUOUS
 10
4.994000
 20
2.271720
  0
VERTEX
  8
0
  6
CONTINUOUS
 10
4.997520
 20
1.528120
  0
VERTEX
  8
0
  6
CONTINUOUS
 10
4.938560
 20
1.530320
  0
SEQEND
  8
0
  0
SOLID
  8
0
 62
    15
 10
5.758720
 20
1.400960
 11
5.755200
 21
2.145000
 12
5.846720
 22
1.400960
 13
5.843200
 23
2.145000
  0
POLYLINE
  8
0
  6
CONTINUOUS
 66
     1
 40
0.000000
 41
0.000000
  0
VERTEX
  8
0
  6
CONTINUOUS
 10
5.758720
 20
1.400960
  0
VERTEX
  8
0
  6
CONTINUOUS
 10
5.755200
 20
2.145000
  0
VERTEX
  8
0
  6
CONTINUOUS
 10
5.843200
 20
2.145000
  0
VERTEX
  8
0
  6
CONTINUOUS
 10
5.846720
 20
1.400960
  0
VERTEX
  8
0
  6
CONTINUOUS
 10
5.758720
 20
1.400960
  0
SEQEND
  8
0
  0
SOLID
  8
0
 62
    15
 10
4.997520
 20
1.528120
 11
4.994000
 21
2.271720
 12
5.758720
 22
1.528120
 13
5.755200
 23
2.271720
  0
POLYLINE
  8
0
  6
CONTINUOUS
 66
     1
 40
0.000000
 41
0.000000
  0
VERTEX
  8
0
  6
CONTINUOUS
 10
4.997520
 20
1.528120
  0
VERTEX
  8
0
  6
CONTINUOUS
 10
4.994000
 20
2.271720
  0
VERTEX
  8
0
  6
CONTINUOUS
 10
5.755200
 20
2.271720
  0
VERTEX
  8
0
  6
CONTINUOUS
 10
5.758720
 20
1.528120
  0
VERTEX
  8
0
  6
CONTINUOUS
 10
4.997520
 20
1.528120
  0
SEQEND
  8
0
  0
SOLID
  8
0
 62
    15
 10
5.846720
 20
1.400960
 11
5.843200
 21
2.145000
 12
5.849360
 22
1.437040
 13
5.846280
 23
2.181080
  0
POLYLINE
  8
0
  6
CONTINUOUS
 66
     1
 40
0.000000
 41
0.000000
  0
VERTEX
  8
0
  6
CONTINUOUS
 10
5.846720
 20
1.400960
  0
VERTEX
  8
0
  6
CONTINUOUS
 10
5.843200
 20
2.145000
  0
VERTEX
  8
0
  6
CONTINUOUS
 10
5.846280
 20
2.181080
  0
VERTEX
  8
0
  6
CONTINUOUS
 10
5.849360
 20
1.437040
  0
VERTEX
  8
0
  6
CONTINUOUS
 10
5.846720
 20
1.400960
  0
SEQEND
  8
0
  0
SOLID
  8
0
 62
    15
 10
5.849360
 20
1.437040
 11
5.846280
 21
2.181080
 12
5.857720
 22
1.468280
 13
5.854200
 23
2.211880
  0
POLYLINE
  8
0
  6
CONTINUOUS
 66
     1
 40
0.000000
 41
0.000000
  0
VERTEX
  8
0
  6
CONTINUOUS
 10
5.849360
 20
1.437040
  0
VERTEX
  8
0
  6
CONTINUOUS
 10
5.846280
 20
2.181080
  0
VERTEX
  8
0
  6
CONTINUOUS
 10
5.854200
 20
2.211880
  0
VERTEX
  8
0
  6
CONTINUOUS
 10
5.857720
 20
1.468280
  0
VERTEX
  8
0
  6
CONTINUOUS
 10
5.849360
 20
1.437040
  0
SEQEND
  8
0
  0
SOLID
  8
0
 62
    15
 10
5.857720
 20
1.468280
 11
5.854200
 21
2.211880
 12
5.870480
 22
1.494240
 13
5.866960
 23
2.238280
  0
POLYLINE
  8
0
  6
CONTINUOUS
 66
     1
 40
0.000000
 41
0.000000
  0
VERTEX
  8
0
  6
CONTINUOUS
 10
5.857720
 20
1.468280
  0
VERTEX
  8
0
  6
CONTINUOUS
 10
5.854200
 20
2.211880
  0
VERTEX
  8
0
  6
CONTINUOUS
 10
5.866960
 20
2.238280
  0
VERTEX
  8
0
  6
CONTINUOUS
 10
5.870480
 20
1.494240
  0
VERTEX
  8
0
  6
CONTINUOUS
 10
5.857720
 20
1.468280
  0
SEQEND
  8
0
  0
SOLID
  8
0
 62
    15
 10
5.870480
 20
1.494240
 11
5.866960
 21
2.238280
 12
5.887200
 22
1.515800
 13
5.883680
 23
2.259400
  0
POLYLINE
  8
0
  6
CONTINUOUS
 66
     1
 40
0.000000
 41
0.000000
  0
VERTEX
  8
0
  6
CONTINUOUS
 10
5.870480
 20
1.494240
  0
VERTEX
  8
0
  6
CONTINUOUS
 10
5.866960
 20
2.238280
  0
VERTEX
  8
0
  6
CONTINUOUS
 10
5.883680
 20
2.259400
  0
VERTEX
  8
0
  6
CONTINUOUS
 10
5.887200
 20
1.515800
  0
VERTEX
  8
0
  6
CONTINUOUS
 10
5.870480
 20
1.494240
  0
SEQEND
  8
0
  0
SOLID
  8
0
 62
    15
 10
5.887200
 20
1.515800
 11
5.883680
 21
2.259400
 12
5.906560
 22
1.532080
 13
5.903040
 23
2.276120
  0
POLYLINE
  8
0
  6
CONTINUOUS
 66
     1
 40
0.000000
 41
0.000000
  0
VERTEX
  8
0
  6
CONTINUOUS
 10
5.887200
 20
1.515800
  0
VERTEX
  8
0
  6
CONTINUOUS
 10
5.883680
 20
2.259400
  0
VERTEX
  8
0
  6
CONTINUOUS
 10
5.903040
 20
2.276120
  0
VERTEX
  8
0
  6
CONTINUOUS
 10
5.906560
 20
1.532080
  0
VERTEX
  8
0
  6
CONTINUOUS
 10
5.887200
 20
1.515800
  0
SEQEND
  8
0
  0
SOLID
  8
0
 62
    15
 10
5.906560
 20
1.532080
 11
5.903040
 21
2.276120
 12
5.928560
 22
1.543960
 13
5.925040
 23
2.288000
  0
POLYLINE
  8
0
  6
CONTINUOUS
 66
     1
 40
0.000000
 41
0.000000
  0
VERTEX
  8
0
  6
CONTINUOUS
 10
5.906560
 20
1.532080
  0
VERTEX
  8
0
  6
CONTINUOUS
 10
5.903040
 20
2.276120
  0
VERTEX
  8
0
  6
CONTINUOUS
 10
5.925040
 20
2.288000
  0
VERTEX
  8
0
  6
CONTINUOUS
 10
5.928560
 20
1.543960
  0
VERTEX
  8
0
  6
CONTINUOUS
 10
5.906560
 20
1.532080
  0
SEQEND
  8
0
  0
SOLID
  8
0
 62
    15
 10
5.928560
 20
1.543960
 11
5.925040
 21
2.288000
 12
5.976080
 22
1.552760
 13
5.972560
 23
2.296800
  0
POLYLINE
  8
0
  6
CONTINUOUS
 66
     1
 40
0.000000
 41
0.000000
  0
VERTEX
  8
0
  6
CONTINUOUS
 10
5.928560
 20
1.543960
  0
VERTEX
  8
0
  6
CONTINUOUS
 10
5.925040
 20
2.288000
  0
VERTEX
  8
0
  6
CONTINUOUS
 10
5.972560
 20
2.296800
  0
VERTEX
  8
0
  6
CONTINUOUS
 10
5.976080
 20
1.552760
  0
VERTEX
  8
0
  6
CONTINUOUS
 10
5.928560
 20
1.543960
  0
SEQEND
  8
0
  0
SOLID
  8
0
 62
    15
 10
5.976080
 20
1.552760
 11
5.972560
 21
2.296800
 12
6.023160
 22
1.543080
 13
6.020080
 23
2.287120
  0
POLYLINE
  8
0
  6
CONTINUOUS
 66
     1
 40
0.000000
 41
0.000000
  0
VERTEX
  8
0
  6
CONTINUOUS
 10
5.976080
 20
1.552760
  0
VERTEX
  8
0
  6
CONTINUOUS
 10
5.972560
 20
2.296800
  0
VERTEX
  8
0
  6
CONTINUOUS
 10
6.020080
 20
2.287120
  0
VERTEX
  8
0
  6
CONTINUOUS
 10
6.023160
 20
1.543080
  0
VERTEX
  8
0
  6
CONTINUOUS
 10
5.976080
 20
1.552760
  0
SEQEND
  8
0
  0
SOLID
  8
0
 62
    15
 10
6.023160
 20
1.543080
 11
6.020080
 21
2.287120
 12
6.045160
 22
1.531200
 13
6.041640
 23
2.274800
  0
POLYLINE
  8
0
  6
CONTINUOUS
 66
     1
 40
0.000000
 41
0.000000
  0
VERTEX
  8
0
  6
CONTINUOUS
 10
6.023160
 20
1.543080
  0
VERTEX
  8
0
  6
CONTINUOUS
 10
6.020080
 20
2.287120
  0
VERTEX
  8
0
  6
CONTINUOUS
 10
6.041640
 20
2.274800
  0
VERTEX
  8
0
  6
CONTINUOUS
 10
6.045160
 20
1.531200
  0
VERTEX
  8
0
  6
CONTINUOUS
 10
6.023160
 20
1.543080
  0
SEQEND
  8
0
  0
SOLID
  8
0
 62
    15
 10
6.045160
 20
1.531200
 11
6.041640
 21
2.274800
 12
6.064960
 22
1.514480
 13
6.061440
 23
2.258080
  0
POLYLINE
  8
0
  6
CONTINUOUS
 66
     1
 40
0.000000
 41
0.000000
  0
VERTEX
  8
0
  6
CONTINUOUS
 10
6.045160
 20
1.531200
  0
VERTEX
  8
0
  6
CONTINUOUS
 10
6.041640
 20
2.274800
  0
VERTEX
  8
0
  6
CONTINUOUS
 10
6.061440
 20
2.258080
  0
VERTEX
  8
0
  6
CONTINUOUS
 10
6.064960
 20
1.514480
  0
VERTEX
  8
0
  6
CONTINUOUS
 10
6.045160
 20
1.531200
  0
SEQEND
  8
0
  0
SOLID
  8
0
 62
    15
 10
6.064960
 20
1.514480
 11
6.061440
 21
2.258080
 12
6.081240
 22
1.492920
 13
6.078160
 23
2.236960
  0
POLYLINE
  8
0
  6
CONTINUOUS
 66
     1
 40
0.000000
 41
0.000000
  0
VERTEX
  8
0
  6
CONTINUOUS
 10
6.064960
 20
1.514480
  0
VERTEX
  8
0
  6
CONTINUOUS
 10
6.061440
 20
2.258080
  0
VERTEX
  8
0
  6
CONTINUOUS
 10
6.078160
 20
2.236960
  0
VERTEX
  8
0
  6
CONTINUOUS
 10
6.081240
 20
1.492920
  0
VERTEX
  8
0
  6
CONTINUOUS
 10
6.064960
 20
1.514480
  0
SEQEND
  8
0
  0
SOLID
  8
0
 62
    15
 10
6.094000
 20
1.466960
 11
6.090920
 21
2.211000
 12
6.102360
 22
1.436160
 13
6.098840
 23
2.180200
  0
POLYLINE
  8
0
  6
CONTINUOUS
 66
     1
 40
0.000000
 41
0.000000
  0
VERTEX
  8
0
  6
CONTINUOUS
 10
6.094000
 20
1.466960
  0
VERTEX
  8
0
  6
CONTINUOUS
 10
6.090920
 20
2.211000
  0
VERTEX
  8
0
  6
CONTINUOUS
 10
6.098840
 20
2.180200
  0
VERTEX
  8
0
  6
CONTINUOUS
 10
6.102360
 20
1.436160
  0
VERTEX
  8
0
  6
CONTINUOUS
 10
6.094000
 20
1.466960
  0
SEQEND
  8
0
  0
SOLID
  8
0
 62
    15
 10
6.081240
 20
1.492920
 11
6.078160
 21
2.236960
 12
6.094000
 22
1.466960
 13
6.090920
 23
2.211000
  0
POLYLINE
  8
0
  6
CONTINUOUS
 66
     1
 40
0.000000
 41
0.000000
  0
VERTEX
  8
0
  6
CONTINUOUS
 10
6.081240
 20
1.492920
  0
VERTEX
  8
0
  6
CONTINUOUS
 10
6.078160
 20
2.236960
  0
VERTEX
  8
0
  6
CONTINUOUS
 10
6.090920
 20
2.211000
  0
VERTEX
  8
0
  6
CONTINUOUS
 10
6.094000
 20
1.466960
  0
VERTEX
  8
0
  6
CONTINUOUS
 10
6.081240
 20
1.492920
  0
SEQEND
  8
0
  0
SOLID
  8
0
 62
    15
 10
6.105440
 20
1.400960
 11
6.101920
 21
2.145000
 12
6.163960
 22
1.400960
 13
6.160440
 23
2.145000
  0
POLYLINE
  8
0
  6
CONTINUOUS
 66
     1
 40
0.000000
 41
0.000000
  0
VERTEX
  8
0
  6
CONTINUOUS
 10
6.105440
 20
1.400960
  0
VERTEX
  8
0
  6
CONTINUOUS
 10
6.101920
 20
2.145000
  0
VERTEX
  8
0
  6
CONTINUOUS
 10
6.160440
 20
2.145000
  0
VERTEX
  8
0
  6
CONTINUOUS
 10
6.163960
 20
1.400960
  0
VERTEX
  8
0
  6
CONTINUOUS
 10
6.105440
 20
1.400960
  0
SEQEND
  8
0
  0
SOLID
  8
0
 62
    15
 10
6.102360
 20
1.436160
 11
6.098840
 21
2.180200
 12
6.105440
 22
1.400960
 13
6.101920
 23
2.145000
  0
POLYLINE
  8
0
  6
CONTINUOUS
 66
     1
 40
0.000000
 41
0.000000
  0
VERTEX
  8
0
  6
CONTINUOUS
 10
6.102360
 20
1.436160
  0
VERTEX
  8
0
  6
CONTINUOUS
 10
6.098840
 20
2.180200
  0
VERTEX
  8
0
  6
CONTINUOUS
 10
6.101920
 20
2.145000
  0
VERTEX
  8
0
  6
CONTINUOUS
 10
6.105440
 20
1.400960
  0
VERTEX
  8
0
  6
CONTINUOUS
 10
6.102360
 20
1.436160
  0
SEQEND
  8
0
  0
POLYLINE
  8
0
  6
CONTINUOUS
 66
     1
 40
0.000000
 41
0.000000
  0
VERTEX
  8
0
  6
CONTINUOUS
 10
6.163520
 20
1.303280
  0
VERTEX
  8
0
  6
CONTINUOUS
 10
6.163520
 20
1.143120
  0
VERTEX
  8
0
  6
CONTINUOUS
 10
2.167000
 20
1.143120
  0
VERTEX
  8
0
  6
CONTINUOUS
 10
2.167000
 20
2.259840
  0
VERTEX
  8
0
  6
CONTINUOUS
 10
2.439360
 20
2.261600
  0
VERTEX
  8
0
  6
CONTINUOUS
 10
2.439360
 20
2.137960
  0
VERTEX
  8
0
  6
CONTINUOUS
 10
2.643960
 20
2.137520
  0
VERTEX
  8
0
  6
CONTINUOUS
 10
2.654960
 20
2.087360
  0
VERTEX
  8
0
  6
CONTINUOUS
 10
2.670800
 20
2.049520
  0
VERTEX
  8
0
  6
CONTINUOUS
 10
2.693680
 20
2.021360
  0
VERTEX
  8
0
  6
CONTINUOUS
 10
2.724920
 20
2.001560
  0
VERTEX
  8
0
  6
CONTINUOUS
 10
2.765840
 20
1.987920
  0
VERTEX
  8
0
  6
CONTINUOUS
 10
2.818200
 20
1.977800
  0
VERTEX
  8
0
  6
CONTINUOUS
 10
3.047440
 20
1.953160
  0
VERTEX
  8
0
  6
CONTINUOUS
 10
3.121360
 20
1.942600
  0
VERTEX
  8
0
  6
CONTINUOUS
 10
3.186040
 20
1.929400
  0
VERTEX
  8
0
  6
CONTINUOUS
 10
3.240160
 20
1.913120
  0
VERTEX
  8
0
  6
CONTINUOUS
 10
3.283720
 20
1.892440
  0
VERTEX
  8
0
  6
CONTINUOUS
 10
3.316280
 20
1.867800
  0
VERTEX
  8
0
  6
CONTINUOUS
 10
3.337400
 20
1.837440
  0
VERTEX
  8
0
  6
CONTINUOUS
 10
3.346640
 20
1.800480
  0
VERTEX
  8
0
  6
CONTINUOUS
 10
3.411320
 20
1.800040
  0
VERTEX
  8
0
  6
CONTINUOUS
 10
3.420560
 20
1.837880
  0
VERTEX
  8
0
  6
CONTINUOUS
 10
3.441240
 20
1.864720
  0
VERTEX
  8
0
  6
CONTINUOUS
 10
3.468960
 20
1.880560
  0
VERTEX
  8
0
  6
CONTINUOUS
 10
3.500640
 20
1.885400
  0
VERTEX
  8
0
  6
CONTINUOUS
 10
3.531440
 20
1.878800
  0
VERTEX
  8
0
  6
CONTINUOUS
 10
3.558720
 20
1.860760
  0
VERTEX
  8
0
  6
CONTINUOUS
 10
3.577640
 20
1.831280
  0
VERTEX
  8
0
  6
CONTINUOUS
 10
3.584240
 20
1.789920
  0
VERTEX
  8
0
  6
CONTINUOUS
 10
3.707000
 20
1.787280
  0
VERTEX
  8
0
  6
CONTINUOUS
 10
3.716680
 20
1.782000
  0
VERTEX
  8
0
  6
CONTINUOUS
 10
3.716240
 20
1.768800
  0
VERTEX
  8
0
  6
CONTINUOUS
 10
3.718440
 20
1.756480
  0
VERTEX
  8
0
  6
CONTINUOUS
 10
3.724600
 20
1.740200
  0
VERTEX
  8
0
  6
CONTINUOUS
 10
3.747040
 20
1.701920
  0
VERTEX
  8
0
  6
CONTINUOUS
 10
3.784880
 20
1.668920
  0
VERTEX
  8
0
  6
CONTINUOUS
 10
3.809960
 20
1.659240
  0
VERTEX
  8
0
  6
CONTINUOUS
 10
3.839000
 20
1.656600
  0
VERTEX
  8
0
  6
CONTINUOUS
 10
4.781920
 20
1.653960
  0
VERTEX
  8
0
  6
CONTINUOUS
 10
4.803920
 20
1.604680
  0
VERTEX
  8
0
  6
CONTINUOUS
 10
4.817120
 20
1.583120
  0
VERTEX
  8
0
  6
CONTINUOUS
 10
4.835160
 20
1.564200
  0
VERTEX
  8
0
  6
CONTINUOUS
 10
4.859800
 20
1.548800
  0
VERTEX
  8
0
  6
CONTINUOUS
 10
4.893680
 20
1.537360
  0
VERTEX
  8
0
  6
CONTINUOUS
 10
4.938560
 20
1.530320
  0
VERTEX
  8
0
  6
CONTINUOUS
 10
4.997520
 20
1.528120
  0
VERTEX
  8
0
  6
CONTINUOUS
 10
5.758720
 20
1.528120
  0
VERTEX
  8
0
  6
CONTINUOUS
 10
5.758720
 20
1.400960
  0
VERTEX
  8
0
  6
CONTINUOUS
 10
5.846720
 20
1.400960
  0
VERTEX
  8
0
  6
CONTINUOUS
 10
5.849360
 20
1.437040
  0
VERTEX
  8
0
  6
CONTINUOUS
 10
5.857720
 20
1.468280
  0
VERTEX
  8
0
  6
CONTINUOUS
 10
5.870480
 20
1.494240
  0
VERTEX
  8
0
  6
CONTINUOUS
 10
5.887200
 20
1.515800
  0
VERTEX
  8
0
  6
CONTINUOUS
 10
5.906560
 20
1.532080
  0
VERTEX
  8
0
  6
CONTINUOUS
 10
5.928560
 20
1.543960
  0
VERTEX
  8
0
  6
CONTINUOUS
 10
5.976080
 20
1.552760
  0
VERTEX
  8
0
  6
CONTINUOUS
 10
6.023160
 20
1.543080
  0
VERTEX
  8
0
  6
CONTINUOUS
 10
6.045160
 20
1.531200
  0
VERTEX
  8
0
  6
CONTINUOUS
 10
6.064960
 20
1.514480
  0
VERTEX
  8
0
  6
CONTINUOUS
 10
6.081240
 20
1.492920
  0
VERTEX
  8
0
  6
CONTINUOUS
 10
6.094000
 20
1.466960
  0
VERTEX
  8
0
  6
CONTINUOUS
 10
6.102360
 20
1.436160
  0
VERTEX
  8
0
  6
CONTINUOUS
 10
6.105440
 20
1.400960
  0
VERTEX
  8
0
  6
CONTINUOUS
 10
6.163960
 20
1.400960
  0
VERTEX
  8
0
  6
CONTINUOUS
 10
6.163520
 20
1.303280
  0
SEQEND
  8
0
  0
POLYLINE
  8
0
  6
CONTINUOUS
 66
     1
 40
0.014080
 41
0.014080
  0
VERTEX
  8
0
  6
CONTINUOUS
 10
6.185080
 20
3.528800
  0
VERTEX
  8
0
  6
CONTINUOUS
 10
6.185080
 20
3.626480
  0
VERTEX
  8
0
  6
CONTINUOUS
 10
6.126560
 20
3.626480
  0
VERTEX
  8
0
  6
CONTINUOUS
 10
6.123480
 20
3.661680
  0
VERTEX
  8
0
  6
CONTINUOUS
 10
6.115560
 20
3.692480
  0
VERTEX
  8
0
  6
CONTINUOUS
 10
6.102800
 20
3.718440
  0
VERTEX
  8
0
  6
CONTINUOUS
 10
6.086080
 20
3.739560
  0
VERTEX
  8
0
  6
CONTINUOUS
 10
6.076840
 20
3.748800
  0
VERTEX
  8
0
  6
CONTINUOUS
 10
6.055720
 20
3.762880
  0
VERTEX
  8
0
  6
CONTINUOUS
 10
6.044720
 20
3.768600
  0
VERTEX
  8
0
  6
CONTINUOUS
 10
6.021400
 20
3.775640
  0
VERTEX
  8
0
  6
CONTINUOUS
 10
6.009520
 20
3.777840
  0
VERTEX
  8
0
  6
CONTINUOUS
 10
5.984880
 20
3.777840
  0
VERTEX
  8
0
  6
CONTINUOUS
 10
5.961120
 20
3.773440
  0
VERTEX
  8
0
  6
CONTINUOUS
 10
5.938680
 20
3.764200
  0
VERTEX
  8
0
  6
CONTINUOUS
 10
5.917560
 20
3.750120
  0
VERTEX
  8
0
  6
CONTINUOUS
 10
5.899520
 20
3.731200
  0
VERTEX
  8
0
  6
CONTINUOUS
 10
5.885000
 20
3.707440
  0
VERTEX
  8
0
  6
CONTINUOUS
 10
5.878840
 20
3.693360
  0
VERTEX
  8
0
  6
CONTINUOUS
 10
5.870920
 20
3.662560
  0
VERTEX
  8
0
  6
CONTINUOUS
 10
5.867840
 20
3.626480
  0
VERTEX
  8
0
  6
CONTINUOUS
 10
5.779840
 20
3.626480
  0
VERTEX
  8
0
  6
CONTINUOUS
 10
5.779840
 20
3.753200
  0
VERTEX
  8
0
  6
CONTINUOUS
 10
4.987400
 20
3.753640
  0
VERTEX
  8
0
  6
CONTINUOUS
 10
4.947360
 20
3.756720
  0
VERTEX
  8
0
  6
CONTINUOUS
 10
4.914800
 20
3.762440
  0
VERTEX
  8
0
  6
CONTINUOUS
 10
4.888400
 20
3.770800
  0
VERTEX
  8
0
  6
CONTINUOUS
 10
4.867720
 20
3.781360
  0
VERTEX
  8
0
  6
CONTINUOUS
 10
4.846600
 20
3.798520
  0
VERTEX
  8
0
  6
CONTINUOUS
 10
4.831200
 20
3.818760
  0
VERTEX
  8
0
  6
CONTINUOUS
 10
4.814480
 20
3.853520
  0
VERTEX
  8
0
  6
CONTINUOUS
 10
4.803480
 20
3.879040
  0
VERTEX
  8
0
  6
CONTINUOUS
 10
3.845160
 20
3.882560
  0
VERTEX
  8
0
  6
CONTINUOUS
 10
3.831080
 20
3.884760
  0
VERTEX
  8
0
  6
CONTINUOUS
 10
3.818320
 20
3.888720
  0
VERTEX
  8
0
  6
CONTINUOUS
 10
3.795440
 20
3.901040
  0
VERTEX
  8
0
  6
CONTINUOUS
 10
3.776080
 20
3.917760
  0
VERTEX
  8
0
  6
CONTINUOUS
 10
3.754960
 20
3.946360
  0
VERTEX
  8
0
  6
CONTINUOUS
 10
3.745280
 20
3.965280
  0
VERTEX
  8
0
  6
CONTINUOUS
 10
3.738240
 20
3.988600
  0
VERTEX
  8
0
  6
CONTINUOUS
 10
3.737360
 20
4.002240
  0
VERTEX
  8
0
  6
CONTINUOUS
 10
3.737800
 20
4.007520
  0
VERTEX
  8
0
  6
CONTINUOUS
 10
3.735160
 20
4.011040
  0
VERTEX
  8
0
  6
CONTINUOUS
 10
3.721960
 20
4.013240
  0
VERTEX
  8
0
  6
CONTINUOUS
 10
3.605800
 20
4.015440
  0
VERTEX
  8
0
  6
CONTINUOUS
 10
3.604040
 20
4.037440
  0
VERTEX
  8
0
  6
CONTINUOUS
 10
3.598760
 20
4.056800
  0
VERTEX
  8
0
  6
CONTINUOUS
 10
3.585560
 20
4.080120
  0
VERTEX
  8
0
  6
CONTINUOUS
 10
3.567080
 20
4.096840
  0
VERTEX
  8
0
  6
CONTINUOUS
 10
3.545520
 20
4.106960
  0
VERTEX
  8
0
  6
CONTINUOUS
 10
3.537600
 20
4.109160
  0
VERTEX
  8
0
  6
CONTINUOUS
 10
3.521760
 20
4.110920
  0
VERTEX
  8
0
  6
CONTINUOUS
 10
3.498000
 20
4.108280
  0
VERTEX
  8
0
  6
CONTINUOUS
 10
3.475560
 20
4.099480
  0
VERTEX
  8
0
  6
CONTINUOUS
 10
3.456200
 20
4.084520
  0
VERTEX
  8
0
  6
CONTINUOUS
 10
3.441680
 20
4.062960
  0
VERTEX
  8
0
  6
CONTINUOUS
 10
3.435520
 20
4.045800
  0
VERTEX
  8
0
  6
CONTINUOUS
 10
3.432440
 20
4.025560
  0
VERTEX
  8
0
  6
CONTINUOUS
 10
3.367760
 20
4.026000
  0
VERTEX
  8
0
  6
CONTINUOUS
 10
3.364680
 20
4.045360
  0
VERTEX
  8
0
  6
CONTINUOUS
 10
3.354560
 20
4.070880
  0
VERTEX
  8
0
  6
CONTINUOUS
 10
3.337400
 20
4.093320
  0
VERTEX
  8
0
  6
CONTINUOUS
 10
3.314080
 20
4.112240
  0
VERTEX
  8
0
  6
CONTINUOUS
 10
3.284160
 20
4.128960
  0
VERTEX
  8
0
  6
CONTINUOUS
 10
3.248520
 20
4.143040
  0
VERTEX
  8
0
  6
CONTINUOUS
 10
3.191760
 20
4.158440
  0
VERTEX
  8
0
  6
CONTINUOUS
 10
3.106840
 20
4.173840
  0
VERTEX
  8
0
  6
CONTINUOUS
 10
2.963400
 20
4.190120
  0
VERTEX
  8
0
  6
CONTINUOUS
 10
2.854280
 20
4.201560
  0
VERTEX
  8
0
  6
CONTINUOUS
 10
2.798840
 20
4.210360
  0
VERTEX
  8
0
  6
CONTINUOUS
 10
2.764960
 20
4.219600
  0
VERTEX
  8
0
  6
CONTINUOUS
 10
2.737240
 20
4.231480
  0
VERTEX
  8
0
  6
CONTINUOUS
 10
2.714800
 20
4.246880
  0
VERTEX
  8
0
  6
CONTINUOUS
 10
2.702480
 20
4.259640
  0
VERTEX
  8
0
  6
CONTINUOUS
 10
2.691920
 20
4.274600
  0
VERTEX
  8
0
  6
CONTINUOUS
 10
2.679600
 20
4.302320
  0
VERTEX
  8
0
  6
CONTINUOUS
 10
2.669920
 20
4.336200
  0
VERTEX
  8
0
  6
CONTINUOUS
 10
2.665080
 20
4.363040
  0
VERTEX
  8
0
  6
CONTINUOUS
 10
2.460480
 20
4.363040
  0
VERTEX
  8
0
  6
CONTINUOUS
 10
2.460480
 20
4.487120
  0
VERTEX
  8
0
  6
CONTINUOUS
 10
2.188120
 20
4.485360
  0
VERTEX
  8
0
  6
CONTINUOUS
 10
2.188120
 20
3.368640
  0
VERTEX
  8
0
  6
CONTINUOUS
 10
6.184640
 20
3.368640
  0
VERTEX
  8
0
  6
CONTINUOUS
 10
6.184640
 20
3.528800
  0
SEQEND
  8
0
  0
TEXT
  8
0
 10
2.642200
 20
3.689840
 40
0.138135
  1
BA 1001
 41
1.000000
  7
SN0
 71
     0
 72
     5
 11
3.277787
 21
3.689840
  0
TEXT
  8
0
 10
2.578840
 20
3.498000
 40
0.138135
  1
1-1/8" x 4"
 41
1.000000
  7
SN0
 71
     0
 72
     5
 11
3.339732
 21
3.498000
  0
ENDSEC
  0
EOF
