  0
SECTION
  2
HEADER
  9
$ACADVER
  1
AC1006
  9
$EXTMIN
 10
3.074280
 20
1.099560
  9
$EXTMAX
 10
6.552920
 20
3.531880
  9
$LTSCALE
 40
0.044000
  9
$PDMODE
 70
    35
  9
$PDSIZE
 40
0.035200
  0
ENDSEC
  0
SECTION
  2
TABLES
  0
TABLE
  2
LTYPE
 70
     9
  0
LTYPE
  2
CONTINUOUS
 70
    64
  3
Solid line
 72
    65
 73
     0
 40
0.000000
  0
LTYPE
  2
DASHED
 70
    64
  3
__ __ __ __ __ __ __ __ __ __ __ __ __ __ __
 72
    65
 73
     2
 40
0.000330
 49
0.000220
 49
-0.000110
  0
LTYPE
  2
HIDDEN
 70
    64
  3
 _ _ _ _ _ _ _ _ _ _ _ _ _ _ _ _ _ _ _ _ _ _
 72
    65
 73
     2
 40
0.000165
 49
0.000110
 49
-0.000055
  0
LTYPE
  2
CENTER
 70
    64
  3
____ _ ____ _ ____ _ ____ _ ____ _ ____ _ ____
 72
    65
 73
     4
 40
0.000880
 49
0.000550
 49
-0.000110
 49
0.000110
 49
-0.000110
  0
LTYPE
  2
PHANTOM
 70
    64
  3
_____ _ _ _____ _ _ _____ _ _ _____ _ _ ____
 72
    65
 73
     6
 40
0.001100
 49
0.000550
 49
-0.000110
 49
0.000110
 49
-0.000110
 49
0.000110
 49
-0.000110
  0
LTYPE
  2
DOT
 70
    64
  3
...............................................
 72
    65
 73
     2
 40
0.000110
 49
0.000000
 49
-0.000110
  0
LTYPE
  2
DASHDOT
 70
    64
  3
__ . __ . __ . __ . __ . __ . __ . __ . __ . __
 72
    65
 73
     4
 40
0.000440
 49
0.000220
 49
-0.000110
 49
0.000000
 49
-0.000110
  0
LTYPE
  2
BORDER
 70
    64
  3
__ __ . __ __ . __ __ . __ __ . __ __ . __ __
 72
    65
 73
     6
 40
0.000770
 49
0.000220
 49
-0.000110
 49
0.000220
 49
-0.000110
 49
0.000000
 49
-0.000110
  0
LTYPE
  2
DIVIDE
 70
    64
  3
__ . . __ . . __ . . __ . . __ . . __ . . __
 72
    65
 73
     6
 40
0.000550
 49
0.000220
 49
-0.000110
 49
0.000000
 49
-0.000110
 49
0.000000
 49
-0.000110
  0
LTYPE
  2
DOTDOT
 70
    64
  3
 . .  . .  . .  . .  . .  . . 
 72
    65
 73
     5
 40
0.000242
 49
-0.000110
 49
0.000000
 49
-0.000110
 49
0.000000
 49
-0.000110
  0
ENDTAB
  0
TABLE
  2
STYLE
 70
     2
  0
STYLE
 70
     0
  2
SN0
 40
0.000000
 41
0.000440
 50
0.000000
 71
     0
 42
0.000000
  3
ROMAND
  0
STYLE
 70
    68
  2
SV0
 40
0.000000
 41
0.000440
 50
0.000000
 71
     0
 42
0.000000
  3
ROMAND
  0
ENDTAB
  0
TABLE
  2
LAYER
 70
     3
  0
LAYER
  2
FOREGROUND
 70
    64
 62
     7
  6
CONTINUOUS
  0
LAYER
  2
BACKGROUND
 70
    65
 62
    -7
  6
CONTINUOUS
  0
LAYER
  2
0
 70
    64
 62
     7
  6
CONTINUOUS
  0
ENDTAB
  0
ENDSEC
  0
SECTION
  2
ENTITIES
  0
POLYLINE
  8
FOREGROUND
  6
CONTINUOUS
 66
     1
 40
0.000000
 41
0.000000
  0
VERTEX
  8
FOREGROUND
  6
CONTINUOUS
 10
0.000000
 20
4.631440
  0
VERTEX
  8
FOREGROUND
  6
CONTINUOUS
 10
8.499920
 20
4.631440
  0
VERTEX
  8
FOREGROUND
  6
CONTINUOUS
 10
8.499920
 20
-6.368560
  0
VERTEX
  8
FOREGROUND
  6
CONTINUOUS
 10
0.000000
 20
-6.368560
  0
VERTEX
  8
FOREGROUND
  6
CONTINUOUS
 10
0.000000
 20
4.631440
  0
SEQEND
  8
0
  0
POLYLINE
  8
FOREGROUND
  6
CONTINUOUS
 66
     1
 40
0.000000
 41
0.000000
  0
VERTEX
  8
FOREGROUND
  6
CONTINUOUS
 10
0.000000
 20
4.631440
  0
VERTEX
  8
FOREGROUND
  6
CONTINUOUS
 10
8.499920
 20
4.631440
  0
VERTEX
  8
FOREGROUND
  6
CONTINUOUS
 10
8.499920
 20
-6.368560
  0
VERTEX
  8
FOREGROUND
  6
CONTINUOUS
 10
0.000000
 20
-6.368560
  0
VERTEX
  8
FOREGROUND
  6
CONTINUOUS
 10
0.000000
 20
4.631440
  0
SEQEND
  8
0
  0
POLYLINE
  8
0
  6
CONTINUOUS
 66
     1
 40
0.014080
 41
0.014080
  0
VERTEX
  8
0
  6
CONTINUOUS
 10
5.906120
 20
1.989680
  0
VERTEX
  8
0
  6
CONTINUOUS
 10
5.906120
 20
1.902560
  0
VERTEX
  8
0
  6
CONTINUOUS
 10
5.995440
 20
1.902560
  0
VERTEX
  8
0
  6
CONTINUOUS
 10
5.995880
 20
1.816320
  0
VERTEX
  8
0
  6
CONTINUOUS
 10
6.007760
 20
1.815000
  0
VERTEX
  8
0
  6
CONTINUOUS
 10
6.018760
 20
1.811920
  0
VERTEX
  8
0
  6
CONTINUOUS
 10
6.037240
 20
1.799160
  0
VERTEX
  8
0
  6
CONTINUOUS
 10
6.044280
 20
1.790800
  0
VERTEX
  8
0
  6
CONTINUOUS
 10
6.049560
 20
1.780680
  0
VERTEX
  8
0
  6
CONTINUOUS
 10
6.053960
 20
1.763960
  0
VERTEX
  8
0
  6
CONTINUOUS
 10
6.053960
 20
1.751640
  0
VERTEX
  8
0
  6
CONTINUOUS
 10
6.049560
 20
1.734920
  0
VERTEX
  8
0
  6
CONTINUOUS
 10
6.044280
 20
1.725240
  0
VERTEX
  8
0
  6
CONTINUOUS
 10
6.037240
 20
1.716440
  0
VERTEX
  8
0
  6
CONTINUOUS
 10
6.028440
 20
1.709400
  0
VERTEX
  8
0
  6
CONTINUOUS
 10
6.018760
 20
1.704120
  0
VERTEX
  8
0
  6
CONTINUOUS
 10
6.002040
 20
1.699720
  0
VERTEX
  8
0
  6
CONTINUOUS
 10
5.995880
 20
1.699280
  0
VERTEX
  8
0
  6
CONTINUOUS
 10
5.995880
 20
1.613040
  0
VERTEX
  8
0
  6
CONTINUOUS
 10
5.906120
 20
1.613040
  0
VERTEX
  8
0
  6
CONTINUOUS
 10
5.906120
 20
1.529440
  0
VERTEX
  8
0
  6
CONTINUOUS
 10
5.866080
 20
1.526800
  0
VERTEX
  8
0
  6
CONTINUOUS
 10
5.841440
 20
1.522400
  0
VERTEX
  8
0
  6
CONTINUOUS
 10
5.807120
 20
1.511400
  0
VERTEX
  8
0
  6
CONTINUOUS
 10
5.776760
 20
1.496000
  0
VERTEX
  8
0
  6
CONTINUOUS
 10
5.750360
 20
1.475760
  0
VERTEX
  8
0
  6
CONTINUOUS
 10
5.734960
 20
1.460360
  0
VERTEX
  8
0
  6
CONTINUOUS
 10
5.720880
 20
1.443200
  0
VERTEX
  8
0
  6
CONTINUOUS
 10
5.709000
 20
1.423840
  0
VERTEX
  8
0
  6
CONTINUOUS
 10
5.698880
 20
1.403160
  0
VERTEX
  8
0
  6
CONTINUOUS
 10
5.683480
 20
1.357400
  0
VERTEX
  8
0
  6
CONTINUOUS
 10
5.676000
 20
1.305480
  0
VERTEX
  8
0
  6
CONTINUOUS
 10
5.675120
 20
1.277760
  0
VERTEX
  8
0
  6
CONTINUOUS
 10
5.474480
 20
1.277760
  0
VERTEX
  8
0
  6
CONTINUOUS
 10
5.474480
 20
3.289000
  0
VERTEX
  8
0
  6
CONTINUOUS
 10
6.446880
 20
3.289000
  0
VERTEX
  8
0
  6
CONTINUOUS
 10
6.446000
 20
3.289000
  0
VERTEX
  8
0
  6
CONTINUOUS
 10
6.545440
 20
3.289000
  0
VERTEX
  8
0
  6
CONTINUOUS
 10
6.545440
 20
3.110800
  0
VERTEX
  8
0
  6
CONTINUOUS
 10
6.454360
 20
3.110800
  0
VERTEX
  8
0
  6
CONTINUOUS
 10
6.454360
 20
3.026320
  0
VERTEX
  8
0
  6
CONTINUOUS
 10
6.454360
 20
3.027640
  0
VERTEX
  8
0
  6
CONTINUOUS
 10
6.383080
 20
3.025000
  0
VERTEX
  8
0
  6
CONTINUOUS
 10
6.314440
 20
3.017960
  0
VERTEX
  8
0
  6
CONTINUOUS
 10
6.248880
 20
3.007840
  0
VERTEX
  8
0
  6
CONTINUOUS
 10
6.186400
 20
2.994200
  0
VERTEX
  8
0
  6
CONTINUOUS
 10
6.127000
 20
2.977480
  0
VERTEX
  8
0
  6
CONTINUOUS
 10
6.071120
 20
2.957680
  0
VERTEX
  8
0
  6
CONTINUOUS
 10
6.017880
 20
2.935240
  0
VERTEX
  8
0
  6
CONTINUOUS
 10
5.968600
 20
2.909720
  0
VERTEX
  8
0
  6
CONTINUOUS
 10
5.921960
 20
2.882000
  0
VERTEX
  8
0
  6
CONTINUOUS
 10
5.859040
 20
2.836240
  0
VERTEX
  8
0
  6
CONTINUOUS
 10
5.803600
 20
2.785640
  0
VERTEX
  8
0
  6
CONTINUOUS
 10
5.771040
 20
2.750000
  0
VERTEX
  8
0
  6
CONTINUOUS
 10
5.729240
 20
2.693240
  0
VERTEX
  8
0
  6
CONTINUOUS
 10
5.705920
 20
2.654080
  0
VERTEX
  8
0
  6
CONTINUOUS
 10
5.686560
 20
2.614040
  0
VERTEX
  8
0
  6
CONTINUOUS
 10
5.670720
 20
2.572680
  0
VERTEX
  8
0
  6
CONTINUOUS
 10
5.658840
 20
2.530880
  0
VERTEX
  8
0
  6
CONTINUOUS
 10
5.650920
 20
2.488200
  0
VERTEX
  8
0
  6
CONTINUOUS
 10
5.646960
 20
2.445520
  0
VERTEX
  8
0
  6
CONTINUOUS
 10
5.646960
 20
2.402840
  0
VERTEX
  8
0
  6
CONTINUOUS
 10
5.651360
 20
2.359720
  0
VERTEX
  8
0
  6
CONTINUOUS
 10
5.659720
 20
2.317480
  0
VERTEX
  8
0
  6
CONTINUOUS
 10
5.672040
 20
2.275240
  0
VERTEX
  8
0
  6
CONTINUOUS
 10
5.688760
 20
2.233880
  0
VERTEX
  8
0
  6
CONTINUOUS
 10
5.709880
 20
2.192960
  0
VERTEX
  8
0
  6
CONTINUOUS
 10
5.735400
 20
2.153360
  0
VERTEX
  8
0
  6
CONTINUOUS
 10
5.749480
 20
2.133560
  0
VERTEX
  8
0
  6
CONTINUOUS
 10
5.781600
 20
2.095720
  0
VERTEX
  8
0
  6
CONTINUOUS
 10
5.818120
 20
2.059200
  0
VERTEX
  8
0
  6
CONTINUOUS
 10
5.859480
 20
2.024440
  0
VERTEX
  8
0
  6
CONTINUOUS
 10
5.906120
 20
1.989680
  0
SEQEND
  8
0
  0
SOLID
  8
0
 62
    15
 10
4.047560
 20
3.531000
 11
4.682920
 21
3.162720
 12
4.046680
 22
3.531000
 13
4.682040
 23
3.162720
  0
POLYLINE
  8
0
  6
CONTINUOUS
 66
     1
 40
0.000000
 41
0.000000
  0
VERTEX
  8
0
  6
CONTINUOUS
 10
4.047560
 20
3.531000
  0
VERTEX
  8
0
  6
CONTINUOUS
 10
4.682920
 20
3.162720
  0
VERTEX
  8
0
  6
CONTINUOUS
 10
4.682040
 20
3.162720
  0
VERTEX
  8
0
  6
CONTINUOUS
 10
4.046680
 20
3.531000
  0
VERTEX
  8
0
  6
CONTINUOUS
 10
4.047560
 20
3.531000
  0
SEQEND
  8
0
  0
SOLID
  8
0
 62
    15
 10
3.506800
 20
2.232120
 11
4.142160
 21
1.863400
 12
3.506800
 22
2.145000
 13
4.142160
 23
1.776280
  0
POLYLINE
  8
0
  6
CONTINUOUS
 66
     1
 40
0.000000
 41
0.000000
  0
VERTEX
  8
0
  6
CONTINUOUS
 10
3.506800
 20
2.232120
  0
VERTEX
  8
0
  6
CONTINUOUS
 10
4.142160
 20
1.863400
  0
VERTEX
  8
0
  6
CONTINUOUS
 10
4.142160
 20
1.776280
  0
VERTEX
  8
0
  6
CONTINUOUS
 10
3.506800
 20
2.145000
  0
VERTEX
  8
0
  6
CONTINUOUS
 10
3.506800
 20
2.232120
  0
SEQEND
  8
0
  0
SOLID
  8
0
 62
    15
 10
3.596120
 20
2.145000
 11
4.231480
 21
1.776280
 12
3.596120
 22
2.058320
 13
4.231480
 23
1.690040
  0
POLYLINE
  8
0
  6
CONTINUOUS
 66
     1
 40
0.000000
 41
0.000000
  0
VERTEX
  8
0
  6
CONTINUOUS
 10
3.596120
 20
2.145000
  0
VERTEX
  8
0
  6
CONTINUOUS
 10
4.231480
 20
1.776280
  0
VERTEX
  8
0
  6
CONTINUOUS
 10
4.231480
 20
1.690040
  0
VERTEX
  8
0
  6
CONTINUOUS
 10
3.596120
 20
2.058320
  0
VERTEX
  8
0
  6
CONTINUOUS
 10
3.596120
 20
2.145000
  0
SEQEND
  8
0
  0
SOLID
  8
0
 62
    15
 10
3.637920
 20
2.041600
 11
4.272840
 21
1.672880
 12
3.650240
 22
2.022680
 13
4.285600
 23
1.654400
  0
POLYLINE
  8
0
  6
CONTINUOUS
 66
     1
 40
0.000000
 41
0.000000
  0
VERTEX
  8
0
  6
CONTINUOUS
 10
3.637920
 20
2.041600
  0
VERTEX
  8
0
  6
CONTINUOUS
 10
4.272840
 20
1.672880
  0
VERTEX
  8
0
  6
CONTINUOUS
 10
4.285600
 20
1.654400
  0
VERTEX
  8
0
  6
CONTINUOUS
 10
3.650240
 20
2.022680
  0
VERTEX
  8
0
  6
CONTINUOUS
 10
3.637920
 20
2.041600
  0
SEQEND
  8
0
  0
SOLID
  8
0
 62
    15
 10
3.650240
 20
2.022680
 11
4.285600
 21
1.654400
 12
3.654640
 22
2.000240
 13
4.290000
 23
1.631520
  0
POLYLINE
  8
0
  6
CONTINUOUS
 66
     1
 40
0.000000
 41
0.000000
  0
VERTEX
  8
0
  6
CONTINUOUS
 10
3.650240
 20
2.022680
  0
VERTEX
  8
0
  6
CONTINUOUS
 10
4.285600
 20
1.654400
  0
VERTEX
  8
0
  6
CONTINUOUS
 10
4.290000
 20
1.631520
  0
VERTEX
  8
0
  6
CONTINUOUS
 10
3.654640
 20
2.000240
  0
VERTEX
  8
0
  6
CONTINUOUS
 10
3.650240
 20
2.022680
  0
SEQEND
  8
0
  0
SOLID
  8
0
 62
    15
 10
3.654640
 20
2.000240
 11
4.290000
 21
1.631520
 12
3.650240
 22
1.977360
 13
4.285600
 23
1.608640
  0
POLYLINE
  8
0
  6
CONTINUOUS
 66
     1
 40
0.000000
 41
0.000000
  0
VERTEX
  8
0
  6
CONTINUOUS
 10
3.654640
 20
2.000240
  0
VERTEX
  8
0
  6
CONTINUOUS
 10
4.290000
 20
1.631520
  0
VERTEX
  8
0
  6
CONTINUOUS
 10
4.285600
 20
1.608640
  0
VERTEX
  8
0
  6
CONTINUOUS
 10
3.650240
 20
1.977360
  0
VERTEX
  8
0
  6
CONTINUOUS
 10
3.654640
 20
2.000240
  0
SEQEND
  8
0
  0
SOLID
  8
0
 62
    15
 10
3.650240
 20
1.977360
 11
4.285600
 21
1.608640
 12
3.637920
 22
1.958880
 13
4.272840
 23
1.590160
  0
POLYLINE
  8
0
  6
CONTINUOUS
 66
     1
 40
0.000000
 41
0.000000
  0
VERTEX
  8
0
  6
CONTINUOUS
 10
3.650240
 20
1.977360
  0
VERTEX
  8
0
  6
CONTINUOUS
 10
4.285600
 20
1.608640
  0
VERTEX
  8
0
  6
CONTINUOUS
 10
4.272840
 20
1.590160
  0
VERTEX
  8
0
  6
CONTINUOUS
 10
3.637920
 20
1.958880
  0
VERTEX
  8
0
  6
CONTINUOUS
 10
3.650240
 20
1.977360
  0
SEQEND
  8
0
  0
SOLID
  8
0
 62
    15
 10
3.637920
 20
1.958880
 11
4.272840
 21
1.590160
 12
3.619000
 22
1.946120
 13
4.254360
 23
1.577840
  0
POLYLINE
  8
0
  6
CONTINUOUS
 66
     1
 40
0.000000
 41
0.000000
  0
VERTEX
  8
0
  6
CONTINUOUS
 10
3.637920
 20
1.958880
  0
VERTEX
  8
0
  6
CONTINUOUS
 10
4.272840
 20
1.590160
  0
VERTEX
  8
0
  6
CONTINUOUS
 10
4.254360
 20
1.577840
  0
VERTEX
  8
0
  6
CONTINUOUS
 10
3.619000
 20
1.946120
  0
VERTEX
  8
0
  6
CONTINUOUS
 10
3.637920
 20
1.958880
  0
SEQEND
  8
0
  0
SOLID
  8
0
 62
    15
 10
3.619000
 20
1.946120
 11
4.254360
 21
1.577840
 12
3.596560
 22
1.941720
 13
4.231480
 23
1.573000
  0
POLYLINE
  8
0
  6
CONTINUOUS
 66
     1
 40
0.000000
 41
0.000000
  0
VERTEX
  8
0
  6
CONTINUOUS
 10
3.619000
 20
1.946120
  0
VERTEX
  8
0
  6
CONTINUOUS
 10
4.254360
 20
1.577840
  0
VERTEX
  8
0
  6
CONTINUOUS
 10
4.231480
 20
1.573000
  0
VERTEX
  8
0
  6
CONTINUOUS
 10
3.596560
 20
1.941720
  0
VERTEX
  8
0
  6
CONTINUOUS
 10
3.619000
 20
1.946120
  0
SEQEND
  8
0
  0
SOLID
  8
0
 62
    15
 10
3.596560
 20
1.941720
 11
4.231480
 21
1.573000
 12
3.596560
 22
1.855480
 13
4.231480
 23
1.486760
  0
POLYLINE
  8
0
  6
CONTINUOUS
 66
     1
 40
0.000000
 41
0.000000
  0
VERTEX
  8
0
  6
CONTINUOUS
 10
3.596560
 20
1.941720
  0
VERTEX
  8
0
  6
CONTINUOUS
 10
4.231480
 20
1.573000
  0
VERTEX
  8
0
  6
CONTINUOUS
 10
4.231480
 20
1.486760
  0
VERTEX
  8
0
  6
CONTINUOUS
 10
3.596560
 20
1.855480
  0
VERTEX
  8
0
  6
CONTINUOUS
 10
3.596560
 20
1.941720
  0
SEQEND
  8
0
  0
SOLID
  8
0
 62
    15
 10
3.596560
 20
1.855480
 11
4.231480
 21
1.486760
 12
3.506360
 22
1.855480
 13
4.141720
 23
1.486760
  0
POLYLINE
  8
0
  6
CONTINUOUS
 66
     1
 40
0.000000
 41
0.000000
  0
VERTEX
  8
0
  6
CONTINUOUS
 10
3.596560
 20
1.855480
  0
VERTEX
  8
0
  6
CONTINUOUS
 10
4.231480
 20
1.486760
  0
VERTEX
  8
0
  6
CONTINUOUS
 10
4.141720
 20
1.486760
  0
VERTEX
  8
0
  6
CONTINUOUS
 10
3.506360
 20
1.855480
  0
VERTEX
  8
0
  6
CONTINUOUS
 10
3.596560
 20
1.855480
  0
SEQEND
  8
0
  0
SOLID
  8
0
 62
    15
 10
3.506360
 20
1.855480
 11
4.141720
 21
1.486760
 12
3.506360
 22
1.771440
 13
4.141720
 23
1.403160
  0
POLYLINE
  8
0
  6
CONTINUOUS
 66
     1
 40
0.000000
 41
0.000000
  0
VERTEX
  8
0
  6
CONTINUOUS
 10
3.506360
 20
1.855480
  0
VERTEX
  8
0
  6
CONTINUOUS
 10
4.141720
 20
1.486760
  0
VERTEX
  8
0
  6
CONTINUOUS
 10
4.141720
 20
1.403160
  0
VERTEX
  8
0
  6
CONTINUOUS
 10
3.506360
 20
1.771440
  0
VERTEX
  8
0
  6
CONTINUOUS
 10
3.506360
 20
1.855480
  0
SEQEND
  8
0
  0
SOLID
  8
0
 62
    15
 10
3.506360
 20
1.771440
 11
4.141720
 21
1.403160
 12
3.454000
 22
1.767040
 13
4.089360
 23
1.398320
  0
POLYLINE
  8
0
  6
CONTINUOUS
 66
     1
 40
0.000000
 41
0.000000
  0
VERTEX
  8
0
  6
CONTINUOUS
 10
3.506360
 20
1.771440
  0
VERTEX
  8
0
  6
CONTINUOUS
 10
4.141720
 20
1.403160
  0
VERTEX
  8
0
  6
CONTINUOUS
 10
4.089360
 20
1.398320
  0
VERTEX
  8
0
  6
CONTINUOUS
 10
3.454000
 20
1.767040
  0
VERTEX
  8
0
  6
CONTINUOUS
 10
3.506360
 20
1.771440
  0
SEQEND
  8
0
  0
SOLID
  8
0
 62
    15
 10
3.454000
 20
1.767040
 11
4.089360
 21
1.398320
 12
3.407800
 22
1.753400
 13
4.043160
 23
1.385120
  0
POLYLINE
  8
0
  6
CONTINUOUS
 66
     1
 40
0.000000
 41
0.000000
  0
VERTEX
  8
0
  6
CONTINUOUS
 10
3.454000
 20
1.767040
  0
VERTEX
  8
0
  6
CONTINUOUS
 10
4.089360
 20
1.398320
  0
VERTEX
  8
0
  6
CONTINUOUS
 10
4.043160
 20
1.385120
  0
VERTEX
  8
0
  6
CONTINUOUS
 10
3.407800
 20
1.753400
  0
VERTEX
  8
0
  6
CONTINUOUS
 10
3.454000
 20
1.767040
  0
SEQEND
  8
0
  0
SOLID
  8
0
 62
    15
 10
3.407800
 20
1.753400
 11
4.043160
 21
1.385120
 12
3.368200
 22
1.731840
 13
4.003560
 23
1.363120
  0
POLYLINE
  8
0
  6
CONTINUOUS
 66
     1
 40
0.000000
 41
0.000000
  0
VERTEX
  8
0
  6
CONTINUOUS
 10
3.407800
 20
1.753400
  0
VERTEX
  8
0
  6
CONTINUOUS
 10
4.043160
 20
1.385120
  0
VERTEX
  8
0
  6
CONTINUOUS
 10
4.003560
 20
1.363120
  0
VERTEX
  8
0
  6
CONTINUOUS
 10
3.368200
 20
1.731840
  0
VERTEX
  8
0
  6
CONTINUOUS
 10
3.407800
 20
1.753400
  0
SEQEND
  8
0
  0
SOLID
  8
0
 62
    15
 10
3.368200
 20
1.731840
 11
4.003560
 21
1.363120
 12
3.335200
 22
1.702800
 13
3.970560
 23
1.334080
  0
POLYLINE
  8
0
  6
CONTINUOUS
 66
     1
 40
0.000000
 41
0.000000
  0
VERTEX
  8
0
  6
CONTINUOUS
 10
3.368200
 20
1.731840
  0
VERTEX
  8
0
  6
CONTINUOUS
 10
4.003560
 20
1.363120
  0
VERTEX
  8
0
  6
CONTINUOUS
 10
3.970560
 20
1.334080
  0
VERTEX
  8
0
  6
CONTINUOUS
 10
3.335200
 20
1.702800
  0
VERTEX
  8
0
  6
CONTINUOUS
 10
3.368200
 20
1.731840
  0
SEQEND
  8
0
  0
SOLID
  8
0
 62
    15
 10
3.335200
 20
1.702800
 11
3.970560
 21
1.334080
 12
3.309680
 22
1.666280
 13
3.944600
 23
1.297560
  0
POLYLINE
  8
0
  6
CONTINUOUS
 66
     1
 40
0.000000
 41
0.000000
  0
VERTEX
  8
0
  6
CONTINUOUS
 10
3.335200
 20
1.702800
  0
VERTEX
  8
0
  6
CONTINUOUS
 10
3.970560
 20
1.334080
  0
VERTEX
  8
0
  6
CONTINUOUS
 10
3.944600
 20
1.297560
  0
VERTEX
  8
0
  6
CONTINUOUS
 10
3.309680
 20
1.666280
  0
VERTEX
  8
0
  6
CONTINUOUS
 10
3.335200
 20
1.702800
  0
SEQEND
  8
0
  0
SOLID
  8
0
 62
    15
 10
3.309680
 20
1.666280
 11
3.944600
 21
1.297560
 12
3.290760
 22
1.623160
 13
3.926120
 23
1.254440
  0
POLYLINE
  8
0
  6
CONTINUOUS
 66
     1
 40
0.000000
 41
0.000000
  0
VERTEX
  8
0
  6
CONTINUOUS
 10
3.309680
 20
1.666280
  0
VERTEX
  8
0
  6
CONTINUOUS
 10
3.944600
 20
1.297560
  0
VERTEX
  8
0
  6
CONTINUOUS
 10
3.926120
 20
1.254440
  0
VERTEX
  8
0
  6
CONTINUOUS
 10
3.290760
 20
1.623160
  0
VERTEX
  8
0
  6
CONTINUOUS
 10
3.309680
 20
1.666280
  0
SEQEND
  8
0
  0
SOLID
  8
0
 62
    15
 10
3.290760
 20
1.623160
 11
3.926120
 21
1.254440
 12
3.279320
 22
1.574320
 13
3.914680
 23
1.205600
  0
POLYLINE
  8
0
  6
CONTINUOUS
 66
     1
 40
0.000000
 41
0.000000
  0
VERTEX
  8
0
  6
CONTINUOUS
 10
3.290760
 20
1.623160
  0
VERTEX
  8
0
  6
CONTINUOUS
 10
3.926120
 20
1.254440
  0
VERTEX
  8
0
  6
CONTINUOUS
 10
3.914680
 20
1.205600
  0
VERTEX
  8
0
  6
CONTINUOUS
 10
3.279320
 20
1.574320
  0
VERTEX
  8
0
  6
CONTINUOUS
 10
3.290760
 20
1.623160
  0
SEQEND
  8
0
  0
SOLID
  8
0
 62
    15
 10
3.279320
 20
1.574320
 11
3.914680
 21
1.205600
 12
3.275800
 22
1.520200
 13
3.910720
 23
1.151480
  0
POLYLINE
  8
0
  6
CONTINUOUS
 66
     1
 40
0.000000
 41
0.000000
  0
VERTEX
  8
0
  6
CONTINUOUS
 10
3.279320
 20
1.574320
  0
VERTEX
  8
0
  6
CONTINUOUS
 10
3.914680
 20
1.205600
  0
VERTEX
  8
0
  6
CONTINUOUS
 10
3.910720
 20
1.151480
  0
VERTEX
  8
0
  6
CONTINUOUS
 10
3.275800
 20
1.520200
  0
VERTEX
  8
0
  6
CONTINUOUS
 10
3.279320
 20
1.574320
  0
SEQEND
  8
0
  0
SOLID
  8
0
 62
    15
 10
3.275800
 20
1.520200
 11
3.910720
 21
1.151480
 12
3.075160
 22
1.520200
 13
3.710520
 23
1.151480
  0
POLYLINE
  8
0
  6
CONTINUOUS
 66
     1
 40
0.000000
 41
0.000000
  0
VERTEX
  8
0
  6
CONTINUOUS
 10
3.275800
 20
1.520200
  0
VERTEX
  8
0
  6
CONTINUOUS
 10
3.910720
 20
1.151480
  0
VERTEX
  8
0
  6
CONTINUOUS
 10
3.710520
 20
1.151480
  0
VERTEX
  8
0
  6
CONTINUOUS
 10
3.075160
 20
1.520200
  0
VERTEX
  8
0
  6
CONTINUOUS
 10
3.275800
 20
1.520200
  0
SEQEND
  8
0
  0
SOLID
  8
0
 62
    15
 10
3.619000
 20
2.053920
 11
4.254360
 21
1.685200
 12
3.637920
 22
2.041600
 13
4.272840
 23
1.672880
  0
POLYLINE
  8
0
  6
CONTINUOUS
 66
     1
 40
0.000000
 41
0.000000
  0
VERTEX
  8
0
  6
CONTINUOUS
 10
3.619000
 20
2.053920
  0
VERTEX
  8
0
  6
CONTINUOUS
 10
4.254360
 20
1.685200
  0
VERTEX
  8
0
  6
CONTINUOUS
 10
4.272840
 20
1.672880
  0
VERTEX
  8
0
  6
CONTINUOUS
 10
3.637920
 20
2.041600
  0
VERTEX
  8
0
  6
CONTINUOUS
 10
3.619000
 20
2.053920
  0
SEQEND
  8
0
  0
SOLID
  8
0
 62
    15
 10
4.146120
 20
3.531000
 11
4.781480
 21
3.162720
 12
4.146120
 22
3.353240
 13
4.781480
 23
2.984520
  0
POLYLINE
  8
0
  6
CONTINUOUS
 66
     1
 40
0.000000
 41
0.000000
  0
VERTEX
  8
0
  6
CONTINUOUS
 10
4.146120
 20
3.531000
  0
VERTEX
  8
0
  6
CONTINUOUS
 10
4.781480
 20
3.162720
  0
VERTEX
  8
0
  6
CONTINUOUS
 10
4.781480
 20
2.984520
  0
VERTEX
  8
0
  6
CONTINUOUS
 10
4.146120
 20
3.353240
  0
VERTEX
  8
0
  6
CONTINUOUS
 10
4.146120
 20
3.531000
  0
SEQEND
  8
0
  0
SOLID
  8
0
 62
    15
 10
4.146120
 20
3.353240
 11
4.781480
 21
2.984520
 12
4.055040
 22
3.353240
 13
4.690400
 23
2.984520
  0
POLYLINE
  8
0
  6
CONTINUOUS
 66
     1
 40
0.000000
 41
0.000000
  0
VERTEX
  8
0
  6
CONTINUOUS
 10
4.146120
 20
3.353240
  0
VERTEX
  8
0
  6
CONTINUOUS
 10
4.781480
 20
2.984520
  0
VERTEX
  8
0
  6
CONTINUOUS
 10
4.690400
 20
2.984520
  0
VERTEX
  8
0
  6
CONTINUOUS
 10
4.055040
 20
3.353240
  0
VERTEX
  8
0
  6
CONTINUOUS
 10
4.146120
 20
3.353240
  0
SEQEND
  8
0
  0
SOLID
  8
0
 62
    15
 10
4.055040
 20
3.353240
 11
4.690400
 21
2.984520
 12
4.055040
 22
3.269640
 13
4.690400
 23
2.900920
  0
POLYLINE
  8
0
  6
CONTINUOUS
 66
     1
 40
0.000000
 41
0.000000
  0
VERTEX
  8
0
  6
CONTINUOUS
 10
4.055040
 20
3.353240
  0
VERTEX
  8
0
  6
CONTINUOUS
 10
4.690400
 20
2.984520
  0
VERTEX
  8
0
  6
CONTINUOUS
 10
4.690400
 20
2.900920
  0
VERTEX
  8
0
  6
CONTINUOUS
 10
4.055040
 20
3.269640
  0
VERTEX
  8
0
  6
CONTINUOUS
 10
4.055040
 20
3.353240
  0
SEQEND
  8
0
  0
SOLID
  8
0
 62
    15
 10
4.055040
 20
3.269640
 11
4.690400
 21
2.900920
 12
3.915120
 22
3.260400
 13
4.550480
 23
2.891680
  0
POLYLINE
  8
0
  6
CONTINUOUS
 66
     1
 40
0.000000
 41
0.000000
  0
VERTEX
  8
0
  6
CONTINUOUS
 10
4.055040
 20
3.269640
  0
VERTEX
  8
0
  6
CONTINUOUS
 10
4.690400
 20
2.900920
  0
VERTEX
  8
0
  6
CONTINUOUS
 10
4.550480
 20
2.891680
  0
VERTEX
  8
0
  6
CONTINUOUS
 10
3.915120
 20
3.260400
  0
VERTEX
  8
0
  6
CONTINUOUS
 10
4.055040
 20
3.269640
  0
SEQEND
  8
0
  0
SOLID
  8
0
 62
    15
 10
3.915120
 20
3.260400
 11
4.550480
 21
2.891680
 12
3.787080
 22
3.236640
 13
4.422440
 23
2.867920
  0
POLYLINE
  8
0
  6
CONTINUOUS
 66
     1
 40
0.000000
 41
0.000000
  0
VERTEX
  8
0
  6
CONTINUOUS
 10
3.915120
 20
3.260400
  0
VERTEX
  8
0
  6
CONTINUOUS
 10
4.550480
 20
2.891680
  0
VERTEX
  8
0
  6
CONTINUOUS
 10
4.422440
 20
2.867920
  0
VERTEX
  8
0
  6
CONTINUOUS
 10
3.787080
 20
3.236640
  0
VERTEX
  8
0
  6
CONTINUOUS
 10
3.915120
 20
3.260400
  0
SEQEND
  8
0
  0
SOLID
  8
0
 62
    15
 10
3.787080
 20
3.236640
 11
4.422440
 21
2.867920
 12
3.671800
 22
3.200120
 13
4.306720
 23
2.831400
  0
POLYLINE
  8
0
  6
CONTINUOUS
 66
     1
 40
0.000000
 41
0.000000
  0
VERTEX
  8
0
  6
CONTINUOUS
 10
3.787080
 20
3.236640
  0
VERTEX
  8
0
  6
CONTINUOUS
 10
4.422440
 20
2.867920
  0
VERTEX
  8
0
  6
CONTINUOUS
 10
4.306720
 20
2.831400
  0
VERTEX
  8
0
  6
CONTINUOUS
 10
3.671800
 20
3.200120
  0
VERTEX
  8
0
  6
CONTINUOUS
 10
3.787080
 20
3.236640
  0
SEQEND
  8
0
  0
SOLID
  8
0
 62
    15
 10
3.671800
 20
3.200120
 11
4.306720
 21
2.831400
 12
3.568840
 22
3.151720
 13
4.204200
 23
2.783440
  0
POLYLINE
  8
0
  6
CONTINUOUS
 66
     1
 40
0.000000
 41
0.000000
  0
VERTEX
  8
0
  6
CONTINUOUS
 10
3.671800
 20
3.200120
  0
VERTEX
  8
0
  6
CONTINUOUS
 10
4.306720
 20
2.831400
  0
VERTEX
  8
0
  6
CONTINUOUS
 10
4.204200
 20
2.783440
  0
VERTEX
  8
0
  6
CONTINUOUS
 10
3.568840
 20
3.151720
  0
VERTEX
  8
0
  6
CONTINUOUS
 10
3.671800
 20
3.200120
  0
SEQEND
  8
0
  0
SOLID
  8
0
 62
    15
 10
3.568840
 20
3.151720
 11
4.204200
 21
2.783440
 12
3.479520
 22
3.094080
 13
4.114880
 23
2.725360
  0
POLYLINE
  8
0
  6
CONTINUOUS
 66
     1
 40
0.000000
 41
0.000000
  0
VERTEX
  8
0
  6
CONTINUOUS
 10
3.568840
 20
3.151720
  0
VERTEX
  8
0
  6
CONTINUOUS
 10
4.204200
 20
2.783440
  0
VERTEX
  8
0
  6
CONTINUOUS
 10
4.114880
 20
2.725360
  0
VERTEX
  8
0
  6
CONTINUOUS
 10
3.479520
 20
3.094080
  0
VERTEX
  8
0
  6
CONTINUOUS
 10
3.568840
 20
3.151720
  0
SEQEND
  8
0
  0
SOLID
  8
0
 62
    15
 10
3.479520
 20
3.094080
 11
4.114880
 21
2.725360
 12
3.404280
 22
3.028080
 13
4.039640
 23
2.659360
  0
POLYLINE
  8
0
  6
CONTINUOUS
 66
     1
 40
0.000000
 41
0.000000
  0
VERTEX
  8
0
  6
CONTINUOUS
 10
3.479520
 20
3.094080
  0
VERTEX
  8
0
  6
CONTINUOUS
 10
4.114880
 20
2.725360
  0
VERTEX
  8
0
  6
CONTINUOUS
 10
4.039640
 20
2.659360
  0
VERTEX
  8
0
  6
CONTINUOUS
 10
3.404280
 20
3.028080
  0
VERTEX
  8
0
  6
CONTINUOUS
 10
3.479520
 20
3.094080
  0
SEQEND
  8
0
  0
SOLID
  8
0
 62
    15
 10
3.404280
 20
3.028080
 11
4.039640
 21
2.659360
 12
3.343120
 22
2.955040
 13
3.978480
 23
2.586320
  0
POLYLINE
  8
0
  6
CONTINUOUS
 66
     1
 40
0.000000
 41
0.000000
  0
VERTEX
  8
0
  6
CONTINUOUS
 10
3.404280
 20
3.028080
  0
VERTEX
  8
0
  6
CONTINUOUS
 10
4.039640
 20
2.659360
  0
VERTEX
  8
0
  6
CONTINUOUS
 10
3.978480
 20
2.586320
  0
VERTEX
  8
0
  6
CONTINUOUS
 10
3.343120
 20
2.955040
  0
VERTEX
  8
0
  6
CONTINUOUS
 10
3.404280
 20
3.028080
  0
SEQEND
  8
0
  0
SOLID
  8
0
 62
    15
 10
3.343120
 20
2.955040
 11
3.978480
 21
2.586320
 12
3.296480
 22
2.876280
 13
3.931840
 23
2.507560
  0
POLYLINE
  8
0
  6
CONTINUOUS
 66
     1
 40
0.000000
 41
0.000000
  0
VERTEX
  8
0
  6
CONTINUOUS
 10
3.343120
 20
2.955040
  0
VERTEX
  8
0
  6
CONTINUOUS
 10
3.978480
 20
2.586320
  0
VERTEX
  8
0
  6
CONTINUOUS
 10
3.931840
 20
2.507560
  0
VERTEX
  8
0
  6
CONTINUOUS
 10
3.296480
 20
2.876280
  0
VERTEX
  8
0
  6
CONTINUOUS
 10
3.343120
 20
2.955040
  0
SEQEND
  8
0
  0
SOLID
  8
0
 62
    15
 10
3.296480
 20
2.876280
 11
3.931840
 21
2.507560
 12
3.264800
 22
2.794000
 13
3.900160
 23
2.425280
  0
POLYLINE
  8
0
  6
CONTINUOUS
 66
     1
 40
0.000000
 41
0.000000
  0
VERTEX
  8
0
  6
CONTINUOUS
 10
3.296480
 20
2.876280
  0
VERTEX
  8
0
  6
CONTINUOUS
 10
3.931840
 20
2.507560
  0
VERTEX
  8
0
  6
CONTINUOUS
 10
3.900160
 20
2.425280
  0
VERTEX
  8
0
  6
CONTINUOUS
 10
3.264800
 20
2.794000
  0
VERTEX
  8
0
  6
CONTINUOUS
 10
3.296480
 20
2.876280
  0
SEQEND
  8
0
  0
SOLID
  8
0
 62
    15
 10
3.264800
 20
2.794000
 11
3.900160
 21
2.425280
 12
3.248960
 22
2.709080
 13
3.884320
 23
2.340800
  0
POLYLINE
  8
0
  6
CONTINUOUS
 66
     1
 40
0.000000
 41
0.000000
  0
VERTEX
  8
0
  6
CONTINUOUS
 10
3.264800
 20
2.794000
  0
VERTEX
  8
0
  6
CONTINUOUS
 10
3.900160
 20
2.425280
  0
VERTEX
  8
0
  6
CONTINUOUS
 10
3.884320
 20
2.340800
  0
VERTEX
  8
0
  6
CONTINUOUS
 10
3.248960
 20
2.709080
  0
VERTEX
  8
0
  6
CONTINUOUS
 10
3.264800
 20
2.794000
  0
SEQEND
  8
0
  0
SOLID
  8
0
 62
    15
 10
3.248960
 20
2.709080
 11
3.884320
 21
2.340800
 12
3.248960
 22
2.623720
 13
3.884320
 23
2.255000
  0
POLYLINE
  8
0
  6
CONTINUOUS
 66
     1
 40
0.000000
 41
0.000000
  0
VERTEX
  8
0
  6
CONTINUOUS
 10
3.248960
 20
2.709080
  0
VERTEX
  8
0
  6
CONTINUOUS
 10
3.884320
 20
2.340800
  0
VERTEX
  8
0
  6
CONTINUOUS
 10
3.884320
 20
2.255000
  0
VERTEX
  8
0
  6
CONTINUOUS
 10
3.248960
 20
2.623720
  0
VERTEX
  8
0
  6
CONTINUOUS
 10
3.248960
 20
2.709080
  0
SEQEND
  8
0
  0
SOLID
  8
0
 62
    15
 10
3.248960
 20
2.623720
 11
3.884320
 21
2.255000
 12
3.265680
 22
2.538360
 13
3.901040
 23
2.169640
  0
POLYLINE
  8
0
  6
CONTINUOUS
 66
     1
 40
0.000000
 41
0.000000
  0
VERTEX
  8
0
  6
CONTINUOUS
 10
3.248960
 20
2.623720
  0
VERTEX
  8
0
  6
CONTINUOUS
 10
3.884320
 20
2.255000
  0
VERTEX
  8
0
  6
CONTINUOUS
 10
3.901040
 20
2.169640
  0
VERTEX
  8
0
  6
CONTINUOUS
 10
3.265680
 20
2.538360
  0
VERTEX
  8
0
  6
CONTINUOUS
 10
3.248960
 20
2.623720
  0
SEQEND
  8
0
  0
SOLID
  8
0
 62
    15
 10
3.265680
 20
2.538360
 11
3.901040
 21
2.169640
 12
3.299120
 22
2.455200
 13
3.934480
 23
2.086920
  0
POLYLINE
  8
0
  6
CONTINUOUS
 66
     1
 40
0.000000
 41
0.000000
  0
VERTEX
  8
0
  6
CONTINUOUS
 10
3.265680
 20
2.538360
  0
VERTEX
  8
0
  6
CONTINUOUS
 10
3.901040
 20
2.169640
  0
VERTEX
  8
0
  6
CONTINUOUS
 10
3.934480
 20
2.086920
  0
VERTEX
  8
0
  6
CONTINUOUS
 10
3.299120
 20
2.455200
  0
VERTEX
  8
0
  6
CONTINUOUS
 10
3.265680
 20
2.538360
  0
SEQEND
  8
0
  0
SOLID
  8
0
 62
    15
 10
3.299120
 20
2.455200
 11
3.934480
 21
2.086920
 12
3.350160
 22
2.376000
 13
3.985520
 23
2.007280
  0
POLYLINE
  8
0
  6
CONTINUOUS
 66
     1
 40
0.000000
 41
0.000000
  0
VERTEX
  8
0
  6
CONTINUOUS
 10
3.299120
 20
2.455200
  0
VERTEX
  8
0
  6
CONTINUOUS
 10
3.934480
 20
2.086920
  0
VERTEX
  8
0
  6
CONTINUOUS
 10
3.985520
 20
2.007280
  0
VERTEX
  8
0
  6
CONTINUOUS
 10
3.350160
 20
2.376000
  0
VERTEX
  8
0
  6
CONTINUOUS
 10
3.299120
 20
2.455200
  0
SEQEND
  8
0
  0
SOLID
  8
0
 62
    15
 10
3.350160
 20
2.376000
 11
3.985520
 21
2.007280
 12
3.418800
 22
2.301640
 13
4.054160
 23
1.932920
  0
POLYLINE
  8
0
  6
CONTINUOUS
 66
     1
 40
0.000000
 41
0.000000
  0
VERTEX
  8
0
  6
CONTINUOUS
 10
3.350160
 20
2.376000
  0
VERTEX
  8
0
  6
CONTINUOUS
 10
3.985520
 20
2.007280
  0
VERTEX
  8
0
  6
CONTINUOUS
 10
4.054160
 20
1.932920
  0
VERTEX
  8
0
  6
CONTINUOUS
 10
3.418800
 20
2.301640
  0
VERTEX
  8
0
  6
CONTINUOUS
 10
3.350160
 20
2.376000
  0
SEQEND
  8
0
  0
SOLID
  8
0
 62
    15
 10
3.418800
 20
2.301640
 11
4.054160
 21
1.932920
 12
3.459720
 22
2.266440
 13
4.095080
 23
1.898160
  0
POLYLINE
  8
0
  6
CONTINUOUS
 66
     1
 40
0.000000
 41
0.000000
  0
VERTEX
  8
0
  6
CONTINUOUS
 10
3.418800
 20
2.301640
  0
VERTEX
  8
0
  6
CONTINUOUS
 10
4.054160
 20
1.932920
  0
VERTEX
  8
0
  6
CONTINUOUS
 10
4.095080
 20
1.898160
  0
VERTEX
  8
0
  6
CONTINUOUS
 10
3.459720
 20
2.266440
  0
VERTEX
  8
0
  6
CONTINUOUS
 10
3.418800
 20
2.301640
  0
SEQEND
  8
0
  0
SOLID
  8
0
 62
    15
 10
3.459720
 20
2.266440
 11
4.095080
 21
1.898160
 12
3.505480
 22
2.233440
 13
4.140840
 23
1.865160
  0
POLYLINE
  8
0
  6
CONTINUOUS
 66
     1
 40
0.000000
 41
0.000000
  0
VERTEX
  8
0
  6
CONTINUOUS
 10
3.459720
 20
2.266440
  0
VERTEX
  8
0
  6
CONTINUOUS
 10
4.095080
 20
1.898160
  0
VERTEX
  8
0
  6
CONTINUOUS
 10
4.140840
 20
1.865160
  0
VERTEX
  8
0
  6
CONTINUOUS
 10
3.505480
 20
2.233440
  0
VERTEX
  8
0
  6
CONTINUOUS
 10
3.459720
 20
2.266440
  0
SEQEND
  8
0
  0
SOLID
  8
0
 62
    15
 10
3.505480
 20
2.233440
 11
4.140840
 21
1.865160
 12
3.506800
 22
2.232120
 13
4.142160
 23
1.863400
  0
POLYLINE
  8
0
  6
CONTINUOUS
 66
     1
 40
0.000000
 41
0.000000
  0
VERTEX
  8
0
  6
CONTINUOUS
 10
3.505480
 20
2.233440
  0
VERTEX
  8
0
  6
CONTINUOUS
 10
4.140840
 20
1.865160
  0
VERTEX
  8
0
  6
CONTINUOUS
 10
4.142160
 20
1.863400
  0
VERTEX
  8
0
  6
CONTINUOUS
 10
3.506800
 20
2.232120
  0
VERTEX
  8
0
  6
CONTINUOUS
 10
3.505480
 20
2.233440
  0
SEQEND
  8
0
  0
POLYLINE
  8
0
  6
CONTINUOUS
 66
     1
 40
0.000000
 41
0.000000
  0
VERTEX
  8
0
  6
CONTINUOUS
 10
3.506800
 20
2.232120
  0
VERTEX
  8
0
  6
CONTINUOUS
 10
3.506800
 20
2.145000
  0
VERTEX
  8
0
  6
CONTINUOUS
 10
3.596120
 20
2.145000
  0
VERTEX
  8
0
  6
CONTINUOUS
 10
3.596120
 20
2.058320
  0
VERTEX
  8
0
  6
CONTINUOUS
 10
3.596560
 20
2.058320
  0
VERTEX
  8
0
  6
CONTINUOUS
 10
3.619000
 20
2.053920
  0
VERTEX
  8
0
  6
CONTINUOUS
 10
3.637920
 20
2.041600
  0
VERTEX
  8
0
  6
CONTINUOUS
 10
3.650240
 20
2.022680
  0
VERTEX
  8
0
  6
CONTINUOUS
 10
3.654640
 20
2.000240
  0
VERTEX
  8
0
  6
CONTINUOUS
 10
3.650240
 20
1.977360
  0
VERTEX
  8
0
  6
CONTINUOUS
 10
3.637920
 20
1.958880
  0
VERTEX
  8
0
  6
CONTINUOUS
 10
3.619000
 20
1.946120
  0
VERTEX
  8
0
  6
CONTINUOUS
 10
3.596560
 20
1.941720
  0
VERTEX
  8
0
  6
CONTINUOUS
 10
3.596560
 20
1.855480
  0
VERTEX
  8
0
  6
CONTINUOUS
 10
3.506360
 20
1.855480
  0
VERTEX
  8
0
  6
CONTINUOUS
 10
3.506360
 20
1.771440
  0
VERTEX
  8
0
  6
CONTINUOUS
 10
3.454000
 20
1.767040
  0
VERTEX
  8
0
  6
CONTINUOUS
 10
3.407800
 20
1.753400
  0
VERTEX
  8
0
  6
CONTINUOUS
 10
3.368200
 20
1.731840
  0
VERTEX
  8
0
  6
CONTINUOUS
 10
3.335200
 20
1.702800
  0
VERTEX
  8
0
  6
CONTINUOUS
 10
3.309680
 20
1.666280
  0
VERTEX
  8
0
  6
CONTINUOUS
 10
3.290760
 20
1.623160
  0
VERTEX
  8
0
  6
CONTINUOUS
 10
3.279320
 20
1.574320
  0
VERTEX
  8
0
  6
CONTINUOUS
 10
3.275800
 20
1.520200
  0
VERTEX
  8
0
  6
CONTINUOUS
 10
3.075160
 20
1.520200
  0
VERTEX
  8
0
  6
CONTINUOUS
 10
3.075160
 20
3.531000
  0
VERTEX
  8
0
  6
CONTINUOUS
 10
4.047560
 20
3.531000
  0
VERTEX
  8
0
  6
CONTINUOUS
 10
4.046680
 20
3.531000
  0
VERTEX
  8
0
  6
CONTINUOUS
 10
4.146120
 20
3.531000
  0
VERTEX
  8
0
  6
CONTINUOUS
 10
4.146120
 20
3.353240
  0
VERTEX
  8
0
  6
CONTINUOUS
 10
4.055040
 20
3.353240
  0
VERTEX
  8
0
  6
CONTINUOUS
 10
4.055040
 20
3.269640
  0
VERTEX
  8
0
  6
CONTINUOUS
 10
3.915120
 20
3.260400
  0
VERTEX
  8
0
  6
CONTINUOUS
 10
3.787080
 20
3.236640
  0
VERTEX
  8
0
  6
CONTINUOUS
 10
3.671800
 20
3.200120
  0
VERTEX
  8
0
  6
CONTINUOUS
 10
3.568840
 20
3.151720
  0
VERTEX
  8
0
  6
CONTINUOUS
 10
3.479520
 20
3.094080
  0
VERTEX
  8
0
  6
CONTINUOUS
 10
3.404280
 20
3.028080
  0
VERTEX
  8
0
  6
CONTINUOUS
 10
3.343120
 20
2.955040
  0
VERTEX
  8
0
  6
CONTINUOUS
 10
3.296480
 20
2.876280
  0
VERTEX
  8
0
  6
CONTINUOUS
 10
3.264800
 20
2.794000
  0
VERTEX
  8
0
  6
CONTINUOUS
 10
3.248960
 20
2.709080
  0
VERTEX
  8
0
  6
CONTINUOUS
 10
3.248960
 20
2.623720
  0
VERTEX
  8
0
  6
CONTINUOUS
 10
3.265680
 20
2.538360
  0
VERTEX
  8
0
  6
CONTINUOUS
 10
3.299120
 20
2.455200
  0
VERTEX
  8
0
  6
CONTINUOUS
 10
3.350160
 20
2.376000
  0
VERTEX
  8
0
  6
CONTINUOUS
 10
3.418800
 20
2.301640
  0
VERTEX
  8
0
  6
CONTINUOUS
 10
3.459720
 20
2.266440
  0
VERTEX
  8
0
  6
CONTINUOUS
 10
3.505480
 20
2.233440
  0
VERTEX
  8
0
  6
CONTINUOUS
 10
3.506800
 20
2.232120
  0
SEQEND
  8
0
  0
TEXT
  8
0
 10
4.392960
 20
1.334960
 40
0.138078
  1
BA  1000
 41
1.000000
  7
SN0
 71
     0
 72
     5
 11
5.075121
 21
1.334960
  0
TEXT
  8
0
 10
4.306280
 20
1.143560
 40
0.138078
  1
1-1/16" x 2"
 41
1.000000
  7
SN0
 71
     0
 72
     5
 11
5.160982
 21
1.143560
  0
ENDSEC
  0
EOF
