  0
SECTION
  2
HEADER
  9
$ACADVER
  1
AC1006
  9
$EXTMIN
 10
1.996720
 20
0.747120
  9
$EXTMAX
 10
7.535000
 20
3.879920
  9
$LTSCALE
 40
0.044000
  9
$PDMODE
 70
    35
  9
$PDSIZE
 40
0.035200
  0
ENDSEC
  0
SECTION
  2
TABLES
  0
TABLE
  2
LTYPE
 70
     9
  0
LTYPE
  2
CONTINUOUS
 70
    64
  3
Solid line
 72
    65
 73
     0
 40
0.000000
  0
LTYPE
  2
DASHED
 70
    64
  3
__ __ __ __ __ __ __ __ __ __ __ __ __ __ __
 72
    65
 73
     2
 40
0.000330
 49
0.000220
 49
-0.000110
  0
LTYPE
  2
HIDDEN
 70
    64
  3
 _ _ _ _ _ _ _ _ _ _ _ _ _ _ _ _ _ _ _ _ _ _
 72
    65
 73
     2
 40
0.000165
 49
0.000110
 49
-0.000055
  0
LTYPE
  2
CENTER
 70
    64
  3
____ _ ____ _ ____ _ ____ _ ____ _ ____ _ ____
 72
    65
 73
     4
 40
0.000880
 49
0.000550
 49
-0.000110
 49
0.000110
 49
-0.000110
  0
LTYPE
  2
PHANTOM
 70
    64
  3
_____ _ _ _____ _ _ _____ _ _ _____ _ _ ____
 72
    65
 73
     6
 40
0.001100
 49
0.000550
 49
-0.000110
 49
0.000110
 49
-0.000110
 49
0.000110
 49
-0.000110
  0
LTYPE
  2
DOT
 70
    64
  3
...............................................
 72
    65
 73
     2
 40
0.000110
 49
0.000000
 49
-0.000110
  0
LTYPE
  2
DASHDOT
 70
    64
  3
__ . __ . __ . __ . __ . __ . __ . __ . __ . __
 72
    65
 73
     4
 40
0.000440
 49
0.000220
 49
-0.000110
 49
0.000000
 49
-0.000110
  0
LTYPE
  2
BORDER
 70
    64
  3
__ __ . __ __ . __ __ . __ __ . __ __ . __ __
 72
    65
 73
     6
 40
0.000770
 49
0.000220
 49
-0.000110
 49
0.000220
 49
-0.000110
 49
0.000000
 49
-0.000110
  0
LTYPE
  2
DIVIDE
 70
    64
  3
__ . . __ . . __ . . __ . . __ . . __ . . __
 72
    65
 73
     6
 40
0.000550
 49
0.000220
 49
-0.000110
 49
0.000000
 49
-0.000110
 49
0.000000
 49
-0.000110
  0
LTYPE
  2
DOTDOT
 70
    64
  3
 . .  . .  . .  . .  . .  . . 
 72
    65
 73
     5
 40
0.000242
 49
-0.000110
 49
0.000000
 49
-0.000110
 49
0.000000
 49
-0.000110
  0
ENDTAB
  0
TABLE
  2
STYLE
 70
     2
  0
STYLE
 70
     0
  2
SN0
 40
0.000000
 41
0.000440
 50
0.000000
 71
     0
 42
0.000000
  3
ROMAND
  0
STYLE
 70
    68
  2
SV0
 40
0.000000
 41
0.000440
 50
0.000000
 71
     0
 42
0.000000
  3
ROMAND
  0
ENDTAB
  0
TABLE
  2
LAYER
 70
     3
  0
LAYER
  2
FOREGROUND
 70
    64
 62
     7
  6
CONTINUOUS
  0
LAYER
  2
BACKGROUND
 70
    65
 62
    -7
  6
CONTINUOUS
  0
LAYER
  2
0
 70
    64
 62
     7
  6
CONTINUOUS
  0
ENDTAB
  0
ENDSEC
  0
SECTION
  2
ENTITIES
  0
POLYLINE
  8
FOREGROUND
  6
CONTINUOUS
 66
     1
 40
0.000000
 41
0.000000
  0
VERTEX
  8
FOREGROUND
  6
CONTINUOUS
 10
0.000000
 20
4.627040
  0
VERTEX
  8
FOREGROUND
  6
CONTINUOUS
 10
8.499920
 20
4.627040
  0
VERTEX
  8
FOREGROUND
  6
CONTINUOUS
 10
8.499920
 20
-6.372960
  0
VERTEX
  8
FOREGROUND
  6
CONTINUOUS
 10
0.000000
 20
-6.372960
  0
VERTEX
  8
FOREGROUND
  6
CONTINUOUS
 10
0.000000
 20
4.627040
  0
SEQEND
  8
0
  0
POLYLINE
  8
FOREGROUND
  6
CONTINUOUS
 66
     1
 40
0.000000
 41
0.000000
  0
VERTEX
  8
FOREGROUND
  6
CONTINUOUS
 10
0.000000
 20
4.627040
  0
VERTEX
  8
FOREGROUND
  6
CONTINUOUS
 10
8.499920
 20
4.627040
  0
VERTEX
  8
FOREGROUND
  6
CONTINUOUS
 10
8.499920
 20
-6.372960
  0
VERTEX
  8
FOREGROUND
  6
CONTINUOUS
 10
0.000000
 20
-6.372960
  0
VERTEX
  8
FOREGROUND
  6
CONTINUOUS
 10
0.000000
 20
4.627040
  0
SEQEND
  8
0
  0
POLYLINE
  8
0
  6
CONTINUOUS
 66
     1
 40
0.014080
 41
0.014080
  0
VERTEX
  8
0
  6
CONTINUOUS
 10
6.771160
 20
3.866280
  0
VERTEX
  8
0
  6
CONTINUOUS
 10
6.771160
 20
3.507680
  0
VERTEX
  8
0
  6
CONTINUOUS
 10
6.902280
 20
3.507680
  0
VERTEX
  8
0
  6
CONTINUOUS
 10
6.904040
 20
3.540240
  0
VERTEX
  8
0
  6
CONTINUOUS
 10
6.908440
 20
3.571920
  0
VERTEX
  8
0
  6
CONTINUOUS
 10
6.920760
 20
3.617680
  0
VERTEX
  8
0
  6
CONTINUOUS
 10
6.939240
 20
3.660800
  0
VERTEX
  8
0
  6
CONTINUOUS
 10
6.963000
 20
3.700840
  0
VERTEX
  8
0
  6
CONTINUOUS
 10
6.992040
 20
3.736920
  0
VERTEX
  8
0
  6
CONTINUOUS
 10
7.025920
 20
3.768600
  0
VERTEX
  8
0
  6
CONTINUOUS
 10
7.063320
 20
3.795000
  0
VERTEX
  8
0
  6
CONTINUOUS
 10
7.104680
 20
3.815240
  0
VERTEX
  8
0
  6
CONTINUOUS
 10
7.134160
 20
3.825360
  0
VERTEX
  8
0
  6
CONTINUOUS
 10
7.164520
 20
3.831960
  0
VERTEX
  8
0
  6
CONTINUOUS
 10
7.196200
 20
3.835480
  0
VERTEX
  8
0
  6
CONTINUOUS
 10
7.228760
 20
3.835480
  0
VERTEX
  8
0
  6
CONTINUOUS
 10
7.260440
 20
3.832400
  0
VERTEX
  8
0
  6
CONTINUOUS
 10
7.306200
 20
3.821840
  0
VERTEX
  8
0
  6
CONTINUOUS
 10
7.335240
 20
3.811280
  0
VERTEX
  8
0
  6
CONTINUOUS
 10
7.362520
 20
3.798080
  0
VERTEX
  8
0
  6
CONTINUOUS
 10
7.400800
 20
3.773440
  0
VERTEX
  8
0
  6
CONTINUOUS
 10
7.435120
 20
3.743520
  0
VERTEX
  8
0
  6
CONTINUOUS
 10
7.465040
 20
3.709640
  0
VERTEX
  8
0
  6
CONTINUOUS
 10
7.489240
 20
3.671360
  0
VERTEX
  8
0
  6
CONTINUOUS
 10
7.508600
 20
3.629120
  0
VERTEX
  8
0
  6
CONTINUOUS
 10
7.517400
 20
3.599640
  0
VERTEX
  8
0
  6
CONTINUOUS
 10
7.524000
 20
3.568840
  0
VERTEX
  8
0
  6
CONTINUOUS
 10
7.527080
 20
3.537160
  0
VERTEX
  8
0
  6
CONTINUOUS
 10
7.527080
 20
3.504600
  0
VERTEX
  8
0
  6
CONTINUOUS
 10
7.524000
 20
3.472920
  0
VERTEX
  8
0
  6
CONTINUOUS
 10
7.513440
 20
3.427160
  0
VERTEX
  8
0
  6
CONTINUOUS
 10
7.502880
 20
3.398120
  0
VERTEX
  8
0
  6
CONTINUOUS
 10
7.481760
 20
3.357640
  0
VERTEX
  8
0
  6
CONTINUOUS
 10
7.465040
 20
3.332560
  0
VERTEX
  8
0
  6
CONTINUOUS
 10
7.435120
 20
3.298240
  0
VERTEX
  8
0
  6
CONTINUOUS
 10
7.400800
 20
3.268320
  0
VERTEX
  8
0
  6
CONTINUOUS
 10
7.362520
 20
3.244120
  0
VERTEX
  8
0
  6
CONTINUOUS
 10
7.335240
 20
3.230480
  0
VERTEX
  8
0
  6
CONTINUOUS
 10
7.306200
 20
3.219920
  0
VERTEX
  8
0
  6
CONTINUOUS
 10
7.260440
 20
3.209360
  0
VERTEX
  8
0
  6
CONTINUOUS
 10
7.228760
 20
3.206280
  0
VERTEX
  8
0
  6
CONTINUOUS
 10
7.212480
 20
3.205840
  0
VERTEX
  8
0
  6
CONTINUOUS
 10
7.212480
 20
3.114320
  0
VERTEX
  8
0
  6
CONTINUOUS
 10
2.139720
 20
3.114320
  0
VERTEX
  8
0
  6
CONTINUOUS
 10
2.139720
 20
3.872440
  0
VERTEX
  8
0
  6
CONTINUOUS
 10
4.141720
 20
3.872440
  0
VERTEX
  8
0
  6
CONTINUOUS
 10
4.141720
 20
3.623400
  0
VERTEX
  8
0
  6
CONTINUOUS
 10
5.774560
 20
3.623400
  0
VERTEX
  8
0
  6
CONTINUOUS
 10
5.774560
 20
3.872440
  0
VERTEX
  8
0
  6
CONTINUOUS
 10
6.770720
 20
3.872440
  0
VERTEX
  8
0
  6
CONTINUOUS
 10
6.771160
 20
3.866280
  0
SEQEND
  8
0
  0
TEXT
  8
0
 10
4.299240
 20
3.398120
 40
0.138093
  1
BA  999 & 494
 41
1.000000
  7
SN0
 71
     0
 72
     5
 11
5.368959
 21
3.398120
  0
TEXT
  8
0
 10
4.337520
 20
3.206720
 40
0.138093
  1
3/4" x 5-5/16"
 41
1.000000
  7
SN0
 71
     0
 72
     5
 11
5.330534
 21
3.206720
  0
SOLID
  8
0
 62
    15
 10
7.133280
 20
1.950520
 11
7.133720
 21
2.682680
 12
7.192680
 22
1.932040
 13
7.193120
 23
2.664200
  0
POLYLINE
  8
0
  6
CONTINUOUS
 66
     1
 40
0.000000
 41
0.000000
  0
VERTEX
  8
0
  6
CONTINUOUS
 10
7.133280
 20
1.950520
  0
VERTEX
  8
0
  6
CONTINUOUS
 10
7.133720
 20
2.682680
  0
VERTEX
  8
0
  6
CONTINUOUS
 10
7.193120
 20
2.664200
  0
VERTEX
  8
0
  6
CONTINUOUS
 10
7.192680
 20
1.932040
  0
VERTEX
  8
0
  6
CONTINUOUS
 10
7.133280
 20
1.950520
  0
SEQEND
  8
0
  0
SOLID
  8
0
 62
    15
 10
6.628600
 20
1.628880
 11
6.629040
 21
2.361040
 12
6.759720
 22
1.628880
 13
6.760160
 23
2.361040
  0
POLYLINE
  8
0
  6
CONTINUOUS
 66
     1
 40
0.000000
 41
0.000000
  0
VERTEX
  8
0
  6
CONTINUOUS
 10
6.628600
 20
1.628880
  0
VERTEX
  8
0
  6
CONTINUOUS
 10
6.629040
 20
2.361040
  0
VERTEX
  8
0
  6
CONTINUOUS
 10
6.760160
 20
2.361040
  0
VERTEX
  8
0
  6
CONTINUOUS
 10
6.759720
 20
1.628880
  0
VERTEX
  8
0
  6
CONTINUOUS
 10
6.628600
 20
1.628880
  0
SEQEND
  8
0
  0
SOLID
  8
0
 62
    15
 10
6.759720
 20
1.628880
 11
6.760160
 21
2.361040
 12
6.765880
 22
1.692680
 13
6.766320
 23
2.424840
  0
POLYLINE
  8
0
  6
CONTINUOUS
 66
     1
 40
0.000000
 41
0.000000
  0
VERTEX
  8
0
  6
CONTINUOUS
 10
6.759720
 20
1.628880
  0
VERTEX
  8
0
  6
CONTINUOUS
 10
6.760160
 20
2.361040
  0
VERTEX
  8
0
  6
CONTINUOUS
 10
6.766320
 20
2.424840
  0
VERTEX
  8
0
  6
CONTINUOUS
 10
6.765880
 20
1.692680
  0
VERTEX
  8
0
  6
CONTINUOUS
 10
6.759720
 20
1.628880
  0
SEQEND
  8
0
  0
SOLID
  8
0
 62
    15
 10
6.765880
 20
1.692680
 11
6.766320
 21
2.424840
 12
6.783920
 22
1.753400
 13
6.783920
 23
2.485560
  0
POLYLINE
  8
0
  6
CONTINUOUS
 66
     1
 40
0.000000
 41
0.000000
  0
VERTEX
  8
0
  6
CONTINUOUS
 10
6.765880
 20
1.692680
  0
VERTEX
  8
0
  6
CONTINUOUS
 10
6.766320
 20
2.424840
  0
VERTEX
  8
0
  6
CONTINUOUS
 10
6.783920
 20
2.485560
  0
VERTEX
  8
0
  6
CONTINUOUS
 10
6.783920
 20
1.753400
  0
VERTEX
  8
0
  6
CONTINUOUS
 10
6.765880
 20
1.692680
  0
SEQEND
  8
0
  0
SOLID
  8
0
 62
    15
 10
6.783920
 20
1.753400
 11
6.783920
 21
2.485560
 12
6.812080
 22
1.809280
 13
6.812080
 23
2.541440
  0
POLYLINE
  8
0
  6
CONTINUOUS
 66
     1
 40
0.000000
 41
0.000000
  0
VERTEX
  8
0
  6
CONTINUOUS
 10
6.783920
 20
1.753400
  0
VERTEX
  8
0
  6
CONTINUOUS
 10
6.783920
 20
2.485560
  0
VERTEX
  8
0
  6
CONTINUOUS
 10
6.812080
 20
2.541440
  0
VERTEX
  8
0
  6
CONTINUOUS
 10
6.812080
 20
1.809280
  0
VERTEX
  8
0
  6
CONTINUOUS
 10
6.783920
 20
1.753400
  0
SEQEND
  8
0
  0
SOLID
  8
0
 62
    15
 10
6.812080
 20
1.809280
 11
6.812080
 21
2.541440
 12
6.849480
 22
1.858120
 13
6.849920
 23
2.590280
  0
POLYLINE
  8
0
  6
CONTINUOUS
 66
     1
 40
0.000000
 41
0.000000
  0
VERTEX
  8
0
  6
CONTINUOUS
 10
6.812080
 20
1.809280
  0
VERTEX
  8
0
  6
CONTINUOUS
 10
6.812080
 20
2.541440
  0
VERTEX
  8
0
  6
CONTINUOUS
 10
6.849920
 20
2.590280
  0
VERTEX
  8
0
  6
CONTINUOUS
 10
6.849480
 20
1.858120
  0
VERTEX
  8
0
  6
CONTINUOUS
 10
6.812080
 20
1.809280
  0
SEQEND
  8
0
  0
SOLID
  8
0
 62
    15
 10
6.849480
 20
1.858120
 11
6.849920
 21
2.590280
 12
6.895240
 22
1.899040
 13
6.895680
 23
2.631200
  0
POLYLINE
  8
0
  6
CONTINUOUS
 66
     1
 40
0.000000
 41
0.000000
  0
VERTEX
  8
0
  6
CONTINUOUS
 10
6.849480
 20
1.858120
  0
VERTEX
  8
0
  6
CONTINUOUS
 10
6.849920
 20
2.590280
  0
VERTEX
  8
0
  6
CONTINUOUS
 10
6.895680
 20
2.631200
  0
VERTEX
  8
0
  6
CONTINUOUS
 10
6.895240
 20
1.899040
  0
VERTEX
  8
0
  6
CONTINUOUS
 10
6.849480
 20
1.858120
  0
SEQEND
  8
0
  0
SOLID
  8
0
 62
    15
 10
6.895240
 20
1.899040
 11
6.895680
 21
2.631200
 12
6.948040
 22
1.930280
 13
6.948480
 23
2.662440
  0
POLYLINE
  8
0
  6
CONTINUOUS
 66
     1
 40
0.000000
 41
0.000000
  0
VERTEX
  8
0
  6
CONTINUOUS
 10
6.895240
 20
1.899040
  0
VERTEX
  8
0
  6
CONTINUOUS
 10
6.895680
 20
2.631200
  0
VERTEX
  8
0
  6
CONTINUOUS
 10
6.948480
 20
2.662440
  0
VERTEX
  8
0
  6
CONTINUOUS
 10
6.948040
 20
1.930280
  0
VERTEX
  8
0
  6
CONTINUOUS
 10
6.895240
 20
1.899040
  0
SEQEND
  8
0
  0
SOLID
  8
0
 62
    15
 10
6.948040
 20
1.930280
 11
6.948480
 21
2.662440
 12
7.006560
 22
1.950080
 13
7.007000
 23
2.682240
  0
POLYLINE
  8
0
  6
CONTINUOUS
 66
     1
 40
0.000000
 41
0.000000
  0
VERTEX
  8
0
  6
CONTINUOUS
 10
6.948040
 20
1.930280
  0
VERTEX
  8
0
  6
CONTINUOUS
 10
6.948480
 20
2.662440
  0
VERTEX
  8
0
  6
CONTINUOUS
 10
7.007000
 20
2.682240
  0
VERTEX
  8
0
  6
CONTINUOUS
 10
7.006560
 20
1.950080
  0
VERTEX
  8
0
  6
CONTINUOUS
 10
6.948040
 20
1.930280
  0
SEQEND
  8
0
  0
SOLID
  8
0
 62
    15
 10
7.006560
 20
1.950080
 11
7.007000
 21
2.682240
 12
7.037800
 22
1.955360
 13
7.038240
 23
2.687520
  0
POLYLINE
  8
0
  6
CONTINUOUS
 66
     1
 40
0.000000
 41
0.000000
  0
VERTEX
  8
0
  6
CONTINUOUS
 10
7.006560
 20
1.950080
  0
VERTEX
  8
0
  6
CONTINUOUS
 10
7.007000
 20
2.682240
  0
VERTEX
  8
0
  6
CONTINUOUS
 10
7.038240
 20
2.687520
  0
VERTEX
  8
0
  6
CONTINUOUS
 10
7.037800
 20
1.955360
  0
VERTEX
  8
0
  6
CONTINUOUS
 10
7.006560
 20
1.950080
  0
SEQEND
  8
0
  0
SOLID
  8
0
 62
    15
 10
7.037800
 20
1.955360
 11
7.038240
 21
2.687520
 12
7.069920
 22
1.957120
 13
7.070360
 23
2.689280
  0
POLYLINE
  8
0
  6
CONTINUOUS
 66
     1
 40
0.000000
 41
0.000000
  0
VERTEX
  8
0
  6
CONTINUOUS
 10
7.037800
 20
1.955360
  0
VERTEX
  8
0
  6
CONTINUOUS
 10
7.038240
 20
2.687520
  0
VERTEX
  8
0
  6
CONTINUOUS
 10
7.070360
 20
2.689280
  0
VERTEX
  8
0
  6
CONTINUOUS
 10
7.069920
 20
1.957120
  0
VERTEX
  8
0
  6
CONTINUOUS
 10
7.037800
 20
1.955360
  0
SEQEND
  8
0
  0
SOLID
  8
0
 62
    15
 10
7.069920
 20
1.957120
 11
7.070360
 21
2.689280
 12
7.133280
 22
1.950520
 13
7.133720
 23
2.682680
  0
POLYLINE
  8
0
  6
CONTINUOUS
 66
     1
 40
0.000000
 41
0.000000
  0
VERTEX
  8
0
  6
CONTINUOUS
 10
7.069920
 20
1.957120
  0
VERTEX
  8
0
  6
CONTINUOUS
 10
7.070360
 20
2.689280
  0
VERTEX
  8
0
  6
CONTINUOUS
 10
7.133720
 20
2.682680
  0
VERTEX
  8
0
  6
CONTINUOUS
 10
7.133280
 20
1.950520
  0
VERTEX
  8
0
  6
CONTINUOUS
 10
7.069920
 20
1.957120
  0
SEQEND
  8
0
  0
SOLID
  8
0
 62
    15
 10
6.628600
 20
1.987040
 11
6.629040
 21
2.719200
 12
6.628600
 22
1.628880
 13
6.629040
 23
2.361040
  0
POLYLINE
  8
0
  6
CONTINUOUS
 66
     1
 40
0.000000
 41
0.000000
  0
VERTEX
  8
0
  6
CONTINUOUS
 10
6.628600
 20
1.987040
  0
VERTEX
  8
0
  6
CONTINUOUS
 10
6.629040
 20
2.719200
  0
VERTEX
  8
0
  6
CONTINUOUS
 10
6.629040
 20
2.361040
  0
VERTEX
  8
0
  6
CONTINUOUS
 10
6.628600
 20
1.628880
  0
VERTEX
  8
0
  6
CONTINUOUS
 10
6.628600
 20
1.987040
  0
SEQEND
  8
0
  0
SOLID
  8
0
 62
    15
 10
7.192680
 20
1.932040
 11
7.193120
 21
2.664200
 12
7.246360
 22
1.903000
 13
7.246360
 23
2.635600
  0
POLYLINE
  8
0
  6
CONTINUOUS
 66
     1
 40
0.000000
 41
0.000000
  0
VERTEX
  8
0
  6
CONTINUOUS
 10
7.192680
 20
1.932040
  0
VERTEX
  8
0
  6
CONTINUOUS
 10
7.193120
 20
2.664200
  0
VERTEX
  8
0
  6
CONTINUOUS
 10
7.246360
 20
2.635600
  0
VERTEX
  8
0
  6
CONTINUOUS
 10
7.246360
 20
1.903000
  0
VERTEX
  8
0
  6
CONTINUOUS
 10
7.192680
 20
1.932040
  0
SEQEND
  8
0
  0
SOLID
  8
0
 62
    15
 10
7.246360
 20
1.903000
 11
7.246360
 21
2.635600
 12
7.293000
 22
1.864720
 13
7.293000
 23
2.596880
  0
POLYLINE
  8
0
  6
CONTINUOUS
 66
     1
 40
0.000000
 41
0.000000
  0
VERTEX
  8
0
  6
CONTINUOUS
 10
7.246360
 20
1.903000
  0
VERTEX
  8
0
  6
CONTINUOUS
 10
7.246360
 20
2.635600
  0
VERTEX
  8
0
  6
CONTINUOUS
 10
7.293000
 20
2.596880
  0
VERTEX
  8
0
  6
CONTINUOUS
 10
7.293000
 20
1.864720
  0
VERTEX
  8
0
  6
CONTINUOUS
 10
7.246360
 20
1.903000
  0
SEQEND
  8
0
  0
SOLID
  8
0
 62
    15
 10
7.331280
 20
1.818080
 11
7.331720
 21
2.550240
 12
7.360320
 22
1.764400
 13
7.360760
 23
2.496560
  0
POLYLINE
  8
0
  6
CONTINUOUS
 66
     1
 40
0.000000
 41
0.000000
  0
VERTEX
  8
0
  6
CONTINUOUS
 10
7.331280
 20
1.818080
  0
VERTEX
  8
0
  6
CONTINUOUS
 10
7.331720
 20
2.550240
  0
VERTEX
  8
0
  6
CONTINUOUS
 10
7.360760
 20
2.496560
  0
VERTEX
  8
0
  6
CONTINUOUS
 10
7.360320
 20
1.764400
  0
VERTEX
  8
0
  6
CONTINUOUS
 10
7.331280
 20
1.818080
  0
SEQEND
  8
0
  0
SOLID
  8
0
 62
    15
 10
7.293000
 20
1.864720
 11
7.293000
 21
2.596880
 12
7.331280
 22
1.818080
 13
7.331720
 23
2.550240
  0
POLYLINE
  8
0
  6
CONTINUOUS
 66
     1
 40
0.000000
 41
0.000000
  0
VERTEX
  8
0
  6
CONTINUOUS
 10
7.293000
 20
1.864720
  0
VERTEX
  8
0
  6
CONTINUOUS
 10
7.293000
 20
2.596880
  0
VERTEX
  8
0
  6
CONTINUOUS
 10
7.331720
 20
2.550240
  0
VERTEX
  8
0
  6
CONTINUOUS
 10
7.331280
 20
1.818080
  0
VERTEX
  8
0
  6
CONTINUOUS
 10
7.293000
 20
1.864720
  0
SEQEND
  8
0
  0
SOLID
  8
0
 62
    15
 10
7.360320
 20
1.764400
 11
7.360760
 21
2.496560
 12
7.378800
 22
1.705440
 13
7.378800
 23
2.437600
  0
POLYLINE
  8
0
  6
CONTINUOUS
 66
     1
 40
0.000000
 41
0.000000
  0
VERTEX
  8
0
  6
CONTINUOUS
 10
7.360320
 20
1.764400
  0
VERTEX
  8
0
  6
CONTINUOUS
 10
7.360760
 20
2.496560
  0
VERTEX
  8
0
  6
CONTINUOUS
 10
7.378800
 20
2.437600
  0
VERTEX
  8
0
  6
CONTINUOUS
 10
7.378800
 20
1.705440
  0
VERTEX
  8
0
  6
CONTINUOUS
 10
7.360320
 20
1.764400
  0
SEQEND
  8
0
  0
SOLID
  8
0
 62
    15
 10
7.378800
 20
1.705440
 11
7.378800
 21
2.437600
 12
7.384960
 22
1.641640
 13
7.385400
 23
2.374240
  0
POLYLINE
  8
0
  6
CONTINUOUS
 66
     1
 40
0.000000
 41
0.000000
  0
VERTEX
  8
0
  6
CONTINUOUS
 10
7.378800
 20
1.705440
  0
VERTEX
  8
0
  6
CONTINUOUS
 10
7.378800
 20
2.437600
  0
VERTEX
  8
0
  6
CONTINUOUS
 10
7.385400
 20
2.374240
  0
VERTEX
  8
0
  6
CONTINUOUS
 10
7.384960
 20
1.641640
  0
VERTEX
  8
0
  6
CONTINUOUS
 10
7.378800
 20
1.705440
  0
SEQEND
  8
0
  0
SOLID
  8
0
 62
    15
 10
7.069920
 20
1.326600
 11
7.070360
 21
2.058760
 12
7.069920
 22
1.235520
 13
7.070360
 23
1.967680
  0
POLYLINE
  8
0
  6
CONTINUOUS
 66
     1
 40
0.000000
 41
0.000000
  0
VERTEX
  8
0
  6
CONTINUOUS
 10
7.069920
 20
1.326600
  0
VERTEX
  8
0
  6
CONTINUOUS
 10
7.070360
 20
2.058760
  0
VERTEX
  8
0
  6
CONTINUOUS
 10
7.070360
 20
1.967680
  0
VERTEX
  8
0
  6
CONTINUOUS
 10
7.069920
 20
1.235520
  0
VERTEX
  8
0
  6
CONTINUOUS
 10
7.069920
 20
1.326600
  0
SEQEND
  8
0
  0
SOLID
  8
0
 62
    15
 10
1.997160
 20
1.993200
 11
1.997600
 21
2.725360
 12
3.999160
 22
1.993200
 13
3.999600
 23
2.725360
  0
POLYLINE
  8
0
  6
CONTINUOUS
 66
     1
 40
0.000000
 41
0.000000
  0
VERTEX
  8
0
  6
CONTINUOUS
 10
1.997160
 20
1.993200
  0
VERTEX
  8
0
  6
CONTINUOUS
 10
1.997600
 20
2.725360
  0
VERTEX
  8
0
  6
CONTINUOUS
 10
3.999600
 20
2.725360
  0
VERTEX
  8
0
  6
CONTINUOUS
 10
3.999160
 20
1.993200
  0
VERTEX
  8
0
  6
CONTINUOUS
 10
1.997160
 20
1.993200
  0
SEQEND
  8
0
  0
SOLID
  8
0
 62
    15
 10
3.999160
 20
1.993200
 11
3.999600
 21
2.725360
 12
3.999160
 22
1.744160
 13
3.999600
 23
2.476320
  0
POLYLINE
  8
0
  6
CONTINUOUS
 66
     1
 40
0.000000
 41
0.000000
  0
VERTEX
  8
0
  6
CONTINUOUS
 10
3.999160
 20
1.993200
  0
VERTEX
  8
0
  6
CONTINUOUS
 10
3.999600
 20
2.725360
  0
VERTEX
  8
0
  6
CONTINUOUS
 10
3.999600
 20
2.476320
  0
VERTEX
  8
0
  6
CONTINUOUS
 10
3.999160
 20
1.744160
  0
VERTEX
  8
0
  6
CONTINUOUS
 10
3.999160
 20
1.993200
  0
SEQEND
  8
0
  0
SOLID
  8
0
 62
    15
 10
3.999160
 20
1.744160
 11
3.999600
 21
2.476320
 12
5.632000
 22
1.744160
 13
5.632440
 23
2.476320
  0
POLYLINE
  8
0
  6
CONTINUOUS
 66
     1
 40
0.000000
 41
0.000000
  0
VERTEX
  8
0
  6
CONTINUOUS
 10
3.999160
 20
1.744160
  0
VERTEX
  8
0
  6
CONTINUOUS
 10
3.999600
 20
2.476320
  0
VERTEX
  8
0
  6
CONTINUOUS
 10
5.632440
 20
2.476320
  0
VERTEX
  8
0
  6
CONTINUOUS
 10
5.632000
 20
1.744160
  0
VERTEX
  8
0
  6
CONTINUOUS
 10
3.999160
 20
1.744160
  0
SEQEND
  8
0
  0
SOLID
  8
0
 62
    15
 10
6.628160
 20
1.993200
 11
6.628600
 21
2.725360
 12
6.628600
 22
1.987040
 13
6.629040
 23
2.719200
  0
POLYLINE
  8
0
  6
CONTINUOUS
 66
     1
 40
0.000000
 41
0.000000
  0
VERTEX
  8
0
  6
CONTINUOUS
 10
6.628160
 20
1.993200
  0
VERTEX
  8
0
  6
CONTINUOUS
 10
6.628600
 20
2.725360
  0
VERTEX
  8
0
  6
CONTINUOUS
 10
6.629040
 20
2.719200
  0
VERTEX
  8
0
  6
CONTINUOUS
 10
6.628600
 20
1.987040
  0
VERTEX
  8
0
  6
CONTINUOUS
 10
6.628160
 20
1.993200
  0
SEQEND
  8
0
  0
SOLID
  8
0
 62
    15
 10
5.632000
 20
1.993200
 11
5.632440
 21
2.725360
 12
6.628160
 22
1.993200
 13
6.628600
 23
2.725360
  0
POLYLINE
  8
0
  6
CONTINUOUS
 66
     1
 40
0.000000
 41
0.000000
  0
VERTEX
  8
0
  6
CONTINUOUS
 10
5.632000
 20
1.993200
  0
VERTEX
  8
0
  6
CONTINUOUS
 10
5.632440
 20
2.725360
  0
VERTEX
  8
0
  6
CONTINUOUS
 10
6.628600
 20
2.725360
  0
VERTEX
  8
0
  6
CONTINUOUS
 10
6.628160
 20
1.993200
  0
VERTEX
  8
0
  6
CONTINUOUS
 10
5.632000
 20
1.993200
  0
SEQEND
  8
0
  0
POLYLINE
  8
0
  6
CONTINUOUS
 66
     1
 40
0.000000
 41
0.000000
  0
VERTEX
  8
0
  6
CONTINUOUS
 10
6.628600
 20
1.987040
  0
VERTEX
  8
0
  6
CONTINUOUS
 10
6.628600
 20
1.628880
  0
VERTEX
  8
0
  6
CONTINUOUS
 10
6.759720
 20
1.628880
  0
VERTEX
  8
0
  6
CONTINUOUS
 10
6.765880
 20
1.692680
  0
VERTEX
  8
0
  6
CONTINUOUS
 10
6.783920
 20
1.753400
  0
VERTEX
  8
0
  6
CONTINUOUS
 10
6.812080
 20
1.809280
  0
VERTEX
  8
0
  6
CONTINUOUS
 10
6.849480
 20
1.858120
  0
VERTEX
  8
0
  6
CONTINUOUS
 10
6.895240
 20
1.899040
  0
VERTEX
  8
0
  6
CONTINUOUS
 10
6.948040
 20
1.930280
  0
VERTEX
  8
0
  6
CONTINUOUS
 10
7.006560
 20
1.950080
  0
VERTEX
  8
0
  6
CONTINUOUS
 10
7.037800
 20
1.955360
  0
VERTEX
  8
0
  6
CONTINUOUS
 10
7.069920
 20
1.957120
  0
VERTEX
  8
0
  6
CONTINUOUS
 10
7.133280
 20
1.950520
  0
VERTEX
  8
0
  6
CONTINUOUS
 10
7.192680
 20
1.932040
  0
VERTEX
  8
0
  6
CONTINUOUS
 10
7.246360
 20
1.903000
  0
VERTEX
  8
0
  6
CONTINUOUS
 10
7.293000
 20
1.864720
  0
VERTEX
  8
0
  6
CONTINUOUS
 10
7.331280
 20
1.818080
  0
VERTEX
  8
0
  6
CONTINUOUS
 10
7.360320
 20
1.764400
  0
VERTEX
  8
0
  6
CONTINUOUS
 10
7.378800
 20
1.705440
  0
VERTEX
  8
0
  6
CONTINUOUS
 10
7.384960
 20
1.641640
  0
VERTEX
  8
0
  6
CONTINUOUS
 10
7.378800
 20
1.578280
  0
VERTEX
  8
0
  6
CONTINUOUS
 10
7.360320
 20
1.519320
  0
VERTEX
  8
0
  6
CONTINUOUS
 10
7.331280
 20
1.465640
  0
VERTEX
  8
0
  6
CONTINUOUS
 10
7.293000
 20
1.419000
  0
VERTEX
  8
0
  6
CONTINUOUS
 10
7.246360
 20
1.380720
  0
VERTEX
  8
0
  6
CONTINUOUS
 10
7.192680
 20
1.351680
  0
VERTEX
  8
0
  6
CONTINUOUS
 10
7.133280
 20
1.333200
  0
VERTEX
  8
0
  6
CONTINUOUS
 10
7.069920
 20
1.326600
  0
VERTEX
  8
0
  6
CONTINUOUS
 10
7.069920
 20
1.235520
  0
VERTEX
  8
0
  6
CONTINUOUS
 10
1.997160
 20
1.235520
  0
VERTEX
  8
0
  6
CONTINUOUS
 10
1.997160
 20
1.993200
  0
VERTEX
  8
0
  6
CONTINUOUS
 10
3.999160
 20
1.993200
  0
VERTEX
  8
0
  6
CONTINUOUS
 10
3.999160
 20
1.744160
  0
VERTEX
  8
0
  6
CONTINUOUS
 10
5.632000
 20
1.744160
  0
VERTEX
  8
0
  6
CONTINUOUS
 10
5.632000
 20
1.993200
  0
VERTEX
  8
0
  6
CONTINUOUS
 10
6.628160
 20
1.993200
  0
VERTEX
  8
0
  6
CONTINUOUS
 10
6.628600
 20
1.987040
  0
SEQEND
  8
0
  0
TEXT
  8
0
 10
3.732520
 20
0.982080
 40
0.138093
  1
BA  999 3/4" x 5-5/16"
 41
1.000000
  7
SN0
 71
     0
 72
     5
 11
5.361605
 21
0.982080
  0
TEXT
  8
0
 10
3.732520
 20
0.790240
 40
0.138093
  1
BA  494
 41
1.000000
  7
SN0
 71
     0
 72
     5
 11
4.322901
 21
0.790240
  0
ENDSEC
  0
EOF
