  0
SECTION
  2
HEADER
  9
$ACADVER
  1
AC1006
  9
$EXTMIN
 10
4.785440
 20
0.622600
  9
$EXTMAX
 10
8.046720
 20
3.255120
  9
$LTSCALE
 40
0.044000
  9
$PDMODE
 70
    35
  9
$PDSIZE
 40
0.035200
  0
ENDSEC
  0
SECTION
  2
TABLES
  0
TABLE
  2
LTYPE
 70
     9
  0
LTYPE
  2
CONTINUOUS
 70
    64
  3
Solid line
 72
    65
 73
     0
 40
0.000000
  0
LTYPE
  2
DASHED
 70
    64
  3
__ __ __ __ __ __ __ __ __ __ __ __ __ __ __
 72
    65
 73
     2
 40
0.000330
 49
0.000220
 49
-0.000110
  0
LTYPE
  2
HIDDEN
 70
    64
  3
 _ _ _ _ _ _ _ _ _ _ _ _ _ _ _ _ _ _ _ _ _ _
 72
    65
 73
     2
 40
0.000165
 49
0.000110
 49
-0.000055
  0
LTYPE
  2
CENTER
 70
    64
  3
____ _ ____ _ ____ _ ____ _ ____ _ ____ _ ____
 72
    65
 73
     4
 40
0.000880
 49
0.000550
 49
-0.000110
 49
0.000110
 49
-0.000110
  0
LTYPE
  2
PHANTOM
 70
    64
  3
_____ _ _ _____ _ _ _____ _ _ _____ _ _ ____
 72
    65
 73
     6
 40
0.001100
 49
0.000550
 49
-0.000110
 49
0.000110
 49
-0.000110
 49
0.000110
 49
-0.000110
  0
LTYPE
  2
DOT
 70
    64
  3
...............................................
 72
    65
 73
     2
 40
0.000110
 49
0.000000
 49
-0.000110
  0
LTYPE
  2
DASHDOT
 70
    64
  3
__ . __ . __ . __ . __ . __ . __ . __ . __ . __
 72
    65
 73
     4
 40
0.000440
 49
0.000220
 49
-0.000110
 49
0.000000
 49
-0.000110
  0
LTYPE
  2
BORDER
 70
    64
  3
__ __ . __ __ . __ __ . __ __ . __ __ . __ __
 72
    65
 73
     6
 40
0.000770
 49
0.000220
 49
-0.000110
 49
0.000220
 49
-0.000110
 49
0.000000
 49
-0.000110
  0
LTYPE
  2
DIVIDE
 70
    64
  3
__ . . __ . . __ . . __ . . __ . . __ . . __
 72
    65
 73
     6
 40
0.000550
 49
0.000220
 49
-0.000110
 49
0.000000
 49
-0.000110
 49
0.000000
 49
-0.000110
  0
LTYPE
  2
DOTDOT
 70
    64
  3
 . .  . .  . .  . .  . .  . . 
 72
    65
 73
     5
 40
0.000242
 49
-0.000110
 49
0.000000
 49
-0.000110
 49
0.000000
 49
-0.000110
  0
ENDTAB
  0
TABLE
  2
STYLE
 70
     2
  0
STYLE
 70
     0
  2
SN0
 40
0.000000
 41
0.000440
 50
0.000000
 71
     0
 42
0.000000
  3
ROMAND
  0
STYLE
 70
    68
  2
SV0
 40
0.000000
 41
0.000440
 50
0.000000
 71
     0
 42
0.000000
  3
ROMAND
  0
ENDTAB
  0
TABLE
  2
LAYER
 70
     3
  0
LAYER
  2
FOREGROUND
 70
    64
 62
     7
  6
CONTINUOUS
  0
LAYER
  2
BACKGROUND
 70
    65
 62
    -7
  6
CONTINUOUS
  0
LAYER
  2
0
 70
    64
 62
     7
  6
CONTINUOUS
  0
ENDTAB
  0
ENDSEC
  0
SECTION
  2
ENTITIES
  0
POLYLINE
  8
FOREGROUND
  6
CONTINUOUS
 66
     1
 40
0.000000
 41
0.000000
  0
VERTEX
  8
FOREGROUND
  6
CONTINUOUS
 10
0.000000
 20
3.877720
  0
VERTEX
  8
FOREGROUND
  6
CONTINUOUS
 10
8.499920
 20
3.877720
  0
VERTEX
  8
FOREGROUND
  6
CONTINUOUS
 10
8.499920
 20
-7.122280
  0
VERTEX
  8
FOREGROUND
  6
CONTINUOUS
 10
0.000000
 20
-7.122280
  0
VERTEX
  8
FOREGROUND
  6
CONTINUOUS
 10
0.000000
 20
3.877720
  0
SEQEND
  8
0
  0
POLYLINE
  8
FOREGROUND
  6
CONTINUOUS
 66
     1
 40
0.000000
 41
0.000000
  0
VERTEX
  8
FOREGROUND
  6
CONTINUOUS
 10
0.000000
 20
3.877720
  0
VERTEX
  8
FOREGROUND
  6
CONTINUOUS
 10
8.499920
 20
3.877720
  0
VERTEX
  8
FOREGROUND
  6
CONTINUOUS
 10
8.499920
 20
-7.122280
  0
VERTEX
  8
FOREGROUND
  6
CONTINUOUS
 10
0.000000
 20
-7.122280
  0
VERTEX
  8
FOREGROUND
  6
CONTINUOUS
 10
0.000000
 20
3.877720
  0
SEQEND
  8
0
  0
SOLID
  8
0
 62
    15
 10
7.379240
 20
1.624040
 11
8.021640
 21
2.000240
 12
7.397720
 22
1.565080
 13
8.040120
 23
1.940840
  0
POLYLINE
  8
0
  6
CONTINUOUS
 66
     1
 40
0.000000
 41
0.000000
  0
VERTEX
  8
0
  6
CONTINUOUS
 10
7.379240
 20
1.624040
  0
VERTEX
  8
0
  6
CONTINUOUS
 10
8.021640
 20
2.000240
  0
VERTEX
  8
0
  6
CONTINUOUS
 10
8.040120
 20
1.940840
  0
VERTEX
  8
0
  6
CONTINUOUS
 10
7.397720
 20
1.565080
  0
VERTEX
  8
0
  6
CONTINUOUS
 10
7.379240
 20
1.624040
  0
SEQEND
  8
0
  0
SOLID
  8
0
 62
    15
 10
6.647520
 20
1.846680
 11
7.289920
 21
2.222440
 12
6.647520
 22
1.488520
 13
7.289920
 23
1.864280
  0
POLYLINE
  8
0
  6
CONTINUOUS
 66
     1
 40
0.000000
 41
0.000000
  0
VERTEX
  8
0
  6
CONTINUOUS
 10
6.647520
 20
1.846680
  0
VERTEX
  8
0
  6
CONTINUOUS
 10
7.289920
 20
2.222440
  0
VERTEX
  8
0
  6
CONTINUOUS
 10
7.289920
 20
1.864280
  0
VERTEX
  8
0
  6
CONTINUOUS
 10
6.647520
 20
1.488520
  0
VERTEX
  8
0
  6
CONTINUOUS
 10
6.647520
 20
1.846680
  0
SEQEND
  8
0
  0
SOLID
  8
0
 62
    15
 10
7.025920
 20
1.809720
 11
7.667880
 21
2.185480
 12
7.056720
 22
1.815000
 13
7.699120
 23
2.190760
  0
POLYLINE
  8
0
  6
CONTINUOUS
 66
     1
 40
0.000000
 41
0.000000
  0
VERTEX
  8
0
  6
CONTINUOUS
 10
7.025920
 20
1.809720
  0
VERTEX
  8
0
  6
CONTINUOUS
 10
7.667880
 20
2.185480
  0
VERTEX
  8
0
  6
CONTINUOUS
 10
7.699120
 20
2.190760
  0
VERTEX
  8
0
  6
CONTINUOUS
 10
7.056720
 20
1.815000
  0
VERTEX
  8
0
  6
CONTINUOUS
 10
7.025920
 20
1.809720
  0
SEQEND
  8
0
  0
SOLID
  8
0
 62
    15
 10
7.056720
 20
1.815000
 11
7.699120
 21
2.190760
 12
7.088840
 22
1.816760
 13
7.731240
 23
2.192520
  0
POLYLINE
  8
0
  6
CONTINUOUS
 66
     1
 40
0.000000
 41
0.000000
  0
VERTEX
  8
0
  6
CONTINUOUS
 10
7.056720
 20
1.815000
  0
VERTEX
  8
0
  6
CONTINUOUS
 10
7.699120
 20
2.190760
  0
VERTEX
  8
0
  6
CONTINUOUS
 10
7.731240
 20
2.192520
  0
VERTEX
  8
0
  6
CONTINUOUS
 10
7.088840
 20
1.816760
  0
VERTEX
  8
0
  6
CONTINUOUS
 10
7.056720
 20
1.815000
  0
SEQEND
  8
0
  0
SOLID
  8
0
 62
    15
 10
7.088840
 20
1.816760
 11
7.731240
 21
2.192520
 12
7.152640
 22
1.810160
 13
7.795040
 23
2.185920
  0
POLYLINE
  8
0
  6
CONTINUOUS
 66
     1
 40
0.000000
 41
0.000000
  0
VERTEX
  8
0
  6
CONTINUOUS
 10
7.088840
 20
1.816760
  0
VERTEX
  8
0
  6
CONTINUOUS
 10
7.731240
 20
2.192520
  0
VERTEX
  8
0
  6
CONTINUOUS
 10
7.795040
 20
2.185920
  0
VERTEX
  8
0
  6
CONTINUOUS
 10
7.152640
 20
1.810160
  0
VERTEX
  8
0
  6
CONTINUOUS
 10
7.088840
 20
1.816760
  0
SEQEND
  8
0
  0
SOLID
  8
0
 62
    15
 10
6.647520
 20
1.488520
 11
7.289920
 21
1.864280
 12
6.778640
 22
1.488520
 13
7.421040
 23
1.864280
  0
POLYLINE
  8
0
  6
CONTINUOUS
 66
     1
 40
0.000000
 41
0.000000
  0
VERTEX
  8
0
  6
CONTINUOUS
 10
6.647520
 20
1.488520
  0
VERTEX
  8
0
  6
CONTINUOUS
 10
7.289920
 20
1.864280
  0
VERTEX
  8
0
  6
CONTINUOUS
 10
7.421040
 20
1.864280
  0
VERTEX
  8
0
  6
CONTINUOUS
 10
6.778640
 20
1.488520
  0
VERTEX
  8
0
  6
CONTINUOUS
 10
6.647520
 20
1.488520
  0
SEQEND
  8
0
  0
SOLID
  8
0
 62
    15
 10
7.211600
 20
1.791680
 11
7.854000
 21
2.167880
 12
7.265280
 22
1.763080
 13
7.907680
 23
2.138840
  0
POLYLINE
  8
0
  6
CONTINUOUS
 66
     1
 40
0.000000
 41
0.000000
  0
VERTEX
  8
0
  6
CONTINUOUS
 10
7.211600
 20
1.791680
  0
VERTEX
  8
0
  6
CONTINUOUS
 10
7.854000
 20
2.167880
  0
VERTEX
  8
0
  6
CONTINUOUS
 10
7.907680
 20
2.138840
  0
VERTEX
  8
0
  6
CONTINUOUS
 10
7.265280
 20
1.763080
  0
VERTEX
  8
0
  6
CONTINUOUS
 10
7.211600
 20
1.791680
  0
SEQEND
  8
0
  0
SOLID
  8
0
 62
    15
 10
7.265280
 20
1.763080
 11
7.907680
 21
2.138840
 12
7.311920
 22
1.724360
 13
7.954320
 23
2.100120
  0
POLYLINE
  8
0
  6
CONTINUOUS
 66
     1
 40
0.000000
 41
0.000000
  0
VERTEX
  8
0
  6
CONTINUOUS
 10
7.265280
 20
1.763080
  0
VERTEX
  8
0
  6
CONTINUOUS
 10
7.907680
 20
2.138840
  0
VERTEX
  8
0
  6
CONTINUOUS
 10
7.954320
 20
2.100120
  0
VERTEX
  8
0
  6
CONTINUOUS
 10
7.311920
 20
1.724360
  0
VERTEX
  8
0
  6
CONTINUOUS
 10
7.265280
 20
1.763080
  0
SEQEND
  8
0
  0
SOLID
  8
0
 62
    15
 10
7.311920
 20
1.724360
 11
7.954320
 21
2.100120
 12
7.350200
 22
1.677720
 13
7.992600
 23
2.053480
  0
POLYLINE
  8
0
  6
CONTINUOUS
 66
     1
 40
0.000000
 41
0.000000
  0
VERTEX
  8
0
  6
CONTINUOUS
 10
7.311920
 20
1.724360
  0
VERTEX
  8
0
  6
CONTINUOUS
 10
7.954320
 20
2.100120
  0
VERTEX
  8
0
  6
CONTINUOUS
 10
7.992600
 20
2.053480
  0
VERTEX
  8
0
  6
CONTINUOUS
 10
7.350200
 20
1.677720
  0
VERTEX
  8
0
  6
CONTINUOUS
 10
7.311920
 20
1.724360
  0
SEQEND
  8
0
  0
SOLID
  8
0
 62
    15
 10
7.350200
 20
1.677720
 11
7.992600
 21
2.053480
 12
7.379240
 22
1.624040
 13
8.021640
 23
2.000240
  0
POLYLINE
  8
0
  6
CONTINUOUS
 66
     1
 40
0.000000
 41
0.000000
  0
VERTEX
  8
0
  6
CONTINUOUS
 10
7.350200
 20
1.677720
  0
VERTEX
  8
0
  6
CONTINUOUS
 10
7.992600
 20
2.053480
  0
VERTEX
  8
0
  6
CONTINUOUS
 10
8.021640
 20
2.000240
  0
VERTEX
  8
0
  6
CONTINUOUS
 10
7.379240
 20
1.624040
  0
VERTEX
  8
0
  6
CONTINUOUS
 10
7.350200
 20
1.677720
  0
SEQEND
  8
0
  0
SOLID
  8
0
 62
    15
 10
7.152640
 20
1.810160
 11
7.795040
 21
2.185920
 12
7.211600
 22
1.791680
 13
7.854000
 23
2.167880
  0
POLYLINE
  8
0
  6
CONTINUOUS
 66
     1
 40
0.000000
 41
0.000000
  0
VERTEX
  8
0
  6
CONTINUOUS
 10
7.152640
 20
1.810160
  0
VERTEX
  8
0
  6
CONTINUOUS
 10
7.795040
 20
2.185920
  0
VERTEX
  8
0
  6
CONTINUOUS
 10
7.854000
 20
2.167880
  0
VERTEX
  8
0
  6
CONTINUOUS
 10
7.211600
 20
1.791680
  0
VERTEX
  8
0
  6
CONTINUOUS
 10
7.152640
 20
1.810160
  0
SEQEND
  8
0
  0
SOLID
  8
0
 62
    15
 10
7.397720
 20
1.565080
 11
8.040120
 21
1.940840
 12
7.404320
 22
1.501720
 13
8.046280
 23
1.877480
  0
POLYLINE
  8
0
  6
CONTINUOUS
 66
     1
 40
0.000000
 41
0.000000
  0
VERTEX
  8
0
  6
CONTINUOUS
 10
7.397720
 20
1.565080
  0
VERTEX
  8
0
  6
CONTINUOUS
 10
8.040120
 20
1.940840
  0
VERTEX
  8
0
  6
CONTINUOUS
 10
8.046280
 20
1.877480
  0
VERTEX
  8
0
  6
CONTINUOUS
 10
7.404320
 20
1.501720
  0
VERTEX
  8
0
  6
CONTINUOUS
 10
7.397720
 20
1.565080
  0
SEQEND
  8
0
  0
SOLID
  8
0
 62
    15
 10
7.404320
 20
1.501720
 11
8.046280
 21
1.877480
 12
7.397720
 22
1.437920
 13
8.040120
 23
1.814120
  0
POLYLINE
  8
0
  6
CONTINUOUS
 66
     1
 40
0.000000
 41
0.000000
  0
VERTEX
  8
0
  6
CONTINUOUS
 10
7.404320
 20
1.501720
  0
VERTEX
  8
0
  6
CONTINUOUS
 10
8.046280
 20
1.877480
  0
VERTEX
  8
0
  6
CONTINUOUS
 10
8.040120
 20
1.814120
  0
VERTEX
  8
0
  6
CONTINUOUS
 10
7.397720
 20
1.437920
  0
VERTEX
  8
0
  6
CONTINUOUS
 10
7.404320
 20
1.501720
  0
SEQEND
  8
0
  0
SOLID
  8
0
 62
    15
 10
7.397720
 20
1.437920
 11
8.040120
 21
1.814120
 12
7.379240
 22
1.378960
 13
8.021640
 23
1.754720
  0
POLYLINE
  8
0
  6
CONTINUOUS
 66
     1
 40
0.000000
 41
0.000000
  0
VERTEX
  8
0
  6
CONTINUOUS
 10
7.397720
 20
1.437920
  0
VERTEX
  8
0
  6
CONTINUOUS
 10
8.040120
 20
1.814120
  0
VERTEX
  8
0
  6
CONTINUOUS
 10
8.021640
 20
1.754720
  0
VERTEX
  8
0
  6
CONTINUOUS
 10
7.379240
 20
1.378960
  0
VERTEX
  8
0
  6
CONTINUOUS
 10
7.397720
 20
1.437920
  0
SEQEND
  8
0
  0
SOLID
  8
0
 62
    15
 10
7.088840
 20
1.186240
 11
7.731240
 21
1.562440
 12
7.088840
 22
1.095160
 13
7.731240
 23
1.470920
  0
POLYLINE
  8
0
  6
CONTINUOUS
 66
     1
 40
0.000000
 41
0.000000
  0
VERTEX
  8
0
  6
CONTINUOUS
 10
7.088840
 20
1.186240
  0
VERTEX
  8
0
  6
CONTINUOUS
 10
7.731240
 20
1.562440
  0
VERTEX
  8
0
  6
CONTINUOUS
 10
7.731240
 20
1.470920
  0
VERTEX
  8
0
  6
CONTINUOUS
 10
7.088840
 20
1.095160
  0
VERTEX
  8
0
  6
CONTINUOUS
 10
7.088840
 20
1.186240
  0
SEQEND
  8
0
  0
SOLID
  8
0
 62
    15
 10
7.350200
 20
1.325280
 11
7.992600
 21
1.701040
 12
7.311920
 22
1.278640
 13
7.954320
 23
1.654400
  0
POLYLINE
  8
0
  6
CONTINUOUS
 66
     1
 40
0.000000
 41
0.000000
  0
VERTEX
  8
0
  6
CONTINUOUS
 10
7.350200
 20
1.325280
  0
VERTEX
  8
0
  6
CONTINUOUS
 10
7.992600
 20
1.701040
  0
VERTEX
  8
0
  6
CONTINUOUS
 10
7.954320
 20
1.654400
  0
VERTEX
  8
0
  6
CONTINUOUS
 10
7.311920
 20
1.278640
  0
VERTEX
  8
0
  6
CONTINUOUS
 10
7.350200
 20
1.325280
  0
SEQEND
  8
0
  0
SOLID
  8
0
 62
    15
 10
7.311920
 20
1.278640
 11
7.954320
 21
1.654400
 12
7.265280
 22
1.240360
 13
7.907680
 23
1.616120
  0
POLYLINE
  8
0
  6
CONTINUOUS
 66
     1
 40
0.000000
 41
0.000000
  0
VERTEX
  8
0
  6
CONTINUOUS
 10
7.311920
 20
1.278640
  0
VERTEX
  8
0
  6
CONTINUOUS
 10
7.954320
 20
1.654400
  0
VERTEX
  8
0
  6
CONTINUOUS
 10
7.907680
 20
1.616120
  0
VERTEX
  8
0
  6
CONTINUOUS
 10
7.265280
 20
1.240360
  0
VERTEX
  8
0
  6
CONTINUOUS
 10
7.311920
 20
1.278640
  0
SEQEND
  8
0
  0
SOLID
  8
0
 62
    15
 10
7.379240
 20
1.378960
 11
8.021640
 21
1.754720
 12
7.350200
 22
1.325280
 13
7.992600
 23
1.701040
  0
POLYLINE
  8
0
  6
CONTINUOUS
 66
     1
 40
0.000000
 41
0.000000
  0
VERTEX
  8
0
  6
CONTINUOUS
 10
7.379240
 20
1.378960
  0
VERTEX
  8
0
  6
CONTINUOUS
 10
8.021640
 20
1.754720
  0
VERTEX
  8
0
  6
CONTINUOUS
 10
7.992600
 20
1.701040
  0
VERTEX
  8
0
  6
CONTINUOUS
 10
7.350200
 20
1.325280
  0
VERTEX
  8
0
  6
CONTINUOUS
 10
7.379240
 20
1.378960
  0
SEQEND
  8
0
  0
SOLID
  8
0
 62
    15
 10
4.786320
 20
1.846680
 11
5.428720
 21
2.222440
 12
6.647520
 22
1.846680
 13
7.289920
 23
2.222440
  0
POLYLINE
  8
0
  6
CONTINUOUS
 66
     1
 40
0.000000
 41
0.000000
  0
VERTEX
  8
0
  6
CONTINUOUS
 10
4.786320
 20
1.846680
  0
VERTEX
  8
0
  6
CONTINUOUS
 10
5.428720
 20
2.222440
  0
VERTEX
  8
0
  6
CONTINUOUS
 10
7.289920
 20
2.222440
  0
VERTEX
  8
0
  6
CONTINUOUS
 10
6.647520
 20
1.846680
  0
VERTEX
  8
0
  6
CONTINUOUS
 10
4.786320
 20
1.846680
  0
SEQEND
  8
0
  0
SOLID
  8
0
 62
    15
 10
6.966960
 20
1.789920
 11
7.609360
 21
2.165680
 12
7.025920
 22
1.809720
 13
7.667880
 23
2.185480
  0
POLYLINE
  8
0
  6
CONTINUOUS
 66
     1
 40
0.000000
 41
0.000000
  0
VERTEX
  8
0
  6
CONTINUOUS
 10
6.966960
 20
1.789920
  0
VERTEX
  8
0
  6
CONTINUOUS
 10
7.609360
 20
2.165680
  0
VERTEX
  8
0
  6
CONTINUOUS
 10
7.667880
 20
2.185480
  0
VERTEX
  8
0
  6
CONTINUOUS
 10
7.025920
 20
1.809720
  0
VERTEX
  8
0
  6
CONTINUOUS
 10
6.966960
 20
1.789920
  0
SEQEND
  8
0
  0
POLYLINE
  8
0
  6
CONTINUOUS
 66
     1
 40
0.000000
 41
0.000000
  0
VERTEX
  8
0
  6
CONTINUOUS
 10
6.647520
 20
1.488520
  0
VERTEX
  8
0
  6
CONTINUOUS
 10
6.778640
 20
1.488520
  0
VERTEX
  8
0
  6
CONTINUOUS
 10
6.784800
 20
1.552320
  0
VERTEX
  8
0
  6
CONTINUOUS
 10
6.802840
 20
1.613040
  0
VERTEX
  8
0
  6
CONTINUOUS
 10
6.831000
 20
1.668920
  0
VERTEX
  8
0
  6
CONTINUOUS
 10
6.868840
 20
1.717760
  0
VERTEX
  8
0
  6
CONTINUOUS
 10
6.914160
 20
1.758680
  0
VERTEX
  8
0
  6
CONTINUOUS
 10
6.966960
 20
1.789920
  0
VERTEX
  8
0
  6
CONTINUOUS
 10
7.025920
 20
1.809720
  0
VERTEX
  8
0
  6
CONTINUOUS
 10
7.056720
 20
1.815000
  0
VERTEX
  8
0
  6
CONTINUOUS
 10
7.088840
 20
1.816760
  0
VERTEX
  8
0
  6
CONTINUOUS
 10
7.152640
 20
1.810160
  0
VERTEX
  8
0
  6
CONTINUOUS
 10
7.211600
 20
1.791680
  0
VERTEX
  8
0
  6
CONTINUOUS
 10
7.265280
 20
1.763080
  0
VERTEX
  8
0
  6
CONTINUOUS
 10
7.311920
 20
1.724360
  0
VERTEX
  8
0
  6
CONTINUOUS
 10
7.350200
 20
1.677720
  0
VERTEX
  8
0
  6
CONTINUOUS
 10
7.379240
 20
1.624040
  0
VERTEX
  8
0
  6
CONTINUOUS
 10
7.397720
 20
1.565080
  0
VERTEX
  8
0
  6
CONTINUOUS
 10
7.404320
 20
1.501720
  0
VERTEX
  8
0
  6
CONTINUOUS
 10
7.397720
 20
1.437920
  0
VERTEX
  8
0
  6
CONTINUOUS
 10
7.379240
 20
1.378960
  0
VERTEX
  8
0
  6
CONTINUOUS
 10
7.350200
 20
1.325280
  0
VERTEX
  8
0
  6
CONTINUOUS
 10
7.311920
 20
1.278640
  0
VERTEX
  8
0
  6
CONTINUOUS
 10
7.265280
 20
1.240360
  0
VERTEX
  8
0
  6
CONTINUOUS
 10
7.211600
 20
1.211320
  0
VERTEX
  8
0
  6
CONTINUOUS
 10
7.152640
 20
1.192840
  0
VERTEX
  8
0
  6
CONTINUOUS
 10
7.088840
 20
1.186240
  0
VERTEX
  8
0
  6
CONTINUOUS
 10
7.088840
 20
1.095160
  0
VERTEX
  8
0
  6
CONTINUOUS
 10
4.786320
 20
1.095160
  0
VERTEX
  8
0
  6
CONTINUOUS
 10
4.786320
 20
1.846680
  0
VERTEX
  8
0
  6
CONTINUOUS
 10
6.647520
 20
1.846680
  0
VERTEX
  8
0
  6
CONTINUOUS
 10
6.647520
 20
1.488520
  0
SEQEND
  8
0
  0
TEXT
  8
0
 10
5.510120
 20
0.858440
 40
0.138120
  1
BA  998 3/4" x 2-5/8"
 41
1.000000
  7
SN0
 71
     0
 72
     5
 11
7.047650
 21
0.858440
  0
TEXT
  8
0
 10
5.510120
 20
0.667040
 40
0.138120
  1
BA  494
 41
1.000000
  7
SN0
 71
     0
 72
     5
 11
6.100738
 21
0.667040
  0
POLYLINE
  8
0
  6
CONTINUOUS
 66
     1
 40
0.014080
 41
0.014080
  0
VERTEX
  8
0
  6
CONTINUOUS
 10
6.900520
 20
3.247640
  0
VERTEX
  8
0
  6
CONTINUOUS
 10
5.038880
 20
3.247640
  0
VERTEX
  8
0
  6
CONTINUOUS
 10
5.038880
 20
2.496120
  0
VERTEX
  8
0
  6
CONTINUOUS
 10
7.341840
 20
2.496120
  0
VERTEX
  8
0
  6
CONTINUOUS
 10
7.341840
 20
2.587200
  0
VERTEX
  8
0
  6
CONTINUOUS
 10
7.373960
 20
2.588960
  0
VERTEX
  8
0
  6
CONTINUOUS
 10
7.405200
 20
2.593800
  0
VERTEX
  8
0
  6
CONTINUOUS
 10
7.435560
 20
2.601280
  0
VERTEX
  8
0
  6
CONTINUOUS
 10
7.464600
 20
2.611840
  0
VERTEX
  8
0
  6
CONTINUOUS
 10
7.505080
 20
2.632960
  0
VERTEX
  8
0
  6
CONTINUOUS
 10
7.530160
 20
2.649680
  0
VERTEX
  8
0
  6
CONTINUOUS
 10
7.564480
 20
2.679600
  0
VERTEX
  8
0
  6
CONTINUOUS
 10
7.594400
 20
2.713920
  0
VERTEX
  8
0
  6
CONTINUOUS
 10
7.618600
 20
2.752200
  0
VERTEX
  8
0
  6
CONTINUOUS
 10
7.632240
 20
2.779480
  0
VERTEX
  8
0
  6
CONTINUOUS
 10
7.642800
 20
2.808520
  0
VERTEX
  8
0
  6
CONTINUOUS
 10
7.653360
 20
2.854280
  0
VERTEX
  8
0
  6
CONTINUOUS
 10
7.656440
 20
2.885960
  0
VERTEX
  8
0
  6
CONTINUOUS
 10
7.656440
 20
2.918520
  0
VERTEX
  8
0
  6
CONTINUOUS
 10
7.653360
 20
2.950200
  0
VERTEX
  8
0
  6
CONTINUOUS
 10
7.642800
 20
2.995960
  0
VERTEX
  8
0
  6
CONTINUOUS
 10
7.632240
 20
3.025000
  0
VERTEX
  8
0
  6
CONTINUOUS
 10
7.611120
 20
3.065920
  0
VERTEX
  8
0
  6
CONTINUOUS
 10
7.594400
 20
3.091000
  0
VERTEX
  8
0
  6
CONTINUOUS
 10
7.564480
 20
3.124880
  0
VERTEX
  8
0
  6
CONTINUOUS
 10
7.530160
 20
3.154800
  0
VERTEX
  8
0
  6
CONTINUOUS
 10
7.491880
 20
3.179440
  0
VERTEX
  8
0
  6
CONTINUOUS
 10
7.450080
 20
3.198360
  0
VERTEX
  8
0
  6
CONTINUOUS
 10
7.420600
 20
3.207160
  0
VERTEX
  8
0
  6
CONTINUOUS
 10
7.389800
 20
3.213760
  0
VERTEX
  8
0
  6
CONTINUOUS
 10
7.358120
 20
3.216840
  0
VERTEX
  8
0
  6
CONTINUOUS
 10
7.325560
 20
3.216840
  0
VERTEX
  8
0
  6
CONTINUOUS
 10
7.293880
 20
3.213320
  0
VERTEX
  8
0
  6
CONTINUOUS
 10
7.263520
 20
3.206720
  0
VERTEX
  8
0
  6
CONTINUOUS
 10
7.219960
 20
3.190440
  0
VERTEX
  8
0
  6
CONTINUOUS
 10
7.192680
 20
3.176360
  0
VERTEX
  8
0
  6
CONTINUOUS
 10
7.154840
 20
3.149960
  0
VERTEX
  8
0
  6
CONTINUOUS
 10
7.131960
 20
3.129720
  0
VERTEX
  8
0
  6
CONTINUOUS
 10
7.101600
 20
3.094960
  0
VERTEX
  8
0
  6
CONTINUOUS
 10
7.076080
 20
3.056240
  0
VERTEX
  8
0
  6
CONTINUOUS
 10
7.055400
 20
3.014000
  0
VERTEX
  8
0
  6
CONTINUOUS
 10
7.041320
 20
2.968680
  0
VERTEX
  8
0
  6
CONTINUOUS
 10
7.035160
 20
2.937440
  0
VERTEX
  8
0
  6
CONTINUOUS
 10
7.032080
 20
2.905320
  0
VERTEX
  8
0
  6
CONTINUOUS
 10
7.031640
 20
2.889040
  0
VERTEX
  8
0
  6
CONTINUOUS
 10
6.900520
 20
2.889040
  0
VERTEX
  8
0
  6
CONTINUOUS
 10
6.900520
 20
3.247640
  0
SEQEND
  8
0
  0
TEXT
  8
0
 10
5.282200
 20
2.870120
 40
0.138120
  1
BA  998 & 494
 41
1.000000
  7
SN0
 71
     0
 72
     5
 11
6.352389
 21
2.870120
  0
TEXT
  8
0
 10
5.366680
 20
2.678720
 40
0.138120
  1
3/4" x 2-5/8"
 41
1.000000
  7
SN0
 71
     0
 72
     5
 11
6.267935
 21
2.678720
  0
ENDSEC
  0
EOF
