  0
SECTION
  2
HEADER
  9
$ACADVER
  1
AC1006
  9
$EXTMIN
 10
4.444880
 20
1.215280
  9
$EXTMAX
 10
7.960480
 20
4.207720
  9
$LTSCALE
 40
0.044000
  9
$PDMODE
 70
    35
  9
$PDSIZE
 40
0.035200
  0
ENDSEC
  0
SECTION
  2
TABLES
  0
TABLE
  2
LTYPE
 70
     9
  0
LTYPE
  2
CONTINUOUS
 70
    64
  3
Solid line
 72
    65
 73
     0
 40
0.000000
  0
LTYPE
  2
DASHED
 70
    64
  3
__ __ __ __ __ __ __ __ __ __ __ __ __ __ __
 72
    65
 73
     2
 40
0.000330
 49
0.000220
 49
-0.000110
  0
LTYPE
  2
HIDDEN
 70
    64
  3
 _ _ _ _ _ _ _ _ _ _ _ _ _ _ _ _ _ _ _ _ _ _
 72
    65
 73
     2
 40
0.000165
 49
0.000110
 49
-0.000055
  0
LTYPE
  2
CENTER
 70
    64
  3
____ _ ____ _ ____ _ ____ _ ____ _ ____ _ ____
 72
    65
 73
     4
 40
0.000880
 49
0.000550
 49
-0.000110
 49
0.000110
 49
-0.000110
  0
LTYPE
  2
PHANTOM
 70
    64
  3
_____ _ _ _____ _ _ _____ _ _ _____ _ _ ____
 72
    65
 73
     6
 40
0.001100
 49
0.000550
 49
-0.000110
 49
0.000110
 49
-0.000110
 49
0.000110
 49
-0.000110
  0
LTYPE
  2
DOT
 70
    64
  3
...............................................
 72
    65
 73
     2
 40
0.000110
 49
0.000000
 49
-0.000110
  0
LTYPE
  2
DASHDOT
 70
    64
  3
__ . __ . __ . __ . __ . __ . __ . __ . __ . __
 72
    65
 73
     4
 40
0.000440
 49
0.000220
 49
-0.000110
 49
0.000000
 49
-0.000110
  0
LTYPE
  2
BORDER
 70
    64
  3
__ __ . __ __ . __ __ . __ __ . __ __ . __ __
 72
    65
 73
     6
 40
0.000770
 49
0.000220
 49
-0.000110
 49
0.000220
 49
-0.000110
 49
0.000000
 49
-0.000110
  0
LTYPE
  2
DIVIDE
 70
    64
  3
__ . . __ . . __ . . __ . . __ . . __ . . __
 72
    65
 73
     6
 40
0.000550
 49
0.000220
 49
-0.000110
 49
0.000000
 49
-0.000110
 49
0.000000
 49
-0.000110
  0
LTYPE
  2
DOTDOT
 70
    64
  3
 . .  . .  . .  . .  . .  . . 
 72
    65
 73
     5
 40
0.000242
 49
-0.000110
 49
0.000000
 49
-0.000110
 49
0.000000
 49
-0.000110
  0
ENDTAB
  0
TABLE
  2
STYLE
 70
     2
  0
STYLE
 70
     0
  2
SN0
 40
0.000000
 41
0.000440
 50
0.000000
 71
     0
 42
0.000000
  3
ROMAND
  0
STYLE
 70
    68
  2
SV0
 40
0.000000
 41
0.000440
 50
0.000000
 71
     0
 42
0.000000
  3
ROMAND
  0
ENDTAB
  0
TABLE
  2
LAYER
 70
     3
  0
LAYER
  2
FOREGROUND
 70
    64
 62
     7
  6
CONTINUOUS
  0
LAYER
  2
BACKGROUND
 70
    65
 62
    -7
  6
CONTINUOUS
  0
LAYER
  2
0
 70
    64
 62
     7
  6
CONTINUOUS
  0
ENDTAB
  0
ENDSEC
  0
SECTION
  2
ENTITIES
  0
POLYLINE
  8
FOREGROUND
  6
CONTINUOUS
 66
     1
 40
0.000000
 41
0.000000
  0
VERTEX
  8
FOREGROUND
  6
CONTINUOUS
 10
0.000000
 20
5.423000
  0
VERTEX
  8
FOREGROUND
  6
CONTINUOUS
 10
8.499920
 20
5.423000
  0
VERTEX
  8
FOREGROUND
  6
CONTINUOUS
 10
8.499920
 20
-5.577000
  0
VERTEX
  8
FOREGROUND
  6
CONTINUOUS
 10
0.000000
 20
-5.577000
  0
VERTEX
  8
FOREGROUND
  6
CONTINUOUS
 10
0.000000
 20
5.423000
  0
SEQEND
  8
0
  0
POLYLINE
  8
FOREGROUND
  6
CONTINUOUS
 66
     1
 40
0.000000
 41
0.000000
  0
VERTEX
  8
FOREGROUND
  6
CONTINUOUS
 10
0.000000
 20
5.423000
  0
VERTEX
  8
FOREGROUND
  6
CONTINUOUS
 10
8.499920
 20
5.423000
  0
VERTEX
  8
FOREGROUND
  6
CONTINUOUS
 10
8.499920
 20
-5.577000
  0
VERTEX
  8
FOREGROUND
  6
CONTINUOUS
 10
0.000000
 20
-5.577000
  0
VERTEX
  8
FOREGROUND
  6
CONTINUOUS
 10
0.000000
 20
5.423000
  0
SEQEND
  8
0
  0
SOLID
  8
0
 62
    15
 10
5.185400
 20
2.279200
 11
5.183640
 21
3.025440
 12
5.216640
 22
2.263800
 13
5.214440
 23
3.010040
  0
POLYLINE
  8
0
  6
CONTINUOUS
 66
     1
 40
0.000000
 41
0.000000
  0
VERTEX
  8
0
  6
CONTINUOUS
 10
5.185400
 20
2.279200
  0
VERTEX
  8
0
  6
CONTINUOUS
 10
5.183640
 20
3.025440
  0
VERTEX
  8
0
  6
CONTINUOUS
 10
5.214440
 20
3.010040
  0
VERTEX
  8
0
  6
CONTINUOUS
 10
5.216640
 20
2.263800
  0
VERTEX
  8
0
  6
CONTINUOUS
 10
5.185400
 20
2.279200
  0
SEQEND
  8
0
  0
SOLID
  8
0
 62
    15
 10
4.463800
 20
1.681240
 11
4.461600
 21
2.427480
 12
4.463800
 22
2.488200
 13
4.461600
 23
3.234000
  0
POLYLINE
  8
0
  6
CONTINUOUS
 66
     1
 40
0.000000
 41
0.000000
  0
VERTEX
  8
0
  6
CONTINUOUS
 10
4.463800
 20
1.681240
  0
VERTEX
  8
0
  6
CONTINUOUS
 10
4.461600
 20
2.427480
  0
VERTEX
  8
0
  6
CONTINUOUS
 10
4.461600
 20
3.234000
  0
VERTEX
  8
0
  6
CONTINUOUS
 10
4.463800
 20
2.488200
  0
VERTEX
  8
0
  6
CONTINUOUS
 10
4.463800
 20
1.681240
  0
SEQEND
  8
0
  0
SOLID
  8
0
 62
    15
 10
5.061320
 20
2.488200
 11
5.059120
 21
3.234000
 12
5.078920
 22
2.421320
 13
5.076720
 23
3.167120
  0
POLYLINE
  8
0
  6
CONTINUOUS
 66
     1
 40
0.000000
 41
0.000000
  0
VERTEX
  8
0
  6
CONTINUOUS
 10
5.061320
 20
2.488200
  0
VERTEX
  8
0
  6
CONTINUOUS
 10
5.059120
 20
3.234000
  0
VERTEX
  8
0
  6
CONTINUOUS
 10
5.076720
 20
3.167120
  0
VERTEX
  8
0
  6
CONTINUOUS
 10
5.078920
 20
2.421320
  0
VERTEX
  8
0
  6
CONTINUOUS
 10
5.061320
 20
2.488200
  0
SEQEND
  8
0
  0
SOLID
  8
0
 62
    15
 10
5.078920
 20
2.421320
 11
5.076720
 21
3.167120
 12
5.102680
 22
2.364120
 13
5.100920
 23
3.110360
  0
POLYLINE
  8
0
  6
CONTINUOUS
 66
     1
 40
0.000000
 41
0.000000
  0
VERTEX
  8
0
  6
CONTINUOUS
 10
5.078920
 20
2.421320
  0
VERTEX
  8
0
  6
CONTINUOUS
 10
5.076720
 20
3.167120
  0
VERTEX
  8
0
  6
CONTINUOUS
 10
5.100920
 20
3.110360
  0
VERTEX
  8
0
  6
CONTINUOUS
 10
5.102680
 20
2.364120
  0
VERTEX
  8
0
  6
CONTINUOUS
 10
5.078920
 20
2.421320
  0
SEQEND
  8
0
  0
SOLID
  8
0
 62
    15
 10
5.102680
 20
2.364120
 11
5.100920
 21
3.110360
 12
5.118520
 22
2.339480
 13
5.116320
 23
3.085720
  0
POLYLINE
  8
0
  6
CONTINUOUS
 66
     1
 40
0.000000
 41
0.000000
  0
VERTEX
  8
0
  6
CONTINUOUS
 10
5.102680
 20
2.364120
  0
VERTEX
  8
0
  6
CONTINUOUS
 10
5.100920
 20
3.110360
  0
VERTEX
  8
0
  6
CONTINUOUS
 10
5.116320
 20
3.085720
  0
VERTEX
  8
0
  6
CONTINUOUS
 10
5.118520
 20
2.339480
  0
VERTEX
  8
0
  6
CONTINUOUS
 10
5.102680
 20
2.364120
  0
SEQEND
  8
0
  0
SOLID
  8
0
 62
    15
 10
5.118520
 20
2.339480
 11
5.116320
 21
3.085720
 12
5.137000
 22
2.317040
 13
5.134800
 23
3.063280
  0
POLYLINE
  8
0
  6
CONTINUOUS
 66
     1
 40
0.000000
 41
0.000000
  0
VERTEX
  8
0
  6
CONTINUOUS
 10
5.118520
 20
2.339480
  0
VERTEX
  8
0
  6
CONTINUOUS
 10
5.116320
 20
3.085720
  0
VERTEX
  8
0
  6
CONTINUOUS
 10
5.134800
 20
3.063280
  0
VERTEX
  8
0
  6
CONTINUOUS
 10
5.137000
 20
2.317040
  0
VERTEX
  8
0
  6
CONTINUOUS
 10
5.118520
 20
2.339480
  0
SEQEND
  8
0
  0
SOLID
  8
0
 62
    15
 10
5.137000
 20
2.317040
 11
5.134800
 21
3.063280
 12
5.159440
 22
2.297240
 13
5.157240
 23
3.043480
  0
POLYLINE
  8
0
  6
CONTINUOUS
 66
     1
 40
0.000000
 41
0.000000
  0
VERTEX
  8
0
  6
CONTINUOUS
 10
5.137000
 20
2.317040
  0
VERTEX
  8
0
  6
CONTINUOUS
 10
5.134800
 20
3.063280
  0
VERTEX
  8
0
  6
CONTINUOUS
 10
5.157240
 20
3.043480
  0
VERTEX
  8
0
  6
CONTINUOUS
 10
5.159440
 20
2.297240
  0
VERTEX
  8
0
  6
CONTINUOUS
 10
5.137000
 20
2.317040
  0
SEQEND
  8
0
  0
SOLID
  8
0
 62
    15
 10
5.159440
 20
2.297240
 11
5.157240
 21
3.043480
 12
5.185400
 22
2.279200
 13
5.183640
 23
3.025440
  0
POLYLINE
  8
0
  6
CONTINUOUS
 66
     1
 40
0.000000
 41
0.000000
  0
VERTEX
  8
0
  6
CONTINUOUS
 10
5.159440
 20
2.297240
  0
VERTEX
  8
0
  6
CONTINUOUS
 10
5.157240
 20
3.043480
  0
VERTEX
  8
0
  6
CONTINUOUS
 10
5.183640
 20
3.025440
  0
VERTEX
  8
0
  6
CONTINUOUS
 10
5.185400
 20
2.279200
  0
VERTEX
  8
0
  6
CONTINUOUS
 10
5.159440
 20
2.297240
  0
SEQEND
  8
0
  0
SOLID
  8
0
 62
    15
 10
4.463800
 20
2.488200
 11
4.461600
 21
3.234000
 12
5.061320
 22
2.488200
 13
5.059120
 23
3.234000
  0
POLYLINE
  8
0
  6
CONTINUOUS
 66
     1
 40
0.000000
 41
0.000000
  0
VERTEX
  8
0
  6
CONTINUOUS
 10
4.463800
 20
2.488200
  0
VERTEX
  8
0
  6
CONTINUOUS
 10
4.461600
 20
3.234000
  0
VERTEX
  8
0
  6
CONTINUOUS
 10
5.059120
 20
3.234000
  0
VERTEX
  8
0
  6
CONTINUOUS
 10
5.061320
 20
2.488200
  0
VERTEX
  8
0
  6
CONTINUOUS
 10
4.463800
 20
2.488200
  0
SEQEND
  8
0
  0
SOLID
  8
0
 62
    15
 10
5.216640
 20
2.263800
 11
5.214440
 21
3.010040
 12
5.252720
 22
2.250600
 13
5.250520
 23
2.996840
  0
POLYLINE
  8
0
  6
CONTINUOUS
 66
     1
 40
0.000000
 41
0.000000
  0
VERTEX
  8
0
  6
CONTINUOUS
 10
5.216640
 20
2.263800
  0
VERTEX
  8
0
  6
CONTINUOUS
 10
5.214440
 20
3.010040
  0
VERTEX
  8
0
  6
CONTINUOUS
 10
5.250520
 20
2.996840
  0
VERTEX
  8
0
  6
CONTINUOUS
 10
5.252720
 20
2.250600
  0
VERTEX
  8
0
  6
CONTINUOUS
 10
5.216640
 20
2.263800
  0
SEQEND
  8
0
  0
SOLID
  8
0
 62
    15
 10
5.252720
 20
2.250600
 11
5.250520
 21
2.996840
 12
5.294520
 22
2.239600
 13
5.292760
 23
2.985840
  0
POLYLINE
  8
0
  6
CONTINUOUS
 66
     1
 40
0.000000
 41
0.000000
  0
VERTEX
  8
0
  6
CONTINUOUS
 10
5.252720
 20
2.250600
  0
VERTEX
  8
0
  6
CONTINUOUS
 10
5.250520
 20
2.996840
  0
VERTEX
  8
0
  6
CONTINUOUS
 10
5.292760
 20
2.985840
  0
VERTEX
  8
0
  6
CONTINUOUS
 10
5.294520
 20
2.239600
  0
VERTEX
  8
0
  6
CONTINUOUS
 10
5.252720
 20
2.250600
  0
SEQEND
  8
0
  0
SOLID
  8
0
 62
    15
 10
5.294520
 20
2.239600
 11
5.292760
 21
2.985840
 12
5.342920
 22
2.230360
 13
5.340720
 23
2.976600
  0
POLYLINE
  8
0
  6
CONTINUOUS
 66
     1
 40
0.000000
 41
0.000000
  0
VERTEX
  8
0
  6
CONTINUOUS
 10
5.294520
 20
2.239600
  0
VERTEX
  8
0
  6
CONTINUOUS
 10
5.292760
 20
2.985840
  0
VERTEX
  8
0
  6
CONTINUOUS
 10
5.340720
 20
2.976600
  0
VERTEX
  8
0
  6
CONTINUOUS
 10
5.342920
 20
2.230360
  0
VERTEX
  8
0
  6
CONTINUOUS
 10
5.294520
 20
2.239600
  0
SEQEND
  8
0
  0
SOLID
  8
0
 62
    15
 10
5.342920
 20
2.230360
 11
5.340720
 21
2.976600
 12
5.397480
 22
2.223760
 13
5.395720
 23
2.969560
  0
POLYLINE
  8
0
  6
CONTINUOUS
 66
     1
 40
0.000000
 41
0.000000
  0
VERTEX
  8
0
  6
CONTINUOUS
 10
5.342920
 20
2.230360
  0
VERTEX
  8
0
  6
CONTINUOUS
 10
5.340720
 20
2.976600
  0
VERTEX
  8
0
  6
CONTINUOUS
 10
5.395720
 20
2.969560
  0
VERTEX
  8
0
  6
CONTINUOUS
 10
5.397480
 20
2.223760
  0
VERTEX
  8
0
  6
CONTINUOUS
 10
5.342920
 20
2.230360
  0
SEQEND
  8
0
  0
SOLID
  8
0
 62
    15
 10
5.397480
 20
2.223760
 11
5.395720
 21
2.969560
 12
5.459520
 22
2.218920
 13
5.457760
 23
2.964720
  0
POLYLINE
  8
0
  6
CONTINUOUS
 66
     1
 40
0.000000
 41
0.000000
  0
VERTEX
  8
0
  6
CONTINUOUS
 10
5.397480
 20
2.223760
  0
VERTEX
  8
0
  6
CONTINUOUS
 10
5.395720
 20
2.969560
  0
VERTEX
  8
0
  6
CONTINUOUS
 10
5.457760
 20
2.964720
  0
VERTEX
  8
0
  6
CONTINUOUS
 10
5.459520
 20
2.218920
  0
VERTEX
  8
0
  6
CONTINUOUS
 10
5.397480
 20
2.223760
  0
SEQEND
  8
0
  0
SOLID
  8
0
 62
    15
 10
5.459520
 20
2.218920
 11
5.457760
 21
2.964720
 12
5.529480
 22
2.215840
 13
5.527280
 23
2.962080
  0
POLYLINE
  8
0
  6
CONTINUOUS
 66
     1
 40
0.000000
 41
0.000000
  0
VERTEX
  8
0
  6
CONTINUOUS
 10
5.459520
 20
2.218920
  0
VERTEX
  8
0
  6
CONTINUOUS
 10
5.457760
 20
2.964720
  0
VERTEX
  8
0
  6
CONTINUOUS
 10
5.527280
 20
2.962080
  0
VERTEX
  8
0
  6
CONTINUOUS
 10
5.529480
 20
2.215840
  0
VERTEX
  8
0
  6
CONTINUOUS
 10
5.459520
 20
2.218920
  0
SEQEND
  8
0
  0
SOLID
  8
0
 62
    15
 10
5.529480
 20
2.215840
 11
5.527280
 21
2.962080
 12
5.607800
 22
2.214960
 13
5.605600
 23
2.961200
  0
POLYLINE
  8
0
  6
CONTINUOUS
 66
     1
 40
0.000000
 41
0.000000
  0
VERTEX
  8
0
  6
CONTINUOUS
 10
5.529480
 20
2.215840
  0
VERTEX
  8
0
  6
CONTINUOUS
 10
5.527280
 20
2.962080
  0
VERTEX
  8
0
  6
CONTINUOUS
 10
5.605600
 20
2.961200
  0
VERTEX
  8
0
  6
CONTINUOUS
 10
5.607800
 20
2.214960
  0
VERTEX
  8
0
  6
CONTINUOUS
 10
5.529480
 20
2.215840
  0
SEQEND
  8
0
  0
SOLID
  8
0
 62
    15
 10
5.607800
 20
2.214960
 11
5.605600
 21
2.961200
 12
7.960480
 22
2.214960
 13
7.958280
 23
2.961200
  0
POLYLINE
  8
0
  6
CONTINUOUS
 66
     1
 40
0.000000
 41
0.000000
  0
VERTEX
  8
0
  6
CONTINUOUS
 10
5.607800
 20
2.214960
  0
VERTEX
  8
0
  6
CONTINUOUS
 10
5.605600
 20
2.961200
  0
VERTEX
  8
0
  6
CONTINUOUS
 10
7.958280
 20
2.961200
  0
VERTEX
  8
0
  6
CONTINUOUS
 10
7.960480
 20
2.214960
  0
VERTEX
  8
0
  6
CONTINUOUS
 10
5.607800
 20
2.214960
  0
SEQEND
  8
0
  0
POLYLINE
  8
0
  6
CONTINUOUS
 66
     1
 40
0.000000
 41
0.000000
  0
VERTEX
  8
0
  6
CONTINUOUS
 10
7.959600
 20
1.681240
  0
VERTEX
  8
0
  6
CONTINUOUS
 10
4.463800
 20
1.681240
  0
VERTEX
  8
0
  6
CONTINUOUS
 10
4.463800
 20
2.488200
  0
VERTEX
  8
0
  6
CONTINUOUS
 10
5.061320
 20
2.488200
  0
VERTEX
  8
0
  6
CONTINUOUS
 10
5.078920
 20
2.421320
  0
VERTEX
  8
0
  6
CONTINUOUS
 10
5.102680
 20
2.364120
  0
VERTEX
  8
0
  6
CONTINUOUS
 10
5.118520
 20
2.339480
  0
VERTEX
  8
0
  6
CONTINUOUS
 10
5.137000
 20
2.317040
  0
VERTEX
  8
0
  6
CONTINUOUS
 10
5.159440
 20
2.297240
  0
VERTEX
  8
0
  6
CONTINUOUS
 10
5.185400
 20
2.279200
  0
VERTEX
  8
0
  6
CONTINUOUS
 10
5.216640
 20
2.263800
  0
VERTEX
  8
0
  6
CONTINUOUS
 10
5.252720
 20
2.250600
  0
VERTEX
  8
0
  6
CONTINUOUS
 10
5.294520
 20
2.239600
  0
VERTEX
  8
0
  6
CONTINUOUS
 10
5.342920
 20
2.230360
  0
VERTEX
  8
0
  6
CONTINUOUS
 10
5.397480
 20
2.223760
  0
VERTEX
  8
0
  6
CONTINUOUS
 10
5.459520
 20
2.218920
  0
VERTEX
  8
0
  6
CONTINUOUS
 10
5.529480
 20
2.215840
  0
VERTEX
  8
0
  6
CONTINUOUS
 10
5.607800
 20
2.214960
  0
VERTEX
  8
0
  6
CONTINUOUS
 10
7.960480
 20
2.214960
  0
VERTEX
  8
0
  6
CONTINUOUS
 10
7.960480
 20
1.681240
  0
VERTEX
  8
0
  6
CONTINUOUS
 10
7.959600
 20
1.681240
  0
SEQEND
  8
0
  0
TEXT
  8
0
 10
5.915800
 20
1.454200
 40
0.138095
  1
BA  997
 41
1.000000
  7
SN0
 71
     0
 72
     5
 11
6.506245
 21
1.454200
  0
TEXT
  8
0
 10
5.667640
 20
1.262800
 40
0.138095
  1
13/16" x 3-1/2"
 41
1.000000
  7
SN0
 71
     0
 72
     5
 11
6.752906
 21
1.262800
  0
POLYLINE
  8
0
  6
CONTINUOUS
 66
     1
 40
0.014080
 41
0.014080
  0
VERTEX
  8
0
  6
CONTINUOUS
 10
7.948160
 20
3.393280
  0
VERTEX
  8
0
  6
CONTINUOUS
 10
4.452800
 20
3.393280
  0
VERTEX
  8
0
  6
CONTINUOUS
 10
4.452800
 20
4.200240
  0
VERTEX
  8
0
  6
CONTINUOUS
 10
5.050320
 20
4.200240
  0
VERTEX
  8
0
  6
CONTINUOUS
 10
5.054280
 20
4.182640
  0
VERTEX
  8
0
  6
CONTINUOUS
 10
5.058680
 20
4.165480
  0
VERTEX
  8
0
  6
CONTINUOUS
 10
5.063080
 20
4.149200
  0
VERTEX
  8
0
  6
CONTINUOUS
 10
5.067920
 20
4.133360
  0
VERTEX
  8
0
  6
CONTINUOUS
 10
5.073200
 20
4.117960
  0
VERTEX
  8
0
  6
CONTINUOUS
 10
5.078920
 20
4.103440
  0
VERTEX
  8
0
  6
CONTINUOUS
 10
5.085080
 20
4.089800
  0
VERTEX
  8
0
  6
CONTINUOUS
 10
5.091680
 20
4.076600
  0
VERTEX
  8
0
  6
CONTINUOUS
 10
5.099160
 20
4.063840
  0
VERTEX
  8
0
  6
CONTINUOUS
 10
5.107520
 20
4.051520
  0
VERTEX
  8
0
  6
CONTINUOUS
 10
5.116320
 20
4.040080
  0
VERTEX
  8
0
  6
CONTINUOUS
 10
5.126000
 20
4.029080
  0
VERTEX
  8
0
  6
CONTINUOUS
 10
5.136560
 20
4.018960
  0
VERTEX
  8
0
  6
CONTINUOUS
 10
5.148000
 20
4.009280
  0
VERTEX
  8
0
  6
CONTINUOUS
 10
5.160760
 20
4.000040
  0
VERTEX
  8
0
  6
CONTINUOUS
 10
5.174400
 20
3.991680
  0
VERTEX
  8
0
  6
CONTINUOUS
 10
5.189360
 20
3.983320
  0
VERTEX
  8
0
  6
CONTINUOUS
 10
5.205640
 20
3.975840
  0
VERTEX
  8
0
  6
CONTINUOUS
 10
5.222800
 20
3.969240
  0
VERTEX
  8
0
  6
CONTINUOUS
 10
5.241720
 20
3.962640
  0
VERTEX
  8
0
  6
CONTINUOUS
 10
5.261960
 20
3.956920
  0
VERTEX
  8
0
  6
CONTINUOUS
 10
5.283520
 20
3.951640
  0
VERTEX
  8
0
  6
CONTINUOUS
 10
5.306840
 20
3.946800
  0
VERTEX
  8
0
  6
CONTINUOUS
 10
5.331480
 20
3.942840
  0
VERTEX
  8
0
  6
CONTINUOUS
 10
5.358320
 20
3.938880
  0
VERTEX
  8
0
  6
CONTINUOUS
 10
5.386480
 20
3.935800
  0
VERTEX
  8
0
  6
CONTINUOUS
 10
5.416400
 20
3.933160
  0
VERTEX
  8
0
  6
CONTINUOUS
 10
5.448520
 20
3.930960
  0
VERTEX
  8
0
  6
CONTINUOUS
 10
5.482400
 20
3.929200
  0
VERTEX
  8
0
  6
CONTINUOUS
 10
5.518040
 20
3.927880
  0
VERTEX
  8
0
  6
CONTINUOUS
 10
5.556320
 20
3.927440
  0
VERTEX
  8
0
  6
CONTINUOUS
 10
5.596360
 20
3.927000
  0
VERTEX
  8
0
  6
CONTINUOUS
 10
7.807360
 20
3.927000
  0
VERTEX
  8
0
  6
CONTINUOUS
 10
7.949040
 20
3.927000
  0
VERTEX
  8
0
  6
CONTINUOUS
 10
7.949040
 20
3.393280
  0
VERTEX
  8
0
  6
CONTINUOUS
 10
7.948160
 20
3.393280
  0
SEQEND
  8
0
  0
TEXT
  8
0
 10
5.905680
 20
3.686320
 40
0.138095
  1
BA  997
 41
1.000000
  7
SN0
 71
     0
 72
     5
 11
6.496125
 21
3.686320
  0
TEXT
  8
0
 10
5.657520
 20
3.494480
 40
0.138095
  1
13/16" x 3-1/2"
 41
1.000000
  7
SN0
 71
     0
 72
     5
 11
6.742786
 21
3.494480
  0
ENDSEC
  0
EOF
