  0
SECTION
  2
HEADER
  9
$ACADVER
  1
AC1006
  9
$EXTMIN
 10
3.930520
 20
0.717200
  9
$EXTMAX
 10
8.037480
 20
3.660360
  9
$LTSCALE
 40
0.044000
  9
$PDMODE
 70
    35
  9
$PDSIZE
 40
0.035200
  0
ENDSEC
  0
SECTION
  2
TABLES
  0
TABLE
  2
LTYPE
 70
     9
  0
LTYPE
  2
CONTINUOUS
 70
    64
  3
Solid line
 72
    65
 73
     0
 40
0.000000
  0
LTYPE
  2
DASHED
 70
    64
  3
__ __ __ __ __ __ __ __ __ __ __ __ __ __ __
 72
    65
 73
     2
 40
0.000330
 49
0.000220
 49
-0.000110
  0
LTYPE
  2
HIDDEN
 70
    64
  3
 _ _ _ _ _ _ _ _ _ _ _ _ _ _ _ _ _ _ _ _ _ _
 72
    65
 73
     2
 40
0.000165
 49
0.000110
 49
-0.000055
  0
LTYPE
  2
CENTER
 70
    64
  3
____ _ ____ _ ____ _ ____ _ ____ _ ____ _ ____
 72
    65
 73
     4
 40
0.000880
 49
0.000550
 49
-0.000110
 49
0.000110
 49
-0.000110
  0
LTYPE
  2
PHANTOM
 70
    64
  3
_____ _ _ _____ _ _ _____ _ _ _____ _ _ ____
 72
    65
 73
     6
 40
0.001100
 49
0.000550
 49
-0.000110
 49
0.000110
 49
-0.000110
 49
0.000110
 49
-0.000110
  0
LTYPE
  2
DOT
 70
    64
  3
...............................................
 72
    65
 73
     2
 40
0.000110
 49
0.000000
 49
-0.000110
  0
LTYPE
  2
DASHDOT
 70
    64
  3
__ . __ . __ . __ . __ . __ . __ . __ . __ . __
 72
    65
 73
     4
 40
0.000440
 49
0.000220
 49
-0.000110
 49
0.000000
 49
-0.000110
  0
LTYPE
  2
BORDER
 70
    64
  3
__ __ . __ __ . __ __ . __ __ . __ __ . __ __
 72
    65
 73
     6
 40
0.000770
 49
0.000220
 49
-0.000110
 49
0.000220
 49
-0.000110
 49
0.000000
 49
-0.000110
  0
LTYPE
  2
DIVIDE
 70
    64
  3
__ . . __ . . __ . . __ . . __ . . __ . . __
 72
    65
 73
     6
 40
0.000550
 49
0.000220
 49
-0.000110
 49
0.000000
 49
-0.000110
 49
0.000000
 49
-0.000110
  0
LTYPE
  2
DOTDOT
 70
    64
  3
 . .  . .  . .  . .  . .  . . 
 72
    65
 73
     5
 40
0.000242
 49
-0.000110
 49
0.000000
 49
-0.000110
 49
0.000000
 49
-0.000110
  0
ENDTAB
  0
TABLE
  2
STYLE
 70
     2
  0
STYLE
 70
     0
  2
SN0
 40
0.000000
 41
0.000440
 50
0.000000
 71
     0
 42
0.000000
  3
ROMAND
  0
STYLE
 70
    68
  2
SV0
 40
0.000000
 41
0.000440
 50
0.000000
 71
     0
 42
0.000000
  3
ROMAND
  0
ENDTAB
  0
TABLE
  2
LAYER
 70
     3
  0
LAYER
  2
FOREGROUND
 70
    64
 62
     7
  6
CONTINUOUS
  0
LAYER
  2
BACKGROUND
 70
    65
 62
    -7
  6
CONTINUOUS
  0
LAYER
  2
0
 70
    64
 62
     7
  6
CONTINUOUS
  0
ENDTAB
  0
ENDSEC
  0
SECTION
  2
ENTITIES
  0
POLYLINE
  8
FOREGROUND
  6
CONTINUOUS
 66
     1
 40
0.000000
 41
0.000000
  0
VERTEX
  8
FOREGROUND
  6
CONTINUOUS
 10
0.000000
 20
4.377560
  0
VERTEX
  8
FOREGROUND
  6
CONTINUOUS
 10
8.499920
 20
4.377560
  0
VERTEX
  8
FOREGROUND
  6
CONTINUOUS
 10
8.499920
 20
-6.622440
  0
VERTEX
  8
FOREGROUND
  6
CONTINUOUS
 10
0.000000
 20
-6.622440
  0
VERTEX
  8
FOREGROUND
  6
CONTINUOUS
 10
0.000000
 20
4.377560
  0
SEQEND
  8
0
  0
POLYLINE
  8
FOREGROUND
  6
CONTINUOUS
 66
     1
 40
0.000000
 41
0.000000
  0
VERTEX
  8
FOREGROUND
  6
CONTINUOUS
 10
0.000000
 20
4.377560
  0
VERTEX
  8
FOREGROUND
  6
CONTINUOUS
 10
8.499920
 20
4.377560
  0
VERTEX
  8
FOREGROUND
  6
CONTINUOUS
 10
8.499920
 20
-6.622440
  0
VERTEX
  8
FOREGROUND
  6
CONTINUOUS
 10
0.000000
 20
-6.622440
  0
VERTEX
  8
FOREGROUND
  6
CONTINUOUS
 10
0.000000
 20
4.377560
  0
SEQEND
  8
0
  0
SOLID
  8
0
 62
    15
 10
7.346240
 20
1.615680
 11
7.348880
 21
2.360600
 12
7.388480
 22
1.614800
 13
7.390680
 23
2.359280
  0
POLYLINE
  8
0
  6
CONTINUOUS
 66
     1
 40
0.000000
 41
0.000000
  0
VERTEX
  8
0
  6
CONTINUOUS
 10
7.346240
 20
1.615680
  0
VERTEX
  8
0
  6
CONTINUOUS
 10
7.348880
 20
2.360600
  0
VERTEX
  8
0
  6
CONTINUOUS
 10
7.390680
 20
2.359280
  0
VERTEX
  8
0
  6
CONTINUOUS
 10
7.388480
 20
1.614800
  0
VERTEX
  8
0
  6
CONTINUOUS
 10
7.346240
 20
1.615680
  0
SEQEND
  8
0
  0
SOLID
  8
0
 62
    15
 10
6.858720
 20
1.815880
 11
6.861360
 21
2.560360
 12
6.882040
 22
1.809280
 13
6.884680
 23
2.553760
  0
POLYLINE
  8
0
  6
CONTINUOUS
 66
     1
 40
0.000000
 41
0.000000
  0
VERTEX
  8
0
  6
CONTINUOUS
 10
6.858720
 20
1.815880
  0
VERTEX
  8
0
  6
CONTINUOUS
 10
6.861360
 20
2.560360
  0
VERTEX
  8
0
  6
CONTINUOUS
 10
6.884680
 20
2.553760
  0
VERTEX
  8
0
  6
CONTINUOUS
 10
6.882040
 20
1.809280
  0
VERTEX
  8
0
  6
CONTINUOUS
 10
6.858720
 20
1.815880
  0
SEQEND
  8
0
  0
SOLID
  8
0
 62
    15
 10
6.882040
 20
1.809280
 11
6.884680
 21
2.553760
 12
6.930880
 22
1.785520
 13
6.933520
 23
2.530000
  0
POLYLINE
  8
0
  6
CONTINUOUS
 66
     1
 40
0.000000
 41
0.000000
  0
VERTEX
  8
0
  6
CONTINUOUS
 10
6.882040
 20
1.809280
  0
VERTEX
  8
0
  6
CONTINUOUS
 10
6.884680
 20
2.553760
  0
VERTEX
  8
0
  6
CONTINUOUS
 10
6.933520
 20
2.530000
  0
VERTEX
  8
0
  6
CONTINUOUS
 10
6.930880
 20
1.785520
  0
VERTEX
  8
0
  6
CONTINUOUS
 10
6.882040
 20
1.809280
  0
SEQEND
  8
0
  0
SOLID
  8
0
 62
    15
 10
6.930880
 20
1.785520
 11
6.933520
 21
2.530000
 12
6.982360
 22
1.752080
 13
6.984560
 23
2.497000
  0
POLYLINE
  8
0
  6
CONTINUOUS
 66
     1
 40
0.000000
 41
0.000000
  0
VERTEX
  8
0
  6
CONTINUOUS
 10
6.930880
 20
1.785520
  0
VERTEX
  8
0
  6
CONTINUOUS
 10
6.933520
 20
2.530000
  0
VERTEX
  8
0
  6
CONTINUOUS
 10
6.984560
 20
2.497000
  0
VERTEX
  8
0
  6
CONTINUOUS
 10
6.982360
 20
1.752080
  0
VERTEX
  8
0
  6
CONTINUOUS
 10
6.930880
 20
1.785520
  0
SEQEND
  8
0
  0
SOLID
  8
0
 62
    15
 10
6.982360
 20
1.752080
 11
6.984560
 21
2.497000
 12
7.035600
 22
1.714240
 13
7.037800
 23
2.458720
  0
POLYLINE
  8
0
  6
CONTINUOUS
 66
     1
 40
0.000000
 41
0.000000
  0
VERTEX
  8
0
  6
CONTINUOUS
 10
6.982360
 20
1.752080
  0
VERTEX
  8
0
  6
CONTINUOUS
 10
6.984560
 20
2.497000
  0
VERTEX
  8
0
  6
CONTINUOUS
 10
7.037800
 20
2.458720
  0
VERTEX
  8
0
  6
CONTINUOUS
 10
7.035600
 20
1.714240
  0
VERTEX
  8
0
  6
CONTINUOUS
 10
6.982360
 20
1.752080
  0
SEQEND
  8
0
  0
SOLID
  8
0
 62
    15
 10
7.035600
 20
1.714240
 11
7.037800
 21
2.458720
 12
7.089720
 22
1.676400
 13
7.091920
 23
2.420880
  0
POLYLINE
  8
0
  6
CONTINUOUS
 66
     1
 40
0.000000
 41
0.000000
  0
VERTEX
  8
0
  6
CONTINUOUS
 10
7.035600
 20
1.714240
  0
VERTEX
  8
0
  6
CONTINUOUS
 10
7.037800
 20
2.458720
  0
VERTEX
  8
0
  6
CONTINUOUS
 10
7.091920
 20
2.420880
  0
VERTEX
  8
0
  6
CONTINUOUS
 10
7.089720
 20
1.676400
  0
VERTEX
  8
0
  6
CONTINUOUS
 10
7.035600
 20
1.714240
  0
SEQEND
  8
0
  0
SOLID
  8
0
 62
    15
 10
7.089720
 20
1.676400
 11
7.091920
 21
2.420880
 12
7.144280
 22
1.643400
 13
7.146920
 23
2.388320
  0
POLYLINE
  8
0
  6
CONTINUOUS
 66
     1
 40
0.000000
 41
0.000000
  0
VERTEX
  8
0
  6
CONTINUOUS
 10
7.089720
 20
1.676400
  0
VERTEX
  8
0
  6
CONTINUOUS
 10
7.091920
 20
2.420880
  0
VERTEX
  8
0
  6
CONTINUOUS
 10
7.146920
 20
2.388320
  0
VERTEX
  8
0
  6
CONTINUOUS
 10
7.144280
 20
1.643400
  0
VERTEX
  8
0
  6
CONTINUOUS
 10
7.089720
 20
1.676400
  0
SEQEND
  8
0
  0
SOLID
  8
0
 62
    15
 10
7.144280
 20
1.643400
 11
7.146920
 21
2.388320
 12
7.198840
 22
1.620960
 13
7.201040
 23
2.365440
  0
POLYLINE
  8
0
  6
CONTINUOUS
 66
     1
 40
0.000000
 41
0.000000
  0
VERTEX
  8
0
  6
CONTINUOUS
 10
7.144280
 20
1.643400
  0
VERTEX
  8
0
  6
CONTINUOUS
 10
7.146920
 20
2.388320
  0
VERTEX
  8
0
  6
CONTINUOUS
 10
7.201040
 20
2.365440
  0
VERTEX
  8
0
  6
CONTINUOUS
 10
7.198840
 20
1.620960
  0
VERTEX
  8
0
  6
CONTINUOUS
 10
7.144280
 20
1.643400
  0
SEQEND
  8
0
  0
SOLID
  8
0
 62
    15
 10
7.198840
 20
1.620960
 11
7.201040
 21
2.365440
 12
7.225680
 22
1.614800
 13
7.227880
 23
2.359720
  0
POLYLINE
  8
0
  6
CONTINUOUS
 66
     1
 40
0.000000
 41
0.000000
  0
VERTEX
  8
0
  6
CONTINUOUS
 10
7.198840
 20
1.620960
  0
VERTEX
  8
0
  6
CONTINUOUS
 10
7.201040
 20
2.365440
  0
VERTEX
  8
0
  6
CONTINUOUS
 10
7.227880
 20
2.359720
  0
VERTEX
  8
0
  6
CONTINUOUS
 10
7.225680
 20
1.614800
  0
VERTEX
  8
0
  6
CONTINUOUS
 10
7.198840
 20
1.620960
  0
SEQEND
  8
0
  0
SOLID
  8
0
 62
    15
 10
7.225680
 20
1.614800
 11
7.227880
 21
2.359720
 12
7.252080
 22
1.613040
 13
7.254720
 23
2.357960
  0
POLYLINE
  8
0
  6
CONTINUOUS
 66
     1
 40
0.000000
 41
0.000000
  0
VERTEX
  8
0
  6
CONTINUOUS
 10
7.225680
 20
1.614800
  0
VERTEX
  8
0
  6
CONTINUOUS
 10
7.227880
 20
2.359720
  0
VERTEX
  8
0
  6
CONTINUOUS
 10
7.254720
 20
2.357960
  0
VERTEX
  8
0
  6
CONTINUOUS
 10
7.252080
 20
1.613040
  0
VERTEX
  8
0
  6
CONTINUOUS
 10
7.225680
 20
1.614800
  0
SEQEND
  8
0
  0
SOLID
  8
0
 62
    15
 10
7.252080
 20
1.613040
 11
7.254720
 21
2.357960
 12
7.301360
 22
1.614800
 13
7.304000
 23
2.359720
  0
POLYLINE
  8
0
  6
CONTINUOUS
 66
     1
 40
0.000000
 41
0.000000
  0
VERTEX
  8
0
  6
CONTINUOUS
 10
7.252080
 20
1.613040
  0
VERTEX
  8
0
  6
CONTINUOUS
 10
7.254720
 20
2.357960
  0
VERTEX
  8
0
  6
CONTINUOUS
 10
7.304000
 20
2.359720
  0
VERTEX
  8
0
  6
CONTINUOUS
 10
7.301360
 20
1.614800
  0
VERTEX
  8
0
  6
CONTINUOUS
 10
7.252080
 20
1.613040
  0
SEQEND
  8
0
  0
SOLID
  8
0
 62
    15
 10
7.301360
 20
1.614800
 11
7.304000
 21
2.359720
 12
7.346240
 22
1.615680
 13
7.348880
 23
2.360600
  0
POLYLINE
  8
0
  6
CONTINUOUS
 66
     1
 40
0.000000
 41
0.000000
  0
VERTEX
  8
0
  6
CONTINUOUS
 10
7.301360
 20
1.614800
  0
VERTEX
  8
0
  6
CONTINUOUS
 10
7.304000
 20
2.359720
  0
VERTEX
  8
0
  6
CONTINUOUS
 10
7.348880
 20
2.360600
  0
VERTEX
  8
0
  6
CONTINUOUS
 10
7.346240
 20
1.615680
  0
VERTEX
  8
0
  6
CONTINUOUS
 10
7.301360
 20
1.614800
  0
SEQEND
  8
0
  0
SOLID
  8
0
 62
    15
 10
6.836720
 20
1.818080
 11
6.838920
 21
2.562560
 12
6.858720
 22
1.815880
 13
6.861360
 23
2.560360
  0
POLYLINE
  8
0
  6
CONTINUOUS
 66
     1
 40
0.000000
 41
0.000000
  0
VERTEX
  8
0
  6
CONTINUOUS
 10
6.836720
 20
1.818080
  0
VERTEX
  8
0
  6
CONTINUOUS
 10
6.838920
 20
2.562560
  0
VERTEX
  8
0
  6
CONTINUOUS
 10
6.861360
 20
2.560360
  0
VERTEX
  8
0
  6
CONTINUOUS
 10
6.858720
 20
1.815880
  0
VERTEX
  8
0
  6
CONTINUOUS
 10
6.836720
 20
1.818080
  0
SEQEND
  8
0
  0
SOLID
  8
0
 62
    15
 10
7.388480
 20
1.614800
 11
7.390680
 21
2.359280
 12
7.430280
 22
1.609960
 13
7.432920
 23
2.354440
  0
POLYLINE
  8
0
  6
CONTINUOUS
 66
     1
 40
0.000000
 41
0.000000
  0
VERTEX
  8
0
  6
CONTINUOUS
 10
7.388480
 20
1.614800
  0
VERTEX
  8
0
  6
CONTINUOUS
 10
7.390680
 20
2.359280
  0
VERTEX
  8
0
  6
CONTINUOUS
 10
7.432920
 20
2.354440
  0
VERTEX
  8
0
  6
CONTINUOUS
 10
7.430280
 20
1.609960
  0
VERTEX
  8
0
  6
CONTINUOUS
 10
7.388480
 20
1.614800
  0
SEQEND
  8
0
  0
SOLID
  8
0
 62
    15
 10
7.430280
 20
1.609960
 11
7.432920
 21
2.354440
 12
7.473840
 22
1.600280
 13
7.476480
 23
2.344760
  0
POLYLINE
  8
0
  6
CONTINUOUS
 66
     1
 40
0.000000
 41
0.000000
  0
VERTEX
  8
0
  6
CONTINUOUS
 10
7.430280
 20
1.609960
  0
VERTEX
  8
0
  6
CONTINUOUS
 10
7.432920
 20
2.354440
  0
VERTEX
  8
0
  6
CONTINUOUS
 10
7.476480
 20
2.344760
  0
VERTEX
  8
0
  6
CONTINUOUS
 10
7.473840
 20
1.600280
  0
VERTEX
  8
0
  6
CONTINUOUS
 10
7.430280
 20
1.609960
  0
SEQEND
  8
0
  0
SOLID
  8
0
 62
    15
 10
7.473840
 20
1.600280
 11
7.476480
 21
2.344760
 12
7.521800
 22
1.584000
 13
7.524000
 23
2.328480
  0
POLYLINE
  8
0
  6
CONTINUOUS
 66
     1
 40
0.000000
 41
0.000000
  0
VERTEX
  8
0
  6
CONTINUOUS
 10
7.473840
 20
1.600280
  0
VERTEX
  8
0
  6
CONTINUOUS
 10
7.476480
 20
2.344760
  0
VERTEX
  8
0
  6
CONTINUOUS
 10
7.524000
 20
2.328480
  0
VERTEX
  8
0
  6
CONTINUOUS
 10
7.521800
 20
1.584000
  0
VERTEX
  8
0
  6
CONTINUOUS
 10
7.473840
 20
1.600280
  0
SEQEND
  8
0
  0
SOLID
  8
0
 62
    15
 10
7.521800
 20
1.584000
 11
7.524000
 21
2.328480
 12
7.575920
 22
1.559800
 13
7.578120
 23
2.304280
  0
POLYLINE
  8
0
  6
CONTINUOUS
 66
     1
 40
0.000000
 41
0.000000
  0
VERTEX
  8
0
  6
CONTINUOUS
 10
7.521800
 20
1.584000
  0
VERTEX
  8
0
  6
CONTINUOUS
 10
7.524000
 20
2.328480
  0
VERTEX
  8
0
  6
CONTINUOUS
 10
7.578120
 20
2.304280
  0
VERTEX
  8
0
  6
CONTINUOUS
 10
7.575920
 20
1.559800
  0
VERTEX
  8
0
  6
CONTINUOUS
 10
7.521800
 20
1.584000
  0
SEQEND
  8
0
  0
SOLID
  8
0
 62
    15
 10
7.575920
 20
1.559800
 11
7.578120
 21
2.304280
 12
7.638400
 22
1.525920
 13
7.640600
 23
2.270400
  0
POLYLINE
  8
0
  6
CONTINUOUS
 66
     1
 40
0.000000
 41
0.000000
  0
VERTEX
  8
0
  6
CONTINUOUS
 10
7.575920
 20
1.559800
  0
VERTEX
  8
0
  6
CONTINUOUS
 10
7.578120
 20
2.304280
  0
VERTEX
  8
0
  6
CONTINUOUS
 10
7.640600
 20
2.270400
  0
VERTEX
  8
0
  6
CONTINUOUS
 10
7.638400
 20
1.525920
  0
VERTEX
  8
0
  6
CONTINUOUS
 10
7.575920
 20
1.559800
  0
SEQEND
  8
0
  0
SOLID
  8
0
 62
    15
 10
7.989960
 20
1.525920
 11
7.992600
 21
2.270400
 12
7.989960
 22
1.195040
 13
7.992600
 23
1.939960
  0
POLYLINE
  8
0
  6
CONTINUOUS
 66
     1
 40
0.000000
 41
0.000000
  0
VERTEX
  8
0
  6
CONTINUOUS
 10
7.989960
 20
1.525920
  0
VERTEX
  8
0
  6
CONTINUOUS
 10
7.992600
 20
2.270400
  0
VERTEX
  8
0
  6
CONTINUOUS
 10
7.992600
 20
1.939960
  0
VERTEX
  8
0
  6
CONTINUOUS
 10
7.989960
 20
1.195040
  0
VERTEX
  8
0
  6
CONTINUOUS
 10
7.989960
 20
1.525920
  0
SEQEND
  8
0
  0
SOLID
  8
0
 62
    15
 10
7.638400
 20
1.525920
 11
7.640600
 21
2.270400
 12
7.989960
 22
1.525920
 13
7.992600
 23
2.270400
  0
POLYLINE
  8
0
  6
CONTINUOUS
 66
     1
 40
0.000000
 41
0.000000
  0
VERTEX
  8
0
  6
CONTINUOUS
 10
7.638400
 20
1.525920
  0
VERTEX
  8
0
  6
CONTINUOUS
 10
7.640600
 20
2.270400
  0
VERTEX
  8
0
  6
CONTINUOUS
 10
7.992600
 20
2.270400
  0
VERTEX
  8
0
  6
CONTINUOUS
 10
7.989960
 20
1.525920
  0
VERTEX
  8
0
  6
CONTINUOUS
 10
7.638400
 20
1.525920
  0
SEQEND
  8
0
  0
SOLID
  8
0
 62
    15
 10
3.931400
 20
1.945680
 11
3.933600
 21
2.690600
 12
4.296160
 22
1.945680
 13
4.298360
 23
2.690600
  0
POLYLINE
  8
0
  6
CONTINUOUS
 66
     1
 40
0.000000
 41
0.000000
  0
VERTEX
  8
0
  6
CONTINUOUS
 10
3.931400
 20
1.945680
  0
VERTEX
  8
0
  6
CONTINUOUS
 10
3.933600
 20
2.690600
  0
VERTEX
  8
0
  6
CONTINUOUS
 10
4.298360
 20
2.690600
  0
VERTEX
  8
0
  6
CONTINUOUS
 10
4.296160
 20
1.945680
  0
VERTEX
  8
0
  6
CONTINUOUS
 10
3.931400
 20
1.945680
  0
SEQEND
  8
0
  0
SOLID
  8
0
 62
    15
 10
4.296160
 20
1.945680
 11
4.298360
 21
2.690600
 12
4.513960
 22
1.819840
 13
4.516600
 23
2.564760
  0
POLYLINE
  8
0
  6
CONTINUOUS
 66
     1
 40
0.000000
 41
0.000000
  0
VERTEX
  8
0
  6
CONTINUOUS
 10
4.296160
 20
1.945680
  0
VERTEX
  8
0
  6
CONTINUOUS
 10
4.298360
 20
2.690600
  0
VERTEX
  8
0
  6
CONTINUOUS
 10
4.516600
 20
2.564760
  0
VERTEX
  8
0
  6
CONTINUOUS
 10
4.513960
 20
1.819840
  0
VERTEX
  8
0
  6
CONTINUOUS
 10
4.296160
 20
1.945680
  0
SEQEND
  8
0
  0
SOLID
  8
0
 62
    15
 10
4.513960
 20
1.819840
 11
4.516600
 21
2.564760
 12
6.792280
 22
1.819840
 13
6.794480
 23
2.564760
  0
POLYLINE
  8
0
  6
CONTINUOUS
 66
     1
 40
0.000000
 41
0.000000
  0
VERTEX
  8
0
  6
CONTINUOUS
 10
4.513960
 20
1.819840
  0
VERTEX
  8
0
  6
CONTINUOUS
 10
4.516600
 20
2.564760
  0
VERTEX
  8
0
  6
CONTINUOUS
 10
6.794480
 20
2.564760
  0
VERTEX
  8
0
  6
CONTINUOUS
 10
6.792280
 20
1.819840
  0
VERTEX
  8
0
  6
CONTINUOUS
 10
4.513960
 20
1.819840
  0
SEQEND
  8
0
  0
SOLID
  8
0
 62
    15
 10
6.792280
 20
1.819840
 11
6.794480
 21
2.564760
 12
6.836720
 22
1.818080
 13
6.838920
 23
2.562560
  0
POLYLINE
  8
0
  6
CONTINUOUS
 66
     1
 40
0.000000
 41
0.000000
  0
VERTEX
  8
0
  6
CONTINUOUS
 10
6.792280
 20
1.819840
  0
VERTEX
  8
0
  6
CONTINUOUS
 10
6.794480
 20
2.564760
  0
VERTEX
  8
0
  6
CONTINUOUS
 10
6.838920
 20
2.562560
  0
VERTEX
  8
0
  6
CONTINUOUS
 10
6.836720
 20
1.818080
  0
VERTEX
  8
0
  6
CONTINUOUS
 10
6.792280
 20
1.819840
  0
SEQEND
  8
0
  0
POLYLINE
  8
0
  6
CONTINUOUS
 66
     1
 40
0.000000
 41
0.000000
  0
VERTEX
  8
0
  6
CONTINUOUS
 10
6.836720
 20
1.818080
  0
VERTEX
  8
0
  6
CONTINUOUS
 10
6.858720
 20
1.815880
  0
VERTEX
  8
0
  6
CONTINUOUS
 10
6.882040
 20
1.809280
  0
VERTEX
  8
0
  6
CONTINUOUS
 10
6.930880
 20
1.785520
  0
VERTEX
  8
0
  6
CONTINUOUS
 10
6.982360
 20
1.752080
  0
VERTEX
  8
0
  6
CONTINUOUS
 10
7.035600
 20
1.714240
  0
VERTEX
  8
0
  6
CONTINUOUS
 10
7.089720
 20
1.676400
  0
VERTEX
  8
0
  6
CONTINUOUS
 10
7.144280
 20
1.643400
  0
VERTEX
  8
0
  6
CONTINUOUS
 10
7.198840
 20
1.620960
  0
VERTEX
  8
0
  6
CONTINUOUS
 10
7.225680
 20
1.614800
  0
VERTEX
  8
0
  6
CONTINUOUS
 10
7.252080
 20
1.613040
  0
VERTEX
  8
0
  6
CONTINUOUS
 10
7.301360
 20
1.614800
  0
VERTEX
  8
0
  6
CONTINUOUS
 10
7.346240
 20
1.615680
  0
VERTEX
  8
0
  6
CONTINUOUS
 10
7.388480
 20
1.614800
  0
VERTEX
  8
0
  6
CONTINUOUS
 10
7.430280
 20
1.609960
  0
VERTEX
  8
0
  6
CONTINUOUS
 10
7.473840
 20
1.600280
  0
VERTEX
  8
0
  6
CONTINUOUS
 10
7.521800
 20
1.584000
  0
VERTEX
  8
0
  6
CONTINUOUS
 10
7.575920
 20
1.559800
  0
VERTEX
  8
0
  6
CONTINUOUS
 10
7.638400
 20
1.525920
  0
VERTEX
  8
0
  6
CONTINUOUS
 10
7.989960
 20
1.525920
  0
VERTEX
  8
0
  6
CONTINUOUS
 10
7.989960
 20
1.195040
  0
VERTEX
  8
0
  6
CONTINUOUS
 10
7.989960
 20
1.192400
  0
VERTEX
  8
0
  6
CONTINUOUS
 10
3.931400
 20
1.192400
  0
VERTEX
  8
0
  6
CONTINUOUS
 10
3.931400
 20
1.945680
  0
VERTEX
  8
0
  6
CONTINUOUS
 10
4.296160
 20
1.945680
  0
VERTEX
  8
0
  6
CONTINUOUS
 10
4.513960
 20
1.819840
  0
VERTEX
  8
0
  6
CONTINUOUS
 10
6.792280
 20
1.819840
  0
VERTEX
  8
0
  6
CONTINUOUS
 10
6.836720
 20
1.818080
  0
SEQEND
  8
0
  0
TEXT
  8
0
 10
5.666320
 20
0.955240
 40
0.138170
  1
BA  996
 41
1.000000
  7
SN0
 71
     0
 72
     5
 11
6.256285
 21
0.955240
  0
TEXT
  8
0
 10
5.464360
 20
0.763400
 40
0.138170
  1
3/4" x 4-1/16"
 41
1.000000
  7
SN0
 71
     0
 72
     5
 11
6.456602
 21
0.763400
  0
POLYLINE
  8
0
  6
CONTINUOUS
 66
     1
 40
0.014080
 41
0.014080
  0
VERTEX
  8
0
  6
CONTINUOUS
 10
6.832760
 20
3.526600
  0
VERTEX
  8
0
  6
CONTINUOUS
 10
4.554440
 20
3.526600
  0
VERTEX
  8
0
  6
CONTINUOUS
 10
4.336640
 20
3.652440
  0
VERTEX
  8
0
  6
CONTINUOUS
 10
3.971440
 20
3.652440
  0
VERTEX
  8
0
  6
CONTINUOUS
 10
3.971440
 20
2.899160
  0
VERTEX
  8
0
  6
CONTINUOUS
 10
8.030000
 20
2.899160
  0
VERTEX
  8
0
  6
CONTINUOUS
 10
8.030440
 20
3.232680
  0
VERTEX
  8
0
  6
CONTINUOUS
 10
7.678880
 20
3.232680
  0
VERTEX
  8
0
  6
CONTINUOUS
 10
7.616400
 20
3.266560
  0
VERTEX
  8
0
  6
CONTINUOUS
 10
7.562280
 20
3.290760
  0
VERTEX
  8
0
  6
CONTINUOUS
 10
7.514760
 20
3.307040
  0
VERTEX
  8
0
  6
CONTINUOUS
 10
7.470760
 20
3.316720
  0
VERTEX
  8
0
  6
CONTINUOUS
 10
7.428960
 20
3.321560
  0
VERTEX
  8
0
  6
CONTINUOUS
 10
7.386720
 20
3.322440
  0
VERTEX
  8
0
  6
CONTINUOUS
 10
7.292560
 20
3.319800
  0
VERTEX
  8
0
  6
CONTINUOUS
 10
7.266160
 20
3.321560
  0
VERTEX
  8
0
  6
CONTINUOUS
 10
7.239320
 20
3.327720
  0
VERTEX
  8
0
  6
CONTINUOUS
 10
7.198400
 20
3.343560
  0
VERTEX
  8
0
  6
CONTINUOUS
 10
7.157480
 20
3.366000
  0
VERTEX
  8
0
  6
CONTINUOUS
 10
7.102920
 20
3.401640
  0
VERTEX
  8
0
  6
CONTINUOUS
 10
6.996880
 20
3.476440
  0
VERTEX
  8
0
  6
CONTINUOUS
 10
6.959040
 20
3.499320
  0
VERTEX
  8
0
  6
CONTINUOUS
 10
6.922960
 20
3.516040
  0
VERTEX
  8
0
  6
CONTINUOUS
 10
6.899640
 20
3.522640
  0
VERTEX
  8
0
  6
CONTINUOUS
 10
6.877200
 20
3.524840
  0
VERTEX
  8
0
  6
CONTINUOUS
 10
6.832760
 20
3.526600
  0
SEQEND
  8
0
  0
TEXT
  8
0
 10
5.574800
 20
3.218600
 40
0.138170
  1
BA  996
 41
1.000000
  7
SN0
 71
     0
 72
     5
 11
6.164765
 21
3.218600
  0
TEXT
  8
0
 10
5.372840
 20
3.026760
 40
0.138170
  1
3/4" x 4-1/16"
 41
1.000000
  7
SN0
 71
     0
 72
     5
 11
6.365082
 21
3.026760
  0
ENDSEC
  0
EOF
