  0
SECTION
  2
HEADER
  9
$ACADVER
  1
AC1006
  9
$EXTMIN
 10
0.750200
 20
0.546920
  9
$EXTMAX
 10
7.995680
 20
4.337080
  9
$LTSCALE
 40
0.044000
  9
$PDMODE
 70
    35
  9
$PDSIZE
 40
0.035200
  0
ENDSEC
  0
SECTION
  2
TABLES
  0
TABLE
  2
LTYPE
 70
     9
  0
LTYPE
  2
CONTINUOUS
 70
    64
  3
Solid line
 72
    65
 73
     0
 40
0.000000
  0
LTYPE
  2
DASHED
 70
    64
  3
__ __ __ __ __ __ __ __ __ __ __ __ __ __ __
 72
    65
 73
     2
 40
0.000330
 49
0.000220
 49
-0.000110
  0
LTYPE
  2
HIDDEN
 70
    64
  3
 _ _ _ _ _ _ _ _ _ _ _ _ _ _ _ _ _ _ _ _ _ _
 72
    65
 73
     2
 40
0.000165
 49
0.000110
 49
-0.000055
  0
LTYPE
  2
CENTER
 70
    64
  3
____ _ ____ _ ____ _ ____ _ ____ _ ____ _ ____
 72
    65
 73
     4
 40
0.000880
 49
0.000550
 49
-0.000110
 49
0.000110
 49
-0.000110
  0
LTYPE
  2
PHANTOM
 70
    64
  3
_____ _ _ _____ _ _ _____ _ _ _____ _ _ ____
 72
    65
 73
     6
 40
0.001100
 49
0.000550
 49
-0.000110
 49
0.000110
 49
-0.000110
 49
0.000110
 49
-0.000110
  0
LTYPE
  2
DOT
 70
    64
  3
...............................................
 72
    65
 73
     2
 40
0.000110
 49
0.000000
 49
-0.000110
  0
LTYPE
  2
DASHDOT
 70
    64
  3
__ . __ . __ . __ . __ . __ . __ . __ . __ . __
 72
    65
 73
     4
 40
0.000440
 49
0.000220
 49
-0.000110
 49
0.000000
 49
-0.000110
  0
LTYPE
  2
BORDER
 70
    64
  3
__ __ . __ __ . __ __ . __ __ . __ __ . __ __
 72
    65
 73
     6
 40
0.000770
 49
0.000220
 49
-0.000110
 49
0.000220
 49
-0.000110
 49
0.000000
 49
-0.000110
  0
LTYPE
  2
DIVIDE
 70
    64
  3
__ . . __ . . __ . . __ . . __ . . __ . . __
 72
    65
 73
     6
 40
0.000550
 49
0.000220
 49
-0.000110
 49
0.000000
 49
-0.000110
 49
0.000000
 49
-0.000110
  0
LTYPE
  2
DOTDOT
 70
    64
  3
 . .  . .  . .  . .  . .  . . 
 72
    65
 73
     5
 40
0.000242
 49
-0.000110
 49
0.000000
 49
-0.000110
 49
0.000000
 49
-0.000110
  0
ENDTAB
  0
TABLE
  2
STYLE
 70
     2
  0
STYLE
 70
     0
  2
SN0
 40
0.000000
 41
0.000440
 50
0.000000
 71
     0
 42
0.000000
  3
ROMAND
  0
STYLE
 70
    68
  2
SV0
 40
0.000000
 41
0.000440
 50
0.000000
 71
     0
 42
0.000000
  3
ROMAND
  0
ENDTAB
  0
TABLE
  2
LAYER
 70
     3
  0
LAYER
  2
FOREGROUND
 70
    64
 62
     7
  6
CONTINUOUS
  0
LAYER
  2
BACKGROUND
 70
    65
 62
    -7
  6
CONTINUOUS
  0
LAYER
  2
0
 70
    64
 62
     7
  6
CONTINUOUS
  0
ENDTAB
  0
ENDSEC
  0
SECTION
  2
ENTITIES
  0
POLYLINE
  8
FOREGROUND
  6
CONTINUOUS
 66
     1
 40
0.000000
 41
0.000000
  0
VERTEX
  8
FOREGROUND
  6
CONTINUOUS
 10
0.000000
 20
4.884000
  0
VERTEX
  8
FOREGROUND
  6
CONTINUOUS
 10
8.499920
 20
4.884000
  0
VERTEX
  8
FOREGROUND
  6
CONTINUOUS
 10
8.499920
 20
-6.116000
  0
VERTEX
  8
FOREGROUND
  6
CONTINUOUS
 10
0.000000
 20
-6.116000
  0
VERTEX
  8
FOREGROUND
  6
CONTINUOUS
 10
0.000000
 20
4.884000
  0
SEQEND
  8
0
  0
POLYLINE
  8
FOREGROUND
  6
CONTINUOUS
 66
     1
 40
0.000000
 41
0.000000
  0
VERTEX
  8
FOREGROUND
  6
CONTINUOUS
 10
0.000000
 20
4.884000
  0
VERTEX
  8
FOREGROUND
  6
CONTINUOUS
 10
8.499920
 20
4.884000
  0
VERTEX
  8
FOREGROUND
  6
CONTINUOUS
 10
8.499920
 20
-6.116000
  0
VERTEX
  8
FOREGROUND
  6
CONTINUOUS
 10
0.000000
 20
-6.116000
  0
VERTEX
  8
FOREGROUND
  6
CONTINUOUS
 10
0.000000
 20
4.884000
  0
SEQEND
  8
0
  0
SOLID
  8
0
 62
    15
 10
5.287480
 20
2.225080
 11
5.291880
 21
2.970440
 12
5.348640
 22
2.214960
 13
5.353040
 23
2.960320
  0
POLYLINE
  8
0
  6
CONTINUOUS
 66
     1
 40
0.000000
 41
0.000000
  0
VERTEX
  8
0
  6
CONTINUOUS
 10
5.287480
 20
2.225080
  0
VERTEX
  8
0
  6
CONTINUOUS
 10
5.291880
 20
2.970440
  0
VERTEX
  8
0
  6
CONTINUOUS
 10
5.353040
 20
2.960320
  0
VERTEX
  8
0
  6
CONTINUOUS
 10
5.348640
 20
2.214960
  0
VERTEX
  8
0
  6
CONTINUOUS
 10
5.287480
 20
2.225080
  0
SEQEND
  8
0
  0
SOLID
  8
0
 62
    15
 10
4.803480
 20
1.855040
 11
4.807880
 21
2.600400
 12
4.808320
 22
1.937760
 13
4.812720
 23
2.683560
  0
POLYLINE
  8
0
  6
CONTINUOUS
 66
     1
 40
0.000000
 41
0.000000
  0
VERTEX
  8
0
  6
CONTINUOUS
 10
4.803480
 20
1.855040
  0
VERTEX
  8
0
  6
CONTINUOUS
 10
4.807880
 20
2.600400
  0
VERTEX
  8
0
  6
CONTINUOUS
 10
4.812720
 20
2.683560
  0
VERTEX
  8
0
  6
CONTINUOUS
 10
4.808320
 20
1.937760
  0
VERTEX
  8
0
  6
CONTINUOUS
 10
4.803480
 20
1.855040
  0
SEQEND
  8
0
  0
SOLID
  8
0
 62
    15
 10
4.808320
 20
1.937760
 11
4.812720
 21
2.683560
 12
4.823280
 22
2.013440
 13
4.827680
 23
2.758800
  0
POLYLINE
  8
0
  6
CONTINUOUS
 66
     1
 40
0.000000
 41
0.000000
  0
VERTEX
  8
0
  6
CONTINUOUS
 10
4.808320
 20
1.937760
  0
VERTEX
  8
0
  6
CONTINUOUS
 10
4.812720
 20
2.683560
  0
VERTEX
  8
0
  6
CONTINUOUS
 10
4.827680
 20
2.758800
  0
VERTEX
  8
0
  6
CONTINUOUS
 10
4.823280
 20
2.013440
  0
VERTEX
  8
0
  6
CONTINUOUS
 10
4.808320
 20
1.937760
  0
SEQEND
  8
0
  0
SOLID
  8
0
 62
    15
 10
4.823280
 20
2.013440
 11
4.827680
 21
2.758800
 12
4.847920
 22
2.080760
 13
4.851880
 23
2.826120
  0
POLYLINE
  8
0
  6
CONTINUOUS
 66
     1
 40
0.000000
 41
0.000000
  0
VERTEX
  8
0
  6
CONTINUOUS
 10
4.823280
 20
2.013440
  0
VERTEX
  8
0
  6
CONTINUOUS
 10
4.827680
 20
2.758800
  0
VERTEX
  8
0
  6
CONTINUOUS
 10
4.851880
 20
2.826120
  0
VERTEX
  8
0
  6
CONTINUOUS
 10
4.847920
 20
2.080760
  0
VERTEX
  8
0
  6
CONTINUOUS
 10
4.823280
 20
2.013440
  0
SEQEND
  8
0
  0
SOLID
  8
0
 62
    15
 10
4.847920
 20
2.080760
 11
4.851880
 21
2.826120
 12
4.880920
 22
2.137960
 13
4.885320
 23
2.883320
  0
POLYLINE
  8
0
  6
CONTINUOUS
 66
     1
 40
0.000000
 41
0.000000
  0
VERTEX
  8
0
  6
CONTINUOUS
 10
4.847920
 20
2.080760
  0
VERTEX
  8
0
  6
CONTINUOUS
 10
4.851880
 20
2.826120
  0
VERTEX
  8
0
  6
CONTINUOUS
 10
4.885320
 20
2.883320
  0
VERTEX
  8
0
  6
CONTINUOUS
 10
4.880920
 20
2.137960
  0
VERTEX
  8
0
  6
CONTINUOUS
 10
4.847920
 20
2.080760
  0
SEQEND
  8
0
  0
SOLID
  8
0
 62
    15
 10
4.880920
 20
2.137960
 11
4.885320
 21
2.883320
 12
4.923160
 22
2.184600
 13
4.927560
 23
2.929960
  0
POLYLINE
  8
0
  6
CONTINUOUS
 66
     1
 40
0.000000
 41
0.000000
  0
VERTEX
  8
0
  6
CONTINUOUS
 10
4.880920
 20
2.137960
  0
VERTEX
  8
0
  6
CONTINUOUS
 10
4.885320
 20
2.883320
  0
VERTEX
  8
0
  6
CONTINUOUS
 10
4.927560
 20
2.929960
  0
VERTEX
  8
0
  6
CONTINUOUS
 10
4.923160
 20
2.184600
  0
VERTEX
  8
0
  6
CONTINUOUS
 10
4.880920
 20
2.137960
  0
SEQEND
  8
0
  0
SOLID
  8
0
 62
    15
 10
4.923160
 20
2.184600
 11
4.927560
 21
2.929960
 12
4.973320
 22
2.218920
 13
4.977720
 23
2.964280
  0
POLYLINE
  8
0
  6
CONTINUOUS
 66
     1
 40
0.000000
 41
0.000000
  0
VERTEX
  8
0
  6
CONTINUOUS
 10
4.923160
 20
2.184600
  0
VERTEX
  8
0
  6
CONTINUOUS
 10
4.927560
 20
2.929960
  0
VERTEX
  8
0
  6
CONTINUOUS
 10
4.977720
 20
2.964280
  0
VERTEX
  8
0
  6
CONTINUOUS
 10
4.973320
 20
2.218920
  0
VERTEX
  8
0
  6
CONTINUOUS
 10
4.923160
 20
2.184600
  0
SEQEND
  8
0
  0
SOLID
  8
0
 62
    15
 10
4.973320
 20
2.218920
 11
4.977720
 21
2.964280
 12
5.030960
 22
2.240480
 13
5.035360
 23
2.985840
  0
POLYLINE
  8
0
  6
CONTINUOUS
 66
     1
 40
0.000000
 41
0.000000
  0
VERTEX
  8
0
  6
CONTINUOUS
 10
4.973320
 20
2.218920
  0
VERTEX
  8
0
  6
CONTINUOUS
 10
4.977720
 20
2.964280
  0
VERTEX
  8
0
  6
CONTINUOUS
 10
5.035360
 20
2.985840
  0
VERTEX
  8
0
  6
CONTINUOUS
 10
5.030960
 20
2.240480
  0
VERTEX
  8
0
  6
CONTINUOUS
 10
4.973320
 20
2.218920
  0
SEQEND
  8
0
  0
SOLID
  8
0
 62
    15
 10
5.030960
 20
2.240480
 11
5.035360
 21
2.985840
 12
5.096080
 22
2.247960
 13
5.100480
 23
2.993320
  0
POLYLINE
  8
0
  6
CONTINUOUS
 66
     1
 40
0.000000
 41
0.000000
  0
VERTEX
  8
0
  6
CONTINUOUS
 10
5.030960
 20
2.240480
  0
VERTEX
  8
0
  6
CONTINUOUS
 10
5.035360
 20
2.985840
  0
VERTEX
  8
0
  6
CONTINUOUS
 10
5.100480
 20
2.993320
  0
VERTEX
  8
0
  6
CONTINUOUS
 10
5.096080
 20
2.247960
  0
VERTEX
  8
0
  6
CONTINUOUS
 10
5.030960
 20
2.240480
  0
SEQEND
  8
0
  0
SOLID
  8
0
 62
    15
 10
5.096080
 20
2.247960
 11
5.100480
 21
2.993320
 12
5.117640
 22
2.247080
 13
5.122040
 23
2.992440
  0
POLYLINE
  8
0
  6
CONTINUOUS
 66
     1
 40
0.000000
 41
0.000000
  0
VERTEX
  8
0
  6
CONTINUOUS
 10
5.096080
 20
2.247960
  0
VERTEX
  8
0
  6
CONTINUOUS
 10
5.100480
 20
2.993320
  0
VERTEX
  8
0
  6
CONTINUOUS
 10
5.122040
 20
2.992440
  0
VERTEX
  8
0
  6
CONTINUOUS
 10
5.117640
 20
2.247080
  0
VERTEX
  8
0
  6
CONTINUOUS
 10
5.096080
 20
2.247960
  0
SEQEND
  8
0
  0
SOLID
  8
0
 62
    15
 10
5.117640
 20
2.247080
 11
5.122040
 21
2.992440
 12
5.148000
 22
2.244440
 13
5.152400
 23
2.989800
  0
POLYLINE
  8
0
  6
CONTINUOUS
 66
     1
 40
0.000000
 41
0.000000
  0
VERTEX
  8
0
  6
CONTINUOUS
 10
5.117640
 20
2.247080
  0
VERTEX
  8
0
  6
CONTINUOUS
 10
5.122040
 20
2.992440
  0
VERTEX
  8
0
  6
CONTINUOUS
 10
5.152400
 20
2.989800
  0
VERTEX
  8
0
  6
CONTINUOUS
 10
5.148000
 20
2.244440
  0
VERTEX
  8
0
  6
CONTINUOUS
 10
5.117640
 20
2.247080
  0
SEQEND
  8
0
  0
SOLID
  8
0
 62
    15
 10
5.148000
 20
2.244440
 11
5.152400
 21
2.989800
 12
5.186720
 22
2.239600
 13
5.191120
 23
2.985400
  0
POLYLINE
  8
0
  6
CONTINUOUS
 66
     1
 40
0.000000
 41
0.000000
  0
VERTEX
  8
0
  6
CONTINUOUS
 10
5.148000
 20
2.244440
  0
VERTEX
  8
0
  6
CONTINUOUS
 10
5.152400
 20
2.989800
  0
VERTEX
  8
0
  6
CONTINUOUS
 10
5.191120
 20
2.985400
  0
VERTEX
  8
0
  6
CONTINUOUS
 10
5.186720
 20
2.239600
  0
VERTEX
  8
0
  6
CONTINUOUS
 10
5.148000
 20
2.244440
  0
SEQEND
  8
0
  0
SOLID
  8
0
 62
    15
 10
5.186720
 20
2.239600
 11
5.191120
 21
2.985400
 12
5.233800
 22
2.233440
 13
5.237760
 23
2.978800
  0
POLYLINE
  8
0
  6
CONTINUOUS
 66
     1
 40
0.000000
 41
0.000000
  0
VERTEX
  8
0
  6
CONTINUOUS
 10
5.186720
 20
2.239600
  0
VERTEX
  8
0
  6
CONTINUOUS
 10
5.191120
 20
2.985400
  0
VERTEX
  8
0
  6
CONTINUOUS
 10
5.237760
 20
2.978800
  0
VERTEX
  8
0
  6
CONTINUOUS
 10
5.233800
 20
2.233440
  0
VERTEX
  8
0
  6
CONTINUOUS
 10
5.186720
 20
2.239600
  0
SEQEND
  8
0
  0
SOLID
  8
0
 62
    15
 10
5.233800
 20
2.233440
 11
5.237760
 21
2.978800
 12
5.287480
 22
2.225080
 13
5.291880
 23
2.970440
  0
POLYLINE
  8
0
  6
CONTINUOUS
 66
     1
 40
0.000000
 41
0.000000
  0
VERTEX
  8
0
  6
CONTINUOUS
 10
5.233800
 20
2.233440
  0
VERTEX
  8
0
  6
CONTINUOUS
 10
5.237760
 20
2.978800
  0
VERTEX
  8
0
  6
CONTINUOUS
 10
5.291880
 20
2.970440
  0
VERTEX
  8
0
  6
CONTINUOUS
 10
5.287480
 20
2.225080
  0
VERTEX
  8
0
  6
CONTINUOUS
 10
5.233800
 20
2.233440
  0
SEQEND
  8
0
  0
SOLID
  8
0
 62
    15
 10
7.990840
 20
1.285240
 11
7.994800
 21
2.030600
 12
7.990840
 22
1.010240
 13
7.994800
 23
1.755600
  0
POLYLINE
  8
0
  6
CONTINUOUS
 66
     1
 40
0.000000
 41
0.000000
  0
VERTEX
  8
0
  6
CONTINUOUS
 10
7.990840
 20
1.285240
  0
VERTEX
  8
0
  6
CONTINUOUS
 10
7.994800
 20
2.030600
  0
VERTEX
  8
0
  6
CONTINUOUS
 10
7.994800
 20
1.755600
  0
VERTEX
  8
0
  6
CONTINUOUS
 10
7.990840
 20
1.010240
  0
VERTEX
  8
0
  6
CONTINUOUS
 10
7.990840
 20
1.285240
  0
SEQEND
  8
0
  0
SOLID
  8
0
 62
    15
 10
5.348640
 20
2.214960
 11
5.353040
 21
2.960320
 12
5.416400
 22
2.203080
 13
5.420800
 23
2.948440
  0
POLYLINE
  8
0
  6
CONTINUOUS
 66
     1
 40
0.000000
 41
0.000000
  0
VERTEX
  8
0
  6
CONTINUOUS
 10
5.348640
 20
2.214960
  0
VERTEX
  8
0
  6
CONTINUOUS
 10
5.353040
 20
2.960320
  0
VERTEX
  8
0
  6
CONTINUOUS
 10
5.420800
 20
2.948440
  0
VERTEX
  8
0
  6
CONTINUOUS
 10
5.416400
 20
2.203080
  0
VERTEX
  8
0
  6
CONTINUOUS
 10
5.348640
 20
2.214960
  0
SEQEND
  8
0
  0
SOLID
  8
0
 62
    15
 10
5.416400
 20
2.203080
 11
5.420800
 21
2.948440
 12
5.490320
 22
2.189000
 13
5.494720
 23
2.934360
  0
POLYLINE
  8
0
  6
CONTINUOUS
 66
     1
 40
0.000000
 41
0.000000
  0
VERTEX
  8
0
  6
CONTINUOUS
 10
5.416400
 20
2.203080
  0
VERTEX
  8
0
  6
CONTINUOUS
 10
5.420800
 20
2.948440
  0
VERTEX
  8
0
  6
CONTINUOUS
 10
5.494720
 20
2.934360
  0
VERTEX
  8
0
  6
CONTINUOUS
 10
5.490320
 20
2.189000
  0
VERTEX
  8
0
  6
CONTINUOUS
 10
5.416400
 20
2.203080
  0
SEQEND
  8
0
  0
SOLID
  8
0
 62
    15
 10
5.490320
 20
2.189000
 11
5.494720
 21
2.934360
 12
5.654880
 22
2.156000
 13
5.659280
 23
2.901360
  0
POLYLINE
  8
0
  6
CONTINUOUS
 66
     1
 40
0.000000
 41
0.000000
  0
VERTEX
  8
0
  6
CONTINUOUS
 10
5.490320
 20
2.189000
  0
VERTEX
  8
0
  6
CONTINUOUS
 10
5.494720
 20
2.934360
  0
VERTEX
  8
0
  6
CONTINUOUS
 10
5.659280
 20
2.901360
  0
VERTEX
  8
0
  6
CONTINUOUS
 10
5.654880
 20
2.156000
  0
VERTEX
  8
0
  6
CONTINUOUS
 10
5.490320
 20
2.189000
  0
SEQEND
  8
0
  0
SOLID
  8
0
 62
    15
 10
5.654880
 20
2.156000
 11
5.659280
 21
2.901360
 12
5.839240
 22
2.115080
 13
5.843640
 23
2.860440
  0
POLYLINE
  8
0
  6
CONTINUOUS
 66
     1
 40
0.000000
 41
0.000000
  0
VERTEX
  8
0
  6
CONTINUOUS
 10
5.654880
 20
2.156000
  0
VERTEX
  8
0
  6
CONTINUOUS
 10
5.659280
 20
2.901360
  0
VERTEX
  8
0
  6
CONTINUOUS
 10
5.843640
 20
2.860440
  0
VERTEX
  8
0
  6
CONTINUOUS
 10
5.839240
 20
2.115080
  0
VERTEX
  8
0
  6
CONTINUOUS
 10
5.654880
 20
2.156000
  0
SEQEND
  8
0
  0
SOLID
  8
0
 62
    15
 10
5.839240
 20
2.115080
 11
5.843640
 21
2.860440
 12
6.039440
 22
2.066680
 13
6.043840
 23
2.812040
  0
POLYLINE
  8
0
  6
CONTINUOUS
 66
     1
 40
0.000000
 41
0.000000
  0
VERTEX
  8
0
  6
CONTINUOUS
 10
5.839240
 20
2.115080
  0
VERTEX
  8
0
  6
CONTINUOUS
 10
5.843640
 20
2.860440
  0
VERTEX
  8
0
  6
CONTINUOUS
 10
6.043840
 20
2.812040
  0
VERTEX
  8
0
  6
CONTINUOUS
 10
6.039440
 20
2.066680
  0
VERTEX
  8
0
  6
CONTINUOUS
 10
5.839240
 20
2.115080
  0
SEQEND
  8
0
  0
SOLID
  8
0
 62
    15
 10
6.039440
 20
2.066680
 11
6.043840
 21
2.812040
 12
6.251960
 22
2.010800
 13
6.256360
 23
2.756160
  0
POLYLINE
  8
0
  6
CONTINUOUS
 66
     1
 40
0.000000
 41
0.000000
  0
VERTEX
  8
0
  6
CONTINUOUS
 10
6.039440
 20
2.066680
  0
VERTEX
  8
0
  6
CONTINUOUS
 10
6.043840
 20
2.812040
  0
VERTEX
  8
0
  6
CONTINUOUS
 10
6.256360
 20
2.756160
  0
VERTEX
  8
0
  6
CONTINUOUS
 10
6.251960
 20
2.010800
  0
VERTEX
  8
0
  6
CONTINUOUS
 10
6.039440
 20
2.066680
  0
SEQEND
  8
0
  0
SOLID
  8
0
 62
    15
 10
6.251960
 20
2.010800
 11
6.256360
 21
2.756160
 12
6.473720
 22
1.947440
 13
6.478120
 23
2.692800
  0
POLYLINE
  8
0
  6
CONTINUOUS
 66
     1
 40
0.000000
 41
0.000000
  0
VERTEX
  8
0
  6
CONTINUOUS
 10
6.251960
 20
2.010800
  0
VERTEX
  8
0
  6
CONTINUOUS
 10
6.256360
 20
2.756160
  0
VERTEX
  8
0
  6
CONTINUOUS
 10
6.478120
 20
2.692800
  0
VERTEX
  8
0
  6
CONTINUOUS
 10
6.473720
 20
1.947440
  0
VERTEX
  8
0
  6
CONTINUOUS
 10
6.251960
 20
2.010800
  0
SEQEND
  8
0
  0
SOLID
  8
0
 62
    15
 10
6.473720
 20
1.947440
 11
6.478120
 21
2.692800
 12
6.701200
 22
1.876160
 13
6.705600
 23
2.621520
  0
POLYLINE
  8
0
  6
CONTINUOUS
 66
     1
 40
0.000000
 41
0.000000
  0
VERTEX
  8
0
  6
CONTINUOUS
 10
6.473720
 20
1.947440
  0
VERTEX
  8
0
  6
CONTINUOUS
 10
6.478120
 20
2.692800
  0
VERTEX
  8
0
  6
CONTINUOUS
 10
6.705600
 20
2.621520
  0
VERTEX
  8
0
  6
CONTINUOUS
 10
6.701200
 20
1.876160
  0
VERTEX
  8
0
  6
CONTINUOUS
 10
6.473720
 20
1.947440
  0
SEQEND
  8
0
  0
SOLID
  8
0
 62
    15
 10
6.701200
 20
1.876160
 11
6.705600
 21
2.621520
 12
6.930880
 22
1.797400
 13
6.935280
 23
2.542760
  0
POLYLINE
  8
0
  6
CONTINUOUS
 66
     1
 40
0.000000
 41
0.000000
  0
VERTEX
  8
0
  6
CONTINUOUS
 10
6.701200
 20
1.876160
  0
VERTEX
  8
0
  6
CONTINUOUS
 10
6.705600
 20
2.621520
  0
VERTEX
  8
0
  6
CONTINUOUS
 10
6.935280
 20
2.542760
  0
VERTEX
  8
0
  6
CONTINUOUS
 10
6.930880
 20
1.797400
  0
VERTEX
  8
0
  6
CONTINUOUS
 10
6.701200
 20
1.876160
  0
SEQEND
  8
0
  0
SOLID
  8
0
 62
    15
 10
6.930880
 20
1.797400
 11
6.935280
 21
2.542760
 12
7.159240
 22
1.710720
 13
7.163640
 23
2.456080
  0
POLYLINE
  8
0
  6
CONTINUOUS
 66
     1
 40
0.000000
 41
0.000000
  0
VERTEX
  8
0
  6
CONTINUOUS
 10
6.930880
 20
1.797400
  0
VERTEX
  8
0
  6
CONTINUOUS
 10
6.935280
 20
2.542760
  0
VERTEX
  8
0
  6
CONTINUOUS
 10
7.163640
 20
2.456080
  0
VERTEX
  8
0
  6
CONTINUOUS
 10
7.159240
 20
1.710720
  0
VERTEX
  8
0
  6
CONTINUOUS
 10
6.930880
 20
1.797400
  0
SEQEND
  8
0
  0
SOLID
  8
0
 62
    15
 10
7.159240
 20
1.710720
 11
7.163640
 21
2.456080
 12
7.382760
 22
1.616120
 13
7.387160
 23
2.361480
  0
POLYLINE
  8
0
  6
CONTINUOUS
 66
     1
 40
0.000000
 41
0.000000
  0
VERTEX
  8
0
  6
CONTINUOUS
 10
7.159240
 20
1.710720
  0
VERTEX
  8
0
  6
CONTINUOUS
 10
7.163640
 20
2.456080
  0
VERTEX
  8
0
  6
CONTINUOUS
 10
7.387160
 20
2.361480
  0
VERTEX
  8
0
  6
CONTINUOUS
 10
7.382760
 20
1.616120
  0
VERTEX
  8
0
  6
CONTINUOUS
 10
7.159240
 20
1.710720
  0
SEQEND
  8
0
  0
SOLID
  8
0
 62
    15
 10
7.382760
 20
1.616120
 11
7.387160
 21
2.361480
 12
7.598360
 22
1.514040
 13
7.602760
 23
2.259400
  0
POLYLINE
  8
0
  6
CONTINUOUS
 66
     1
 40
0.000000
 41
0.000000
  0
VERTEX
  8
0
  6
CONTINUOUS
 10
7.382760
 20
1.616120
  0
VERTEX
  8
0
  6
CONTINUOUS
 10
7.387160
 20
2.361480
  0
VERTEX
  8
0
  6
CONTINUOUS
 10
7.602760
 20
2.259400
  0
VERTEX
  8
0
  6
CONTINUOUS
 10
7.598360
 20
1.514040
  0
VERTEX
  8
0
  6
CONTINUOUS
 10
7.382760
 20
1.616120
  0
SEQEND
  8
0
  0
SOLID
  8
0
 62
    15
 10
7.598360
 20
1.514040
 11
7.602760
 21
2.259400
 12
7.802080
 22
1.403600
 13
7.806480
 23
2.149400
  0
POLYLINE
  8
0
  6
CONTINUOUS
 66
     1
 40
0.000000
 41
0.000000
  0
VERTEX
  8
0
  6
CONTINUOUS
 10
7.598360
 20
1.514040
  0
VERTEX
  8
0
  6
CONTINUOUS
 10
7.602760
 20
2.259400
  0
VERTEX
  8
0
  6
CONTINUOUS
 10
7.806480
 20
2.149400
  0
VERTEX
  8
0
  6
CONTINUOUS
 10
7.802080
 20
1.403600
  0
VERTEX
  8
0
  6
CONTINUOUS
 10
7.598360
 20
1.514040
  0
SEQEND
  8
0
  0
SOLID
  8
0
 62
    15
 10
7.802080
 20
1.403600
 11
7.806480
 21
2.149400
 12
7.991280
 22
1.285680
 13
7.995240
 23
2.031040
  0
POLYLINE
  8
0
  6
CONTINUOUS
 66
     1
 40
0.000000
 41
0.000000
  0
VERTEX
  8
0
  6
CONTINUOUS
 10
7.802080
 20
1.403600
  0
VERTEX
  8
0
  6
CONTINUOUS
 10
7.806480
 20
2.149400
  0
VERTEX
  8
0
  6
CONTINUOUS
 10
7.995240
 20
2.031040
  0
VERTEX
  8
0
  6
CONTINUOUS
 10
7.991280
 20
1.285680
  0
VERTEX
  8
0
  6
CONTINUOUS
 10
7.802080
 20
1.403600
  0
SEQEND
  8
0
  0
POLYLINE
  8
0
  6
CONTINUOUS
 66
     1
 40
0.000000
 41
0.000000
  0
VERTEX
  8
0
  6
CONTINUOUS
 10
7.990840
 20
1.285240
  0
VERTEX
  8
0
  6
CONTINUOUS
 10
7.990840
 20
1.010240
  0
VERTEX
  8
0
  6
CONTINUOUS
 10
4.803480
 20
1.010240
  0
VERTEX
  8
0
  6
CONTINUOUS
 10
4.803480
 20
1.855040
  0
VERTEX
  8
0
  6
CONTINUOUS
 10
4.808320
 20
1.937760
  0
VERTEX
  8
0
  6
CONTINUOUS
 10
4.823280
 20
2.013440
  0
VERTEX
  8
0
  6
CONTINUOUS
 10
4.847920
 20
2.080760
  0
VERTEX
  8
0
  6
CONTINUOUS
 10
4.880920
 20
2.137960
  0
VERTEX
  8
0
  6
CONTINUOUS
 10
4.923160
 20
2.184600
  0
VERTEX
  8
0
  6
CONTINUOUS
 10
4.973320
 20
2.218920
  0
VERTEX
  8
0
  6
CONTINUOUS
 10
5.030960
 20
2.240480
  0
VERTEX
  8
0
  6
CONTINUOUS
 10
5.096080
 20
2.247960
  0
VERTEX
  8
0
  6
CONTINUOUS
 10
5.117640
 20
2.247080
  0
VERTEX
  8
0
  6
CONTINUOUS
 10
5.148000
 20
2.244440
  0
VERTEX
  8
0
  6
CONTINUOUS
 10
5.186720
 20
2.239600
  0
VERTEX
  8
0
  6
CONTINUOUS
 10
5.233800
 20
2.233440
  0
VERTEX
  8
0
  6
CONTINUOUS
 10
5.287480
 20
2.225080
  0
VERTEX
  8
0
  6
CONTINUOUS
 10
5.348640
 20
2.214960
  0
VERTEX
  8
0
  6
CONTINUOUS
 10
5.416400
 20
2.203080
  0
VERTEX
  8
0
  6
CONTINUOUS
 10
5.490320
 20
2.189000
  0
VERTEX
  8
0
  6
CONTINUOUS
 10
5.654880
 20
2.156000
  0
VERTEX
  8
0
  6
CONTINUOUS
 10
5.839240
 20
2.115080
  0
VERTEX
  8
0
  6
CONTINUOUS
 10
6.039440
 20
2.066680
  0
VERTEX
  8
0
  6
CONTINUOUS
 10
6.251960
 20
2.010800
  0
VERTEX
  8
0
  6
CONTINUOUS
 10
6.473720
 20
1.947440
  0
VERTEX
  8
0
  6
CONTINUOUS
 10
6.701200
 20
1.876160
  0
VERTEX
  8
0
  6
CONTINUOUS
 10
6.930880
 20
1.797400
  0
VERTEX
  8
0
  6
CONTINUOUS
 10
7.159240
 20
1.710720
  0
VERTEX
  8
0
  6
CONTINUOUS
 10
7.382760
 20
1.616120
  0
VERTEX
  8
0
  6
CONTINUOUS
 10
7.598360
 20
1.514040
  0
VERTEX
  8
0
  6
CONTINUOUS
 10
7.802080
 20
1.403600
  0
VERTEX
  8
0
  6
CONTINUOUS
 10
7.991280
 20
1.285680
  0
VERTEX
  8
0
  6
CONTINUOUS
 10
7.990840
 20
1.285240
  0
SEQEND
  8
0
  0
TEXT
  8
0
 10
6.103680
 20
0.785840
 40
0.138152
  1
BA  995
 41
1.000000
  7
SN0
 71
     0
 72
     5
 11
6.693100
 21
0.785840
  0
TEXT
  8
0
 10
5.827800
 20
0.594440
 40
0.138152
  1
1-1/4" x 3-3/16"
 41
1.000000
  7
SN0
 71
     0
 72
     5
 11
6.966789
 21
0.594440
  0
POLYLINE
  8
0
  6
CONTINUOUS
 66
     1
 40
0.014080
 41
0.014080
  0
VERTEX
  8
0
  6
CONTINUOUS
 10
7.960920
 20
3.367320
  0
VERTEX
  8
0
  6
CONTINUOUS
 10
7.868520
 20
3.427160
  0
VERTEX
  8
0
  6
CONTINUOUS
 10
7.772160
 20
3.485240
  0
VERTEX
  8
0
  6
CONTINUOUS
 10
7.620360
 20
3.568400
  0
VERTEX
  8
0
  6
CONTINUOUS
 10
7.461960
 20
3.647600
  0
VERTEX
  8
0
  6
CONTINUOUS
 10
7.297840
 20
3.721960
  0
VERTEX
  8
0
  6
CONTINUOUS
 10
7.129320
 20
3.791920
  0
VERTEX
  8
0
  6
CONTINUOUS
 10
7.015360
 20
3.836360
  0
VERTEX
  8
0
  6
CONTINUOUS
 10
6.900960
 20
3.878600
  0
VERTEX
  8
0
  6
CONTINUOUS
 10
6.786120
 20
3.919080
  0
VERTEX
  8
0
  6
CONTINUOUS
 10
6.557320
 20
3.994320
  0
VERTEX
  8
0
  6
CONTINUOUS
 10
6.332040
 20
4.061640
  0
VERTEX
  8
0
  6
CONTINUOUS
 10
6.167920
 20
4.106960
  0
VERTEX
  8
0
  6
CONTINUOUS
 10
5.958040
 20
4.161080
  0
VERTEX
  8
0
  6
CONTINUOUS
 10
5.761800
 20
4.207720
  0
VERTEX
  8
0
  6
CONTINUOUS
 10
5.500000
 20
4.263160
  0
VERTEX
  8
0
  6
CONTINUOUS
 10
5.319160
 20
4.296600
  0
VERTEX
  8
0
  6
CONTINUOUS
 10
5.179240
 20
4.318160
  0
VERTEX
  8
0
  6
CONTINUOUS
 10
5.101800
 20
4.327400
  0
VERTEX
  8
0
  6
CONTINUOUS
 10
5.066160
 20
4.329600
  0
VERTEX
  8
0
  6
CONTINUOUS
 10
5.032720
 20
4.327840
  0
VERTEX
  8
0
  6
CONTINUOUS
 10
5.001040
 20
4.322120
  0
VERTEX
  8
0
  6
CONTINUOUS
 10
4.971120
 20
4.312880
  0
VERTEX
  8
0
  6
CONTINUOUS
 10
4.943400
 20
4.300560
  0
VERTEX
  8
0
  6
CONTINUOUS
 10
4.917000
 20
4.284720
  0
VERTEX
  8
0
  6
CONTINUOUS
 10
4.881800
 20
4.255240
  0
VERTEX
  8
0
  6
CONTINUOUS
 10
4.861120
 20
4.231920
  0
VERTEX
  8
0
  6
CONTINUOUS
 10
4.833400
 20
4.191880
  0
VERTEX
  8
0
  6
CONTINUOUS
 10
4.810960
 20
4.146120
  0
VERTEX
  8
0
  6
CONTINUOUS
 10
4.798640
 20
4.112680
  0
VERTEX
  8
0
  6
CONTINUOUS
 10
4.788960
 20
4.077040
  0
VERTEX
  8
0
  6
CONTINUOUS
 10
4.781480
 20
4.039200
  0
VERTEX
  8
0
  6
CONTINUOUS
 10
4.776200
 20
3.999160
  0
VERTEX
  8
0
  6
CONTINUOUS
 10
4.773560
 20
3.936240
  0
VERTEX
  8
0
  6
CONTINUOUS
 10
4.773560
 20
3.091440
  0
VERTEX
  8
0
  6
CONTINUOUS
 10
7.960480
 20
3.091440
  0
VERTEX
  8
0
  6
CONTINUOUS
 10
7.960920
 20
3.367320
  0
SEQEND
  8
0
  0
TEXT
  8
0
 10
5.894240
 20
3.393720
 40
0.138152
  1
BA  995
 41
1.000000
  7
SN0
 71
     0
 72
     5
 11
6.483660
 21
3.393720
  0
TEXT
  8
0
 10
5.618360
 20
3.201880
 40
0.138152
  1
1-1/4" x 3-3/16"
 41
1.000000
  7
SN0
 71
     0
 72
     5
 11
6.757349
 21
3.201880
  0
SOLID
  8
0
 62
    15
 10
1.235080
 20
1.844480
 11
1.239480
 21
1.099120
 12
1.296240
 22
1.855040
 13
1.300640
 23
1.109240
  0
POLYLINE
  8
0
  6
CONTINUOUS
 66
     1
 40
0.000000
 41
0.000000
  0
VERTEX
  8
0
  6
CONTINUOUS
 10
1.235080
 20
1.844480
  0
VERTEX
  8
0
  6
CONTINUOUS
 10
1.239480
 20
1.099120
  0
VERTEX
  8
0
  6
CONTINUOUS
 10
1.300640
 20
1.109240
  0
VERTEX
  8
0
  6
CONTINUOUS
 10
1.296240
 20
1.855040
  0
VERTEX
  8
0
  6
CONTINUOUS
 10
1.235080
 20
1.844480
  0
SEQEND
  8
0
  0
SOLID
  8
0
 62
    15
 10
0.751080
 20
2.214960
 11
0.755480
 21
1.469600
 12
0.755920
 22
2.131800
 13
0.760320
 23
1.386440
  0
POLYLINE
  8
0
  6
CONTINUOUS
 66
     1
 40
0.000000
 41
0.000000
  0
VERTEX
  8
0
  6
CONTINUOUS
 10
0.751080
 20
2.214960
  0
VERTEX
  8
0
  6
CONTINUOUS
 10
0.755480
 20
1.469600
  0
VERTEX
  8
0
  6
CONTINUOUS
 10
0.760320
 20
1.386440
  0
VERTEX
  8
0
  6
CONTINUOUS
 10
0.755920
 20
2.131800
  0
VERTEX
  8
0
  6
CONTINUOUS
 10
0.751080
 20
2.214960
  0
SEQEND
  8
0
  0
SOLID
  8
0
 62
    15
 10
0.755920
 20
2.131800
 11
0.760320
 21
1.386440
 12
0.770880
 22
2.056120
 13
0.775280
 23
1.310760
  0
POLYLINE
  8
0
  6
CONTINUOUS
 66
     1
 40
0.000000
 41
0.000000
  0
VERTEX
  8
0
  6
CONTINUOUS
 10
0.755920
 20
2.131800
  0
VERTEX
  8
0
  6
CONTINUOUS
 10
0.760320
 20
1.386440
  0
VERTEX
  8
0
  6
CONTINUOUS
 10
0.775280
 20
1.310760
  0
VERTEX
  8
0
  6
CONTINUOUS
 10
0.770880
 20
2.056120
  0
VERTEX
  8
0
  6
CONTINUOUS
 10
0.755920
 20
2.131800
  0
SEQEND
  8
0
  0
SOLID
  8
0
 62
    15
 10
0.770880
 20
2.056120
 11
0.775280
 21
1.310760
 12
0.795520
 22
1.989240
 13
0.799480
 23
1.243880
  0
POLYLINE
  8
0
  6
CONTINUOUS
 66
     1
 40
0.000000
 41
0.000000
  0
VERTEX
  8
0
  6
CONTINUOUS
 10
0.770880
 20
2.056120
  0
VERTEX
  8
0
  6
CONTINUOUS
 10
0.775280
 20
1.310760
  0
VERTEX
  8
0
  6
CONTINUOUS
 10
0.799480
 20
1.243880
  0
VERTEX
  8
0
  6
CONTINUOUS
 10
0.795520
 20
1.989240
  0
VERTEX
  8
0
  6
CONTINUOUS
 10
0.770880
 20
2.056120
  0
SEQEND
  8
0
  0
SOLID
  8
0
 62
    15
 10
0.795520
 20
1.989240
 11
0.799480
 21
1.243880
 12
0.828520
 22
1.932040
 13
0.832920
 23
1.186680
  0
POLYLINE
  8
0
  6
CONTINUOUS
 66
     1
 40
0.000000
 41
0.000000
  0
VERTEX
  8
0
  6
CONTINUOUS
 10
0.795520
 20
1.989240
  0
VERTEX
  8
0
  6
CONTINUOUS
 10
0.799480
 20
1.243880
  0
VERTEX
  8
0
  6
CONTINUOUS
 10
0.832920
 20
1.186680
  0
VERTEX
  8
0
  6
CONTINUOUS
 10
0.828520
 20
1.932040
  0
VERTEX
  8
0
  6
CONTINUOUS
 10
0.795520
 20
1.989240
  0
SEQEND
  8
0
  0
SOLID
  8
0
 62
    15
 10
0.828520
 20
1.932040
 11
0.832920
 21
1.186680
 12
0.870760
 22
1.885400
 13
0.875160
 23
1.140040
  0
POLYLINE
  8
0
  6
CONTINUOUS
 66
     1
 40
0.000000
 41
0.000000
  0
VERTEX
  8
0
  6
CONTINUOUS
 10
0.828520
 20
1.932040
  0
VERTEX
  8
0
  6
CONTINUOUS
 10
0.832920
 20
1.186680
  0
VERTEX
  8
0
  6
CONTINUOUS
 10
0.875160
 20
1.140040
  0
VERTEX
  8
0
  6
CONTINUOUS
 10
0.870760
 20
1.885400
  0
VERTEX
  8
0
  6
CONTINUOUS
 10
0.828520
 20
1.932040
  0
SEQEND
  8
0
  0
SOLID
  8
0
 62
    15
 10
0.870760
 20
1.885400
 11
0.875160
 21
1.140040
 12
0.920920
 22
1.850640
 13
0.925320
 23
1.105280
  0
POLYLINE
  8
0
  6
CONTINUOUS
 66
     1
 40
0.000000
 41
0.000000
  0
VERTEX
  8
0
  6
CONTINUOUS
 10
0.870760
 20
1.885400
  0
VERTEX
  8
0
  6
CONTINUOUS
 10
0.875160
 20
1.140040
  0
VERTEX
  8
0
  6
CONTINUOUS
 10
0.925320
 20
1.105280
  0
VERTEX
  8
0
  6
CONTINUOUS
 10
0.920920
 20
1.850640
  0
VERTEX
  8
0
  6
CONTINUOUS
 10
0.870760
 20
1.885400
  0
SEQEND
  8
0
  0
SOLID
  8
0
 62
    15
 10
0.920920
 20
1.850640
 11
0.925320
 21
1.105280
 12
0.978560
 22
1.829080
 13
0.982960
 23
1.083720
  0
POLYLINE
  8
0
  6
CONTINUOUS
 66
     1
 40
0.000000
 41
0.000000
  0
VERTEX
  8
0
  6
CONTINUOUS
 10
0.920920
 20
1.850640
  0
VERTEX
  8
0
  6
CONTINUOUS
 10
0.925320
 20
1.105280
  0
VERTEX
  8
0
  6
CONTINUOUS
 10
0.982960
 20
1.083720
  0
VERTEX
  8
0
  6
CONTINUOUS
 10
0.978560
 20
1.829080
  0
VERTEX
  8
0
  6
CONTINUOUS
 10
0.920920
 20
1.850640
  0
SEQEND
  8
0
  0
SOLID
  8
0
 62
    15
 10
0.978560
 20
1.829080
 11
0.982960
 21
1.083720
 12
1.043680
 22
1.822040
 13
1.048080
 23
1.076240
  0
POLYLINE
  8
0
  6
CONTINUOUS
 66
     1
 40
0.000000
 41
0.000000
  0
VERTEX
  8
0
  6
CONTINUOUS
 10
0.978560
 20
1.829080
  0
VERTEX
  8
0
  6
CONTINUOUS
 10
0.982960
 20
1.083720
  0
VERTEX
  8
0
  6
CONTINUOUS
 10
1.048080
 20
1.076240
  0
VERTEX
  8
0
  6
CONTINUOUS
 10
1.043680
 20
1.822040
  0
VERTEX
  8
0
  6
CONTINUOUS
 10
0.978560
 20
1.829080
  0
SEQEND
  8
0
  0
SOLID
  8
0
 62
    15
 10
1.043680
 20
1.822040
 11
1.048080
 21
1.076240
 12
1.065240
 22
1.822920
 13
1.069640
 23
1.077120
  0
POLYLINE
  8
0
  6
CONTINUOUS
 66
     1
 40
0.000000
 41
0.000000
  0
VERTEX
  8
0
  6
CONTINUOUS
 10
1.043680
 20
1.822040
  0
VERTEX
  8
0
  6
CONTINUOUS
 10
1.048080
 20
1.076240
  0
VERTEX
  8
0
  6
CONTINUOUS
 10
1.069640
 20
1.077120
  0
VERTEX
  8
0
  6
CONTINUOUS
 10
1.065240
 20
1.822920
  0
VERTEX
  8
0
  6
CONTINUOUS
 10
1.043680
 20
1.822040
  0
SEQEND
  8
0
  0
SOLID
  8
0
 62
    15
 10
1.065240
 20
1.822920
 11
1.069640
 21
1.077120
 12
1.095600
 22
1.825560
 13
1.100000
 23
1.080200
  0
POLYLINE
  8
0
  6
CONTINUOUS
 66
     1
 40
0.000000
 41
0.000000
  0
VERTEX
  8
0
  6
CONTINUOUS
 10
1.065240
 20
1.822920
  0
VERTEX
  8
0
  6
CONTINUOUS
 10
1.069640
 20
1.077120
  0
VERTEX
  8
0
  6
CONTINUOUS
 10
1.100000
 20
1.080200
  0
VERTEX
  8
0
  6
CONTINUOUS
 10
1.095600
 20
1.825560
  0
VERTEX
  8
0
  6
CONTINUOUS
 10
1.065240
 20
1.822920
  0
SEQEND
  8
0
  0
SOLID
  8
0
 62
    15
 10
1.095600
 20
1.825560
 11
1.100000
 21
1.080200
 12
1.134320
 22
1.829960
 13
1.138720
 23
1.084600
  0
POLYLINE
  8
0
  6
CONTINUOUS
 66
     1
 40
0.000000
 41
0.000000
  0
VERTEX
  8
0
  6
CONTINUOUS
 10
1.095600
 20
1.825560
  0
VERTEX
  8
0
  6
CONTINUOUS
 10
1.100000
 20
1.080200
  0
VERTEX
  8
0
  6
CONTINUOUS
 10
1.138720
 20
1.084600
  0
VERTEX
  8
0
  6
CONTINUOUS
 10
1.134320
 20
1.829960
  0
VERTEX
  8
0
  6
CONTINUOUS
 10
1.095600
 20
1.825560
  0
SEQEND
  8
0
  0
SOLID
  8
0
 62
    15
 10
1.134320
 20
1.829960
 11
1.138720
 21
1.084600
 12
1.181400
 22
1.836560
 13
1.185360
 23
1.091200
  0
POLYLINE
  8
0
  6
CONTINUOUS
 66
     1
 40
0.000000
 41
0.000000
  0
VERTEX
  8
0
  6
CONTINUOUS
 10
1.134320
 20
1.829960
  0
VERTEX
  8
0
  6
CONTINUOUS
 10
1.138720
 20
1.084600
  0
VERTEX
  8
0
  6
CONTINUOUS
 10
1.185360
 20
1.091200
  0
VERTEX
  8
0
  6
CONTINUOUS
 10
1.181400
 20
1.836560
  0
VERTEX
  8
0
  6
CONTINUOUS
 10
1.134320
 20
1.829960
  0
SEQEND
  8
0
  0
SOLID
  8
0
 62
    15
 10
1.181400
 20
1.836560
 11
1.185360
 21
1.091200
 12
1.235080
 22
1.844480
 13
1.239480
 23
1.099120
  0
POLYLINE
  8
0
  6
CONTINUOUS
 66
     1
 40
0.000000
 41
0.000000
  0
VERTEX
  8
0
  6
CONTINUOUS
 10
1.181400
 20
1.836560
  0
VERTEX
  8
0
  6
CONTINUOUS
 10
1.185360
 20
1.091200
  0
VERTEX
  8
0
  6
CONTINUOUS
 10
1.239480
 20
1.099120
  0
VERTEX
  8
0
  6
CONTINUOUS
 10
1.235080
 20
1.844480
  0
VERTEX
  8
0
  6
CONTINUOUS
 10
1.181400
 20
1.836560
  0
SEQEND
  8
0
  0
SOLID
  8
0
 62
    15
 10
3.938440
 20
2.784760
 11
3.942400
 21
2.039400
 12
3.938440
 22
3.059760
 13
3.942400
 23
2.314400
  0
POLYLINE
  8
0
  6
CONTINUOUS
 66
     1
 40
0.000000
 41
0.000000
  0
VERTEX
  8
0
  6
CONTINUOUS
 10
3.938440
 20
2.784760
  0
VERTEX
  8
0
  6
CONTINUOUS
 10
3.942400
 20
2.039400
  0
VERTEX
  8
0
  6
CONTINUOUS
 10
3.942400
 20
2.314400
  0
VERTEX
  8
0
  6
CONTINUOUS
 10
3.938440
 20
3.059760
  0
VERTEX
  8
0
  6
CONTINUOUS
 10
3.938440
 20
2.784760
  0
SEQEND
  8
0
  0
SOLID
  8
0
 62
    15
 10
1.296240
 20
1.855040
 11
1.300640
 21
1.109240
 12
1.364000
 22
1.866920
 13
1.368400
 23
1.121120
  0
POLYLINE
  8
0
  6
CONTINUOUS
 66
     1
 40
0.000000
 41
0.000000
  0
VERTEX
  8
0
  6
CONTINUOUS
 10
1.296240
 20
1.855040
  0
VERTEX
  8
0
  6
CONTINUOUS
 10
1.300640
 20
1.109240
  0
VERTEX
  8
0
  6
CONTINUOUS
 10
1.368400
 20
1.121120
  0
VERTEX
  8
0
  6
CONTINUOUS
 10
1.364000
 20
1.866920
  0
VERTEX
  8
0
  6
CONTINUOUS
 10
1.296240
 20
1.855040
  0
SEQEND
  8
0
  0
SOLID
  8
0
 62
    15
 10
1.364000
 20
1.866920
 11
1.368400
 21
1.121120
 12
1.437920
 22
1.880560
 13
1.442320
 23
1.135200
  0
POLYLINE
  8
0
  6
CONTINUOUS
 66
     1
 40
0.000000
 41
0.000000
  0
VERTEX
  8
0
  6
CONTINUOUS
 10
1.364000
 20
1.866920
  0
VERTEX
  8
0
  6
CONTINUOUS
 10
1.368400
 20
1.121120
  0
VERTEX
  8
0
  6
CONTINUOUS
 10
1.442320
 20
1.135200
  0
VERTEX
  8
0
  6
CONTINUOUS
 10
1.437920
 20
1.880560
  0
VERTEX
  8
0
  6
CONTINUOUS
 10
1.364000
 20
1.866920
  0
SEQEND
  8
0
  0
SOLID
  8
0
 62
    15
 10
1.437920
 20
1.880560
 11
1.442320
 21
1.135200
 12
1.602480
 22
1.914000
 13
1.606880
 23
1.168640
  0
POLYLINE
  8
0
  6
CONTINUOUS
 66
     1
 40
0.000000
 41
0.000000
  0
VERTEX
  8
0
  6
CONTINUOUS
 10
1.437920
 20
1.880560
  0
VERTEX
  8
0
  6
CONTINUOUS
 10
1.442320
 20
1.135200
  0
VERTEX
  8
0
  6
CONTINUOUS
 10
1.606880
 20
1.168640
  0
VERTEX
  8
0
  6
CONTINUOUS
 10
1.602480
 20
1.914000
  0
VERTEX
  8
0
  6
CONTINUOUS
 10
1.437920
 20
1.880560
  0
SEQEND
  8
0
  0
SOLID
  8
0
 62
    15
 10
1.602480
 20
1.914000
 11
1.606880
 21
1.168640
 12
1.786840
 22
1.954920
 13
1.791240
 23
1.209120
  0
POLYLINE
  8
0
  6
CONTINUOUS
 66
     1
 40
0.000000
 41
0.000000
  0
VERTEX
  8
0
  6
CONTINUOUS
 10
1.602480
 20
1.914000
  0
VERTEX
  8
0
  6
CONTINUOUS
 10
1.606880
 20
1.168640
  0
VERTEX
  8
0
  6
CONTINUOUS
 10
1.791240
 20
1.209120
  0
VERTEX
  8
0
  6
CONTINUOUS
 10
1.786840
 20
1.954920
  0
VERTEX
  8
0
  6
CONTINUOUS
 10
1.602480
 20
1.914000
  0
SEQEND
  8
0
  0
SOLID
  8
0
 62
    15
 10
1.786840
 20
1.954920
 11
1.791240
 21
1.209120
 12
1.987040
 22
2.002880
 13
1.991440
 23
1.257520
  0
POLYLINE
  8
0
  6
CONTINUOUS
 66
     1
 40
0.000000
 41
0.000000
  0
VERTEX
  8
0
  6
CONTINUOUS
 10
1.786840
 20
1.954920
  0
VERTEX
  8
0
  6
CONTINUOUS
 10
1.791240
 20
1.209120
  0
VERTEX
  8
0
  6
CONTINUOUS
 10
1.991440
 20
1.257520
  0
VERTEX
  8
0
  6
CONTINUOUS
 10
1.987040
 20
2.002880
  0
VERTEX
  8
0
  6
CONTINUOUS
 10
1.786840
 20
1.954920
  0
SEQEND
  8
0
  0
SOLID
  8
0
 62
    15
 10
1.987040
 20
2.002880
 11
1.991440
 21
1.257520
 12
2.199560
 22
2.058760
 13
2.203960
 23
1.313400
  0
POLYLINE
  8
0
  6
CONTINUOUS
 66
     1
 40
0.000000
 41
0.000000
  0
VERTEX
  8
0
  6
CONTINUOUS
 10
1.987040
 20
2.002880
  0
VERTEX
  8
0
  6
CONTINUOUS
 10
1.991440
 20
1.257520
  0
VERTEX
  8
0
  6
CONTINUOUS
 10
2.203960
 20
1.313400
  0
VERTEX
  8
0
  6
CONTINUOUS
 10
2.199560
 20
2.058760
  0
VERTEX
  8
0
  6
CONTINUOUS
 10
1.987040
 20
2.002880
  0
SEQEND
  8
0
  0
SOLID
  8
0
 62
    15
 10
2.199560
 20
2.058760
 11
2.203960
 21
1.313400
 12
2.421320
 22
2.122560
 13
2.425720
 23
1.377200
  0
POLYLINE
  8
0
  6
CONTINUOUS
 66
     1
 40
0.000000
 41
0.000000
  0
VERTEX
  8
0
  6
CONTINUOUS
 10
2.199560
 20
2.058760
  0
VERTEX
  8
0
  6
CONTINUOUS
 10
2.203960
 20
1.313400
  0
VERTEX
  8
0
  6
CONTINUOUS
 10
2.425720
 20
1.377200
  0
VERTEX
  8
0
  6
CONTINUOUS
 10
2.421320
 20
2.122560
  0
VERTEX
  8
0
  6
CONTINUOUS
 10
2.199560
 20
2.058760
  0
SEQEND
  8
0
  0
SOLID
  8
0
 62
    15
 10
2.421320
 20
2.122560
 11
2.425720
 21
1.377200
 12
2.648800
 22
2.193840
 13
2.653200
 23
1.448040
  0
POLYLINE
  8
0
  6
CONTINUOUS
 66
     1
 40
0.000000
 41
0.000000
  0
VERTEX
  8
0
  6
CONTINUOUS
 10
2.421320
 20
2.122560
  0
VERTEX
  8
0
  6
CONTINUOUS
 10
2.425720
 20
1.377200
  0
VERTEX
  8
0
  6
CONTINUOUS
 10
2.653200
 20
1.448040
  0
VERTEX
  8
0
  6
CONTINUOUS
 10
2.648800
 20
2.193840
  0
VERTEX
  8
0
  6
CONTINUOUS
 10
2.421320
 20
2.122560
  0
SEQEND
  8
0
  0
SOLID
  8
0
 62
    15
 10
2.648800
 20
2.193840
 11
2.653200
 21
1.448040
 12
2.878480
 22
2.272600
 13
2.882880
 23
1.527240
  0
POLYLINE
  8
0
  6
CONTINUOUS
 66
     1
 40
0.000000
 41
0.000000
  0
VERTEX
  8
0
  6
CONTINUOUS
 10
2.648800
 20
2.193840
  0
VERTEX
  8
0
  6
CONTINUOUS
 10
2.653200
 20
1.448040
  0
VERTEX
  8
0
  6
CONTINUOUS
 10
2.882880
 20
1.527240
  0
VERTEX
  8
0
  6
CONTINUOUS
 10
2.878480
 20
2.272600
  0
VERTEX
  8
0
  6
CONTINUOUS
 10
2.648800
 20
2.193840
  0
SEQEND
  8
0
  0
SOLID
  8
0
 62
    15
 10
2.878480
 20
2.272600
 11
2.882880
 21
1.527240
 12
3.106840
 22
2.359280
 13
3.111240
 23
1.613920
  0
POLYLINE
  8
0
  6
CONTINUOUS
 66
     1
 40
0.000000
 41
0.000000
  0
VERTEX
  8
0
  6
CONTINUOUS
 10
2.878480
 20
2.272600
  0
VERTEX
  8
0
  6
CONTINUOUS
 10
2.882880
 20
1.527240
  0
VERTEX
  8
0
  6
CONTINUOUS
 10
3.111240
 20
1.613920
  0
VERTEX
  8
0
  6
CONTINUOUS
 10
3.106840
 20
2.359280
  0
VERTEX
  8
0
  6
CONTINUOUS
 10
2.878480
 20
2.272600
  0
SEQEND
  8
0
  0
SOLID
  8
0
 62
    15
 10
3.106840
 20
2.359280
 11
3.111240
 21
1.613920
 12
3.330360
 22
2.453440
 13
3.334760
 23
1.708080
  0
POLYLINE
  8
0
  6
CONTINUOUS
 66
     1
 40
0.000000
 41
0.000000
  0
VERTEX
  8
0
  6
CONTINUOUS
 10
3.106840
 20
2.359280
  0
VERTEX
  8
0
  6
CONTINUOUS
 10
3.111240
 20
1.613920
  0
VERTEX
  8
0
  6
CONTINUOUS
 10
3.334760
 20
1.708080
  0
VERTEX
  8
0
  6
CONTINUOUS
 10
3.330360
 20
2.453440
  0
VERTEX
  8
0
  6
CONTINUOUS
 10
3.106840
 20
2.359280
  0
SEQEND
  8
0
  0
SOLID
  8
0
 62
    15
 10
3.330360
 20
2.453440
 11
3.334760
 21
1.708080
 12
3.545960
 22
2.555960
 13
3.550360
 23
1.810600
  0
POLYLINE
  8
0
  6
CONTINUOUS
 66
     1
 40
0.000000
 41
0.000000
  0
VERTEX
  8
0
  6
CONTINUOUS
 10
3.330360
 20
2.453440
  0
VERTEX
  8
0
  6
CONTINUOUS
 10
3.334760
 20
1.708080
  0
VERTEX
  8
0
  6
CONTINUOUS
 10
3.550360
 20
1.810600
  0
VERTEX
  8
0
  6
CONTINUOUS
 10
3.545960
 20
2.555960
  0
VERTEX
  8
0
  6
CONTINUOUS
 10
3.330360
 20
2.453440
  0
SEQEND
  8
0
  0
SOLID
  8
0
 62
    15
 10
3.545960
 20
2.555960
 11
3.550360
 21
1.810600
 12
3.749680
 22
2.665960
 13
3.754080
 23
1.920600
  0
POLYLINE
  8
0
  6
CONTINUOUS
 66
     1
 40
0.000000
 41
0.000000
  0
VERTEX
  8
0
  6
CONTINUOUS
 10
3.545960
 20
2.555960
  0
VERTEX
  8
0
  6
CONTINUOUS
 10
3.550360
 20
1.810600
  0
VERTEX
  8
0
  6
CONTINUOUS
 10
3.754080
 20
1.920600
  0
VERTEX
  8
0
  6
CONTINUOUS
 10
3.749680
 20
2.665960
  0
VERTEX
  8
0
  6
CONTINUOUS
 10
3.545960
 20
2.555960
  0
SEQEND
  8
0
  0
SOLID
  8
0
 62
    15
 10
3.749680
 20
2.665960
 11
3.754080
 21
1.920600
 12
3.938880
 22
2.783880
 13
3.942840
 23
2.038520
  0
POLYLINE
  8
0
  6
CONTINUOUS
 66
     1
 40
0.000000
 41
0.000000
  0
VERTEX
  8
0
  6
CONTINUOUS
 10
3.749680
 20
2.665960
  0
VERTEX
  8
0
  6
CONTINUOUS
 10
3.754080
 20
1.920600
  0
VERTEX
  8
0
  6
CONTINUOUS
 10
3.942840
 20
2.038520
  0
VERTEX
  8
0
  6
CONTINUOUS
 10
3.938880
 20
2.783880
  0
VERTEX
  8
0
  6
CONTINUOUS
 10
3.749680
 20
2.665960
  0
SEQEND
  8
0
  0
POLYLINE
  8
0
  6
CONTINUOUS
 66
     1
 40
0.000000
 41
0.000000
  0
VERTEX
  8
0
  6
CONTINUOUS
 10
3.938440
 20
2.784760
  0
VERTEX
  8
0
  6
CONTINUOUS
 10
3.938440
 20
3.059760
  0
VERTEX
  8
0
  6
CONTINUOUS
 10
0.751080
 20
3.059760
  0
VERTEX
  8
0
  6
CONTINUOUS
 10
0.751080
 20
2.214960
  0
VERTEX
  8
0
  6
CONTINUOUS
 10
0.755920
 20
2.131800
  0
VERTEX
  8
0
  6
CONTINUOUS
 10
0.770880
 20
2.056120
  0
VERTEX
  8
0
  6
CONTINUOUS
 10
0.795520
 20
1.989240
  0
VERTEX
  8
0
  6
CONTINUOUS
 10
0.828520
 20
1.932040
  0
VERTEX
  8
0
  6
CONTINUOUS
 10
0.870760
 20
1.885400
  0
VERTEX
  8
0
  6
CONTINUOUS
 10
0.920920
 20
1.850640
  0
VERTEX
  8
0
  6
CONTINUOUS
 10
0.978560
 20
1.829080
  0
VERTEX
  8
0
  6
CONTINUOUS
 10
1.043680
 20
1.822040
  0
VERTEX
  8
0
  6
CONTINUOUS
 10
1.065240
 20
1.822920
  0
VERTEX
  8
0
  6
CONTINUOUS
 10
1.095600
 20
1.825560
  0
VERTEX
  8
0
  6
CONTINUOUS
 10
1.134320
 20
1.829960
  0
VERTEX
  8
0
  6
CONTINUOUS
 10
1.181400
 20
1.836560
  0
VERTEX
  8
0
  6
CONTINUOUS
 10
1.235080
 20
1.844480
  0
VERTEX
  8
0
  6
CONTINUOUS
 10
1.296240
 20
1.855040
  0
VERTEX
  8
0
  6
CONTINUOUS
 10
1.364000
 20
1.866920
  0
VERTEX
  8
0
  6
CONTINUOUS
 10
1.437920
 20
1.880560
  0
VERTEX
  8
0
  6
CONTINUOUS
 10
1.602480
 20
1.914000
  0
VERTEX
  8
0
  6
CONTINUOUS
 10
1.786840
 20
1.954920
  0
VERTEX
  8
0
  6
CONTINUOUS
 10
1.987040
 20
2.002880
  0
VERTEX
  8
0
  6
CONTINUOUS
 10
2.199560
 20
2.058760
  0
VERTEX
  8
0
  6
CONTINUOUS
 10
2.421320
 20
2.122560
  0
VERTEX
  8
0
  6
CONTINUOUS
 10
2.648800
 20
2.193840
  0
VERTEX
  8
0
  6
CONTINUOUS
 10
2.878480
 20
2.272600
  0
VERTEX
  8
0
  6
CONTINUOUS
 10
3.106840
 20
2.359280
  0
VERTEX
  8
0
  6
CONTINUOUS
 10
3.330360
 20
2.453440
  0
VERTEX
  8
0
  6
CONTINUOUS
 10
3.545960
 20
2.555960
  0
VERTEX
  8
0
  6
CONTINUOUS
 10
3.749680
 20
2.665960
  0
VERTEX
  8
0
  6
CONTINUOUS
 10
3.938880
 20
2.783880
  0
VERTEX
  8
0
  6
CONTINUOUS
 10
3.938440
 20
2.784760
  0
SEQEND
  8
0
  0
SOLID
  8
0
 62
    15
 10
2.937000
 20
3.358960
 11
2.940520
 21
2.616680
 12
2.989360
 22
3.368200
 13
2.992440
 23
2.626360
  0
POLYLINE
  8
0
  6
CONTINUOUS
 66
     1
 40
0.000000
 41
0.000000
  0
VERTEX
  8
0
  6
CONTINUOUS
 10
2.937000
 20
3.358960
  0
VERTEX
  8
0
  6
CONTINUOUS
 10
2.940520
 20
2.616680
  0
VERTEX
  8
0
  6
CONTINUOUS
 10
2.992440
 20
2.626360
  0
VERTEX
  8
0
  6
CONTINUOUS
 10
2.989360
 20
3.368200
  0
VERTEX
  8
0
  6
CONTINUOUS
 10
2.937000
 20
3.358960
  0
SEQEND
  8
0
  0
SOLID
  8
0
 62
    15
 10
0.976360
 20
2.993760
 11
0.979880
 21
2.251920
 12
1.299760
 22
2.993760
 13
1.303280
 23
2.251920
  0
POLYLINE
  8
0
  6
CONTINUOUS
 66
     1
 40
0.000000
 41
0.000000
  0
VERTEX
  8
0
  6
CONTINUOUS
 10
0.976360
 20
2.993760
  0
VERTEX
  8
0
  6
CONTINUOUS
 10
0.979880
 20
2.251920
  0
VERTEX
  8
0
  6
CONTINUOUS
 10
1.303280
 20
2.251920
  0
VERTEX
  8
0
  6
CONTINUOUS
 10
1.299760
 20
2.993760
  0
VERTEX
  8
0
  6
CONTINUOUS
 10
0.976360
 20
2.993760
  0
SEQEND
  8
0
  0
SOLID
  8
0
 62
    15
 10
1.299760
 20
2.993760
 11
1.303280
 21
2.251920
 12
1.327480
 22
2.999920
 13
1.331000
 23
2.258080
  0
POLYLINE
  8
0
  6
CONTINUOUS
 66
     1
 40
0.000000
 41
0.000000
  0
VERTEX
  8
0
  6
CONTINUOUS
 10
1.299760
 20
2.993760
  0
VERTEX
  8
0
  6
CONTINUOUS
 10
1.303280
 20
2.251920
  0
VERTEX
  8
0
  6
CONTINUOUS
 10
1.331000
 20
2.258080
  0
VERTEX
  8
0
  6
CONTINUOUS
 10
1.327480
 20
2.999920
  0
VERTEX
  8
0
  6
CONTINUOUS
 10
1.299760
 20
2.993760
  0
SEQEND
  8
0
  0
SOLID
  8
0
 62
    15
 10
1.327480
 20
2.999920
 11
1.331000
 21
2.258080
 12
1.355640
 22
3.017520
 13
1.359160
 23
2.275240
  0
POLYLINE
  8
0
  6
CONTINUOUS
 66
     1
 40
0.000000
 41
0.000000
  0
VERTEX
  8
0
  6
CONTINUOUS
 10
1.327480
 20
2.999920
  0
VERTEX
  8
0
  6
CONTINUOUS
 10
1.331000
 20
2.258080
  0
VERTEX
  8
0
  6
CONTINUOUS
 10
1.359160
 20
2.275240
  0
VERTEX
  8
0
  6
CONTINUOUS
 10
1.355640
 20
3.017520
  0
VERTEX
  8
0
  6
CONTINUOUS
 10
1.327480
 20
2.999920
  0
SEQEND
  8
0
  0
SOLID
  8
0
 62
    15
 10
1.355640
 20
3.017520
 11
1.359160
 21
2.275240
 12
1.384240
 22
3.041720
 13
1.387760
 23
2.299880
  0
POLYLINE
  8
0
  6
CONTINUOUS
 66
     1
 40
0.000000
 41
0.000000
  0
VERTEX
  8
0
  6
CONTINUOUS
 10
1.355640
 20
3.017520
  0
VERTEX
  8
0
  6
CONTINUOUS
 10
1.359160
 20
2.275240
  0
VERTEX
  8
0
  6
CONTINUOUS
 10
1.387760
 20
2.299880
  0
VERTEX
  8
0
  6
CONTINUOUS
 10
1.384240
 20
3.041720
  0
VERTEX
  8
0
  6
CONTINUOUS
 10
1.355640
 20
3.017520
  0
SEQEND
  8
0
  0
SOLID
  8
0
 62
    15
 10
1.384240
 20
3.041720
 11
1.387760
 21
2.299880
 12
1.398760
 22
3.055360
 13
1.402280
 23
2.313520
  0
POLYLINE
  8
0
  6
CONTINUOUS
 66
     1
 40
0.000000
 41
0.000000
  0
VERTEX
  8
0
  6
CONTINUOUS
 10
1.384240
 20
3.041720
  0
VERTEX
  8
0
  6
CONTINUOUS
 10
1.387760
 20
2.299880
  0
VERTEX
  8
0
  6
CONTINUOUS
 10
1.402280
 20
2.313520
  0
VERTEX
  8
0
  6
CONTINUOUS
 10
1.398760
 20
3.055360
  0
VERTEX
  8
0
  6
CONTINUOUS
 10
1.384240
 20
3.041720
  0
SEQEND
  8
0
  0
SOLID
  8
0
 62
    15
 10
1.398760
 20
3.055360
 11
1.402280
 21
2.313520
 12
1.413280
 22
3.069440
 13
1.416800
 23
2.327600
  0
POLYLINE
  8
0
  6
CONTINUOUS
 66
     1
 40
0.000000
 41
0.000000
  0
VERTEX
  8
0
  6
CONTINUOUS
 10
1.398760
 20
3.055360
  0
VERTEX
  8
0
  6
CONTINUOUS
 10
1.402280
 20
2.313520
  0
VERTEX
  8
0
  6
CONTINUOUS
 10
1.416800
 20
2.327600
  0
VERTEX
  8
0
  6
CONTINUOUS
 10
1.413280
 20
3.069440
  0
VERTEX
  8
0
  6
CONTINUOUS
 10
1.398760
 20
3.055360
  0
SEQEND
  8
0
  0
SOLID
  8
0
 62
    15
 10
1.413280
 20
3.069440
 11
1.416800
 21
2.327600
 12
1.443200
 22
3.097160
 13
1.446720
 23
2.355320
  0
POLYLINE
  8
0
  6
CONTINUOUS
 66
     1
 40
0.000000
 41
0.000000
  0
VERTEX
  8
0
  6
CONTINUOUS
 10
1.413280
 20
3.069440
  0
VERTEX
  8
0
  6
CONTINUOUS
 10
1.416800
 20
2.327600
  0
VERTEX
  8
0
  6
CONTINUOUS
 10
1.446720
 20
2.355320
  0
VERTEX
  8
0
  6
CONTINUOUS
 10
1.443200
 20
3.097160
  0
VERTEX
  8
0
  6
CONTINUOUS
 10
1.413280
 20
3.069440
  0
SEQEND
  8
0
  0
SOLID
  8
0
 62
    15
 10
1.443200
 20
3.097160
 11
1.446720
 21
2.355320
 12
1.474000
 22
3.121360
 13
1.477520
 23
2.379520
  0
POLYLINE
  8
0
  6
CONTINUOUS
 66
     1
 40
0.000000
 41
0.000000
  0
VERTEX
  8
0
  6
CONTINUOUS
 10
1.443200
 20
3.097160
  0
VERTEX
  8
0
  6
CONTINUOUS
 10
1.446720
 20
2.355320
  0
VERTEX
  8
0
  6
CONTINUOUS
 10
1.477520
 20
2.379520
  0
VERTEX
  8
0
  6
CONTINUOUS
 10
1.474000
 20
3.121360
  0
VERTEX
  8
0
  6
CONTINUOUS
 10
1.443200
 20
3.097160
  0
SEQEND
  8
0
  0
SOLID
  8
0
 62
    15
 10
1.474000
 20
3.121360
 11
1.477520
 21
2.379520
 12
1.505680
 22
3.138520
 13
1.509200
 23
2.396680
  0
POLYLINE
  8
0
  6
CONTINUOUS
 66
     1
 40
0.000000
 41
0.000000
  0
VERTEX
  8
0
  6
CONTINUOUS
 10
1.474000
 20
3.121360
  0
VERTEX
  8
0
  6
CONTINUOUS
 10
1.477520
 20
2.379520
  0
VERTEX
  8
0
  6
CONTINUOUS
 10
1.509200
 20
2.396680
  0
VERTEX
  8
0
  6
CONTINUOUS
 10
1.505680
 20
3.138520
  0
VERTEX
  8
0
  6
CONTINUOUS
 10
1.474000
 20
3.121360
  0
SEQEND
  8
0
  0
SOLID
  8
0
 62
    15
 10
1.505680
 20
3.138520
 11
1.509200
 21
2.396680
 12
1.538680
 22
3.145120
 13
1.542200
 23
2.403280
  0
POLYLINE
  8
0
  6
CONTINUOUS
 66
     1
 40
0.000000
 41
0.000000
  0
VERTEX
  8
0
  6
CONTINUOUS
 10
1.505680
 20
3.138520
  0
VERTEX
  8
0
  6
CONTINUOUS
 10
1.509200
 20
2.396680
  0
VERTEX
  8
0
  6
CONTINUOUS
 10
1.542200
 20
2.403280
  0
VERTEX
  8
0
  6
CONTINUOUS
 10
1.538680
 20
3.145120
  0
VERTEX
  8
0
  6
CONTINUOUS
 10
1.505680
 20
3.138520
  0
SEQEND
  8
0
  0
SOLID
  8
0
 62
    15
 10
1.538680
 20
3.145120
 11
1.542200
 21
2.403280
 12
2.652320
 22
3.145120
 13
2.655840
 23
2.403280
  0
POLYLINE
  8
0
  6
CONTINUOUS
 66
     1
 40
0.000000
 41
0.000000
  0
VERTEX
  8
0
  6
CONTINUOUS
 10
1.538680
 20
3.145120
  0
VERTEX
  8
0
  6
CONTINUOUS
 10
1.542200
 20
2.403280
  0
VERTEX
  8
0
  6
CONTINUOUS
 10
2.655840
 20
2.403280
  0
VERTEX
  8
0
  6
CONTINUOUS
 10
2.652320
 20
3.145120
  0
VERTEX
  8
0
  6
CONTINUOUS
 10
1.538680
 20
3.145120
  0
SEQEND
  8
0
  0
SOLID
  8
0
 62
    15
 10
2.652320
 20
3.145120
 11
2.655840
 21
2.403280
 12
2.666840
 22
3.146880
 13
2.669920
 23
2.405040
  0
POLYLINE
  8
0
  6
CONTINUOUS
 66
     1
 40
0.000000
 41
0.000000
  0
VERTEX
  8
0
  6
CONTINUOUS
 10
2.652320
 20
3.145120
  0
VERTEX
  8
0
  6
CONTINUOUS
 10
2.655840
 20
2.403280
  0
VERTEX
  8
0
  6
CONTINUOUS
 10
2.669920
 20
2.405040
  0
VERTEX
  8
0
  6
CONTINUOUS
 10
2.666840
 20
3.146880
  0
VERTEX
  8
0
  6
CONTINUOUS
 10
2.652320
 20
3.145120
  0
SEQEND
  8
0
  0
SOLID
  8
0
 62
    15
 10
2.666840
 20
3.146880
 11
2.669920
 21
2.405040
 12
2.680040
 22
3.152160
 13
2.683120
 23
2.410320
  0
POLYLINE
  8
0
  6
CONTINUOUS
 66
     1
 40
0.000000
 41
0.000000
  0
VERTEX
  8
0
  6
CONTINUOUS
 10
2.666840
 20
3.146880
  0
VERTEX
  8
0
  6
CONTINUOUS
 10
2.669920
 20
2.405040
  0
VERTEX
  8
0
  6
CONTINUOUS
 10
2.683120
 20
2.410320
  0
VERTEX
  8
0
  6
CONTINUOUS
 10
2.680040
 20
3.152160
  0
VERTEX
  8
0
  6
CONTINUOUS
 10
2.666840
 20
3.146880
  0
SEQEND
  8
0
  0
SOLID
  8
0
 62
    15
 10
2.680040
 20
3.152160
 11
2.683120
 21
2.410320
 12
2.703800
 22
3.171520
 13
2.707320
 23
2.429680
  0
POLYLINE
  8
0
  6
CONTINUOUS
 66
     1
 40
0.000000
 41
0.000000
  0
VERTEX
  8
0
  6
CONTINUOUS
 10
2.680040
 20
3.152160
  0
VERTEX
  8
0
  6
CONTINUOUS
 10
2.683120
 20
2.410320
  0
VERTEX
  8
0
  6
CONTINUOUS
 10
2.707320
 20
2.429680
  0
VERTEX
  8
0
  6
CONTINUOUS
 10
2.703800
 20
3.171520
  0
VERTEX
  8
0
  6
CONTINUOUS
 10
2.680040
 20
3.152160
  0
SEQEND
  8
0
  0
SOLID
  8
0
 62
    15
 10
2.703800
 20
3.171520
 11
2.707320
 21
2.429680
 12
2.727560
 22
3.199680
 13
2.730640
 23
2.457840
  0
POLYLINE
  8
0
  6
CONTINUOUS
 66
     1
 40
0.000000
 41
0.000000
  0
VERTEX
  8
0
  6
CONTINUOUS
 10
2.703800
 20
3.171520
  0
VERTEX
  8
0
  6
CONTINUOUS
 10
2.707320
 20
2.429680
  0
VERTEX
  8
0
  6
CONTINUOUS
 10
2.730640
 20
2.457840
  0
VERTEX
  8
0
  6
CONTINUOUS
 10
2.727560
 20
3.199680
  0
VERTEX
  8
0
  6
CONTINUOUS
 10
2.703800
 20
3.171520
  0
SEQEND
  8
0
  0
SOLID
  8
0
 62
    15
 10
2.727560
 20
3.199680
 11
2.730640
 21
2.457840
 12
2.739880
 22
3.215960
 13
2.743400
 23
2.474120
  0
POLYLINE
  8
0
  6
CONTINUOUS
 66
     1
 40
0.000000
 41
0.000000
  0
VERTEX
  8
0
  6
CONTINUOUS
 10
2.727560
 20
3.199680
  0
VERTEX
  8
0
  6
CONTINUOUS
 10
2.730640
 20
2.457840
  0
VERTEX
  8
0
  6
CONTINUOUS
 10
2.743400
 20
2.474120
  0
VERTEX
  8
0
  6
CONTINUOUS
 10
2.739880
 20
3.215960
  0
VERTEX
  8
0
  6
CONTINUOUS
 10
2.727560
 20
3.199680
  0
SEQEND
  8
0
  0
SOLID
  8
0
 62
    15
 10
2.739880
 20
3.215960
 11
2.743400
 21
2.474120
 12
2.753080
 22
3.233120
 13
2.756600
 23
2.491280
  0
POLYLINE
  8
0
  6
CONTINUOUS
 66
     1
 40
0.000000
 41
0.000000
  0
VERTEX
  8
0
  6
CONTINUOUS
 10
2.739880
 20
3.215960
  0
VERTEX
  8
0
  6
CONTINUOUS
 10
2.743400
 20
2.474120
  0
VERTEX
  8
0
  6
CONTINUOUS
 10
2.756600
 20
2.491280
  0
VERTEX
  8
0
  6
CONTINUOUS
 10
2.753080
 20
3.233120
  0
VERTEX
  8
0
  6
CONTINUOUS
 10
2.739880
 20
3.215960
  0
SEQEND
  8
0
  0
SOLID
  8
0
 62
    15
 10
2.753080
 20
3.233120
 11
2.756600
 21
2.491280
 12
2.783880
 22
3.269200
 13
2.787400
 23
2.527360
  0
POLYLINE
  8
0
  6
CONTINUOUS
 66
     1
 40
0.000000
 41
0.000000
  0
VERTEX
  8
0
  6
CONTINUOUS
 10
2.753080
 20
3.233120
  0
VERTEX
  8
0
  6
CONTINUOUS
 10
2.756600
 20
2.491280
  0
VERTEX
  8
0
  6
CONTINUOUS
 10
2.787400
 20
2.527360
  0
VERTEX
  8
0
  6
CONTINUOUS
 10
2.783880
 20
3.269200
  0
VERTEX
  8
0
  6
CONTINUOUS
 10
2.753080
 20
3.233120
  0
SEQEND
  8
0
  0
SOLID
  8
0
 62
    15
 10
2.783880
 20
3.269200
 11
2.787400
 21
2.527360
 12
2.823040
 22
3.304400
 13
2.826560
 23
2.562560
  0
POLYLINE
  8
0
  6
CONTINUOUS
 66
     1
 40
0.000000
 41
0.000000
  0
VERTEX
  8
0
  6
CONTINUOUS
 10
2.783880
 20
3.269200
  0
VERTEX
  8
0
  6
CONTINUOUS
 10
2.787400
 20
2.527360
  0
VERTEX
  8
0
  6
CONTINUOUS
 10
2.826560
 20
2.562560
  0
VERTEX
  8
0
  6
CONTINUOUS
 10
2.823040
 20
3.304400
  0
VERTEX
  8
0
  6
CONTINUOUS
 10
2.783880
 20
3.269200
  0
SEQEND
  8
0
  0
SOLID
  8
0
 62
    15
 10
2.823040
 20
3.304400
 11
2.826560
 21
2.562560
 12
2.846800
 22
3.320680
 13
2.849880
 23
2.578840
  0
POLYLINE
  8
0
  6
CONTINUOUS
 66
     1
 40
0.000000
 41
0.000000
  0
VERTEX
  8
0
  6
CONTINUOUS
 10
2.823040
 20
3.304400
  0
VERTEX
  8
0
  6
CONTINUOUS
 10
2.826560
 20
2.562560
  0
VERTEX
  8
0
  6
CONTINUOUS
 10
2.849880
 20
2.578840
  0
VERTEX
  8
0
  6
CONTINUOUS
 10
2.846800
 20
3.320680
  0
VERTEX
  8
0
  6
CONTINUOUS
 10
2.823040
 20
3.304400
  0
SEQEND
  8
0
  0
SOLID
  8
0
 62
    15
 10
2.846800
 20
3.320680
 11
2.849880
 21
2.578840
 12
2.873200
 22
3.335200
 13
2.876720
 23
2.593360
  0
POLYLINE
  8
0
  6
CONTINUOUS
 66
     1
 40
0.000000
 41
0.000000
  0
VERTEX
  8
0
  6
CONTINUOUS
 10
2.846800
 20
3.320680
  0
VERTEX
  8
0
  6
CONTINUOUS
 10
2.849880
 20
2.578840
  0
VERTEX
  8
0
  6
CONTINUOUS
 10
2.876720
 20
2.593360
  0
VERTEX
  8
0
  6
CONTINUOUS
 10
2.873200
 20
3.335200
  0
VERTEX
  8
0
  6
CONTINUOUS
 10
2.846800
 20
3.320680
  0
SEQEND
  8
0
  0
SOLID
  8
0
 62
    15
 10
2.873200
 20
3.335200
 11
2.876720
 21
2.593360
 12
2.903120
 22
3.347960
 13
2.906640
 23
2.606120
  0
POLYLINE
  8
0
  6
CONTINUOUS
 66
     1
 40
0.000000
 41
0.000000
  0
VERTEX
  8
0
  6
CONTINUOUS
 10
2.873200
 20
3.335200
  0
VERTEX
  8
0
  6
CONTINUOUS
 10
2.876720
 20
2.593360
  0
VERTEX
  8
0
  6
CONTINUOUS
 10
2.906640
 20
2.606120
  0
VERTEX
  8
0
  6
CONTINUOUS
 10
2.903120
 20
3.347960
  0
VERTEX
  8
0
  6
CONTINUOUS
 10
2.873200
 20
3.335200
  0
SEQEND
  8
0
  0
SOLID
  8
0
 62
    15
 10
2.903120
 20
3.347960
 11
2.906640
 21
2.606120
 12
2.937000
 22
3.358960
 13
2.940520
 23
2.616680
  0
POLYLINE
  8
0
  6
CONTINUOUS
 66
     1
 40
0.000000
 41
0.000000
  0
VERTEX
  8
0
  6
CONTINUOUS
 10
2.903120
 20
3.347960
  0
VERTEX
  8
0
  6
CONTINUOUS
 10
2.906640
 20
2.606120
  0
VERTEX
  8
0
  6
CONTINUOUS
 10
2.940520
 20
2.616680
  0
VERTEX
  8
0
  6
CONTINUOUS
 10
2.937000
 20
3.358960
  0
VERTEX
  8
0
  6
CONTINUOUS
 10
2.903120
 20
3.347960
  0
SEQEND
  8
0
  0
SOLID
  8
0
 62
    15
 10
3.726360
 20
3.718440
 11
3.729880
 21
2.976160
 12
3.726360
 22
3.743520
 13
3.729880
 23
3.001680
  0
POLYLINE
  8
0
  6
CONTINUOUS
 66
     1
 40
0.000000
 41
0.000000
  0
VERTEX
  8
0
  6
CONTINUOUS
 10
3.726360
 20
3.718440
  0
VERTEX
  8
0
  6
CONTINUOUS
 10
3.729880
 20
2.976160
  0
VERTEX
  8
0
  6
CONTINUOUS
 10
3.729880
 20
3.001680
  0
VERTEX
  8
0
  6
CONTINUOUS
 10
3.726360
 20
3.743520
  0
VERTEX
  8
0
  6
CONTINUOUS
 10
3.726360
 20
3.718440
  0
SEQEND
  8
0
  0
SOLID
  8
0
 62
    15
 10
2.989360
 20
3.368200
 11
2.992440
 21
2.626360
 12
3.039960
 22
3.371280
 13
3.043480
 23
2.629440
  0
POLYLINE
  8
0
  6
CONTINUOUS
 66
     1
 40
0.000000
 41
0.000000
  0
VERTEX
  8
0
  6
CONTINUOUS
 10
2.989360
 20
3.368200
  0
VERTEX
  8
0
  6
CONTINUOUS
 10
2.992440
 20
2.626360
  0
VERTEX
  8
0
  6
CONTINUOUS
 10
3.043480
 20
2.629440
  0
VERTEX
  8
0
  6
CONTINUOUS
 10
3.039960
 20
3.371280
  0
VERTEX
  8
0
  6
CONTINUOUS
 10
2.989360
 20
3.368200
  0
SEQEND
  8
0
  0
SOLID
  8
0
 62
    15
 10
3.039960
 20
3.371280
 11
3.043480
 21
2.629440
 12
3.086160
 22
3.370840
 13
3.089240
 23
2.629000
  0
POLYLINE
  8
0
  6
CONTINUOUS
 66
     1
 40
0.000000
 41
0.000000
  0
VERTEX
  8
0
  6
CONTINUOUS
 10
3.039960
 20
3.371280
  0
VERTEX
  8
0
  6
CONTINUOUS
 10
3.043480
 20
2.629440
  0
VERTEX
  8
0
  6
CONTINUOUS
 10
3.089240
 20
2.629000
  0
VERTEX
  8
0
  6
CONTINUOUS
 10
3.086160
 20
3.370840
  0
VERTEX
  8
0
  6
CONTINUOUS
 10
3.039960
 20
3.371280
  0
SEQEND
  8
0
  0
SOLID
  8
0
 62
    15
 10
3.086160
 20
3.370840
 11
3.089240
 21
2.629000
 12
3.105960
 22
3.369960
 13
3.109480
 23
2.628120
  0
POLYLINE
  8
0
  6
CONTINUOUS
 66
     1
 40
0.000000
 41
0.000000
  0
VERTEX
  8
0
  6
CONTINUOUS
 10
3.086160
 20
3.370840
  0
VERTEX
  8
0
  6
CONTINUOUS
 10
3.089240
 20
2.629000
  0
VERTEX
  8
0
  6
CONTINUOUS
 10
3.109480
 20
2.628120
  0
VERTEX
  8
0
  6
CONTINUOUS
 10
3.105960
 20
3.369960
  0
VERTEX
  8
0
  6
CONTINUOUS
 10
3.086160
 20
3.370840
  0
SEQEND
  8
0
  0
SOLID
  8
0
 62
    15
 10
3.105960
 20
3.369960
 11
3.109480
 21
2.628120
 12
3.123560
 22
3.369520
 13
3.127080
 23
2.627680
  0
POLYLINE
  8
0
  6
CONTINUOUS
 66
     1
 40
0.000000
 41
0.000000
  0
VERTEX
  8
0
  6
CONTINUOUS
 10
3.105960
 20
3.369960
  0
VERTEX
  8
0
  6
CONTINUOUS
 10
3.109480
 20
2.628120
  0
VERTEX
  8
0
  6
CONTINUOUS
 10
3.127080
 20
2.627680
  0
VERTEX
  8
0
  6
CONTINUOUS
 10
3.123560
 20
3.369520
  0
VERTEX
  8
0
  6
CONTINUOUS
 10
3.105960
 20
3.369960
  0
SEQEND
  8
0
  0
SOLID
  8
0
 62
    15
 10
3.123560
 20
3.369520
 11
3.127080
 21
2.627680
 12
3.178560
 22
3.369520
 13
3.182080
 23
2.627680
  0
POLYLINE
  8
0
  6
CONTINUOUS
 66
     1
 40
0.000000
 41
0.000000
  0
VERTEX
  8
0
  6
CONTINUOUS
 10
3.123560
 20
3.369520
  0
VERTEX
  8
0
  6
CONTINUOUS
 10
3.127080
 20
2.627680
  0
VERTEX
  8
0
  6
CONTINUOUS
 10
3.182080
 20
2.627680
  0
VERTEX
  8
0
  6
CONTINUOUS
 10
3.178560
 20
3.369520
  0
VERTEX
  8
0
  6
CONTINUOUS
 10
3.123560
 20
3.369520
  0
SEQEND
  8
0
  0
SOLID
  8
0
 62
    15
 10
3.178560
 20
3.369520
 11
3.182080
 21
2.627680
 12
3.223880
 22
3.372160
 13
3.227400
 23
2.630320
  0
POLYLINE
  8
0
  6
CONTINUOUS
 66
     1
 40
0.000000
 41
0.000000
  0
VERTEX
  8
0
  6
CONTINUOUS
 10
3.178560
 20
3.369520
  0
VERTEX
  8
0
  6
CONTINUOUS
 10
3.182080
 20
2.627680
  0
VERTEX
  8
0
  6
CONTINUOUS
 10
3.227400
 20
2.630320
  0
VERTEX
  8
0
  6
CONTINUOUS
 10
3.223880
 20
3.372160
  0
VERTEX
  8
0
  6
CONTINUOUS
 10
3.178560
 20
3.369520
  0
SEQEND
  8
0
  0
SOLID
  8
0
 62
    15
 10
3.223880
 20
3.372160
 11
3.227400
 21
2.630320
 12
3.261280
 22
3.378320
 13
3.264800
 23
2.636480
  0
POLYLINE
  8
0
  6
CONTINUOUS
 66
     1
 40
0.000000
 41
0.000000
  0
VERTEX
  8
0
  6
CONTINUOUS
 10
3.223880
 20
3.372160
  0
VERTEX
  8
0
  6
CONTINUOUS
 10
3.227400
 20
2.630320
  0
VERTEX
  8
0
  6
CONTINUOUS
 10
3.264800
 20
2.636480
  0
VERTEX
  8
0
  6
CONTINUOUS
 10
3.261280
 20
3.378320
  0
VERTEX
  8
0
  6
CONTINUOUS
 10
3.223880
 20
3.372160
  0
SEQEND
  8
0
  0
SOLID
  8
0
 62
    15
 10
3.261280
 20
3.378320
 11
3.264800
 21
2.636480
 12
3.292960
 22
3.388000
 13
3.296480
 23
2.646160
  0
POLYLINE
  8
0
  6
CONTINUOUS
 66
     1
 40
0.000000
 41
0.000000
  0
VERTEX
  8
0
  6
CONTINUOUS
 10
3.261280
 20
3.378320
  0
VERTEX
  8
0
  6
CONTINUOUS
 10
3.264800
 20
2.636480
  0
VERTEX
  8
0
  6
CONTINUOUS
 10
3.296480
 20
2.646160
  0
VERTEX
  8
0
  6
CONTINUOUS
 10
3.292960
 20
3.388000
  0
VERTEX
  8
0
  6
CONTINUOUS
 10
3.261280
 20
3.378320
  0
SEQEND
  8
0
  0
SOLID
  8
0
 62
    15
 10
3.292960
 20
3.388000
 11
3.296480
 21
2.646160
 12
3.321560
 22
3.402520
 13
3.324640
 23
2.660680
  0
POLYLINE
  8
0
  6
CONTINUOUS
 66
     1
 40
0.000000
 41
0.000000
  0
VERTEX
  8
0
  6
CONTINUOUS
 10
3.292960
 20
3.388000
  0
VERTEX
  8
0
  6
CONTINUOUS
 10
3.296480
 20
2.646160
  0
VERTEX
  8
0
  6
CONTINUOUS
 10
3.324640
 20
2.660680
  0
VERTEX
  8
0
  6
CONTINUOUS
 10
3.321560
 20
3.402520
  0
VERTEX
  8
0
  6
CONTINUOUS
 10
3.292960
 20
3.388000
  0
SEQEND
  8
0
  0
SOLID
  8
0
 62
    15
 10
3.321560
 20
3.402520
 11
3.324640
 21
2.660680
 12
3.347960
 22
3.421440
 13
3.351480
 23
2.679600
  0
POLYLINE
  8
0
  6
CONTINUOUS
 66
     1
 40
0.000000
 41
0.000000
  0
VERTEX
  8
0
  6
CONTINUOUS
 10
3.321560
 20
3.402520
  0
VERTEX
  8
0
  6
CONTINUOUS
 10
3.324640
 20
2.660680
  0
VERTEX
  8
0
  6
CONTINUOUS
 10
3.351480
 20
2.679600
  0
VERTEX
  8
0
  6
CONTINUOUS
 10
3.347960
 20
3.421440
  0
VERTEX
  8
0
  6
CONTINUOUS
 10
3.321560
 20
3.402520
  0
SEQEND
  8
0
  0
SOLID
  8
0
 62
    15
 10
3.347960
 20
3.421440
 11
3.351480
 21
2.679600
 12
3.375240
 22
3.446080
 13
3.378320
 23
2.704240
  0
POLYLINE
  8
0
  6
CONTINUOUS
 66
     1
 40
0.000000
 41
0.000000
  0
VERTEX
  8
0
  6
CONTINUOUS
 10
3.347960
 20
3.421440
  0
VERTEX
  8
0
  6
CONTINUOUS
 10
3.351480
 20
2.679600
  0
VERTEX
  8
0
  6
CONTINUOUS
 10
3.378320
 20
2.704240
  0
VERTEX
  8
0
  6
CONTINUOUS
 10
3.375240
 20
3.446080
  0
VERTEX
  8
0
  6
CONTINUOUS
 10
3.347960
 20
3.421440
  0
SEQEND
  8
0
  0
SOLID
  8
0
 62
    15
 10
3.375240
 20
3.446080
 11
3.378320
 21
2.704240
 12
3.404720
 22
3.476440
 13
3.408240
 23
2.734160
  0
POLYLINE
  8
0
  6
CONTINUOUS
 66
     1
 40
0.000000
 41
0.000000
  0
VERTEX
  8
0
  6
CONTINUOUS
 10
3.375240
 20
3.446080
  0
VERTEX
  8
0
  6
CONTINUOUS
 10
3.378320
 20
2.704240
  0
VERTEX
  8
0
  6
CONTINUOUS
 10
3.408240
 20
2.734160
  0
VERTEX
  8
0
  6
CONTINUOUS
 10
3.404720
 20
3.476440
  0
VERTEX
  8
0
  6
CONTINUOUS
 10
3.375240
 20
3.446080
  0
SEQEND
  8
0
  0
SOLID
  8
0
 62
    15
 10
3.404720
 20
3.476440
 11
3.408240
 21
2.734160
 12
3.630000
 22
3.476440
 13
3.633080
 23
2.734600
  0
POLYLINE
  8
0
  6
CONTINUOUS
 66
     1
 40
0.000000
 41
0.000000
  0
VERTEX
  8
0
  6
CONTINUOUS
 10
3.404720
 20
3.476440
  0
VERTEX
  8
0
  6
CONTINUOUS
 10
3.408240
 20
2.734160
  0
VERTEX
  8
0
  6
CONTINUOUS
 10
3.633080
 20
2.734600
  0
VERTEX
  8
0
  6
CONTINUOUS
 10
3.630000
 20
3.476440
  0
VERTEX
  8
0
  6
CONTINUOUS
 10
3.404720
 20
3.476440
  0
SEQEND
  8
0
  0
SOLID
  8
0
 62
    15
 10
3.630000
 20
3.476440
 11
3.633080
 21
2.734600
 12
3.633080
 22
3.476440
 13
3.636600
 23
2.734600
  0
POLYLINE
  8
0
  6
CONTINUOUS
 66
     1
 40
0.000000
 41
0.000000
  0
VERTEX
  8
0
  6
CONTINUOUS
 10
3.630000
 20
3.476440
  0
VERTEX
  8
0
  6
CONTINUOUS
 10
3.633080
 20
2.734600
  0
VERTEX
  8
0
  6
CONTINUOUS
 10
3.636600
 20
2.734600
  0
VERTEX
  8
0
  6
CONTINUOUS
 10
3.633080
 20
3.476440
  0
VERTEX
  8
0
  6
CONTINUOUS
 10
3.630000
 20
3.476440
  0
SEQEND
  8
0
  0
SOLID
  8
0
 62
    15
 10
3.633080
 20
3.476440
 11
3.636600
 21
2.734600
 12
3.642320
 22
3.476880
 13
3.645840
 23
2.735040
  0
POLYLINE
  8
0
  6
CONTINUOUS
 66
     1
 40
0.000000
 41
0.000000
  0
VERTEX
  8
0
  6
CONTINUOUS
 10
3.633080
 20
3.476440
  0
VERTEX
  8
0
  6
CONTINUOUS
 10
3.636600
 20
2.734600
  0
VERTEX
  8
0
  6
CONTINUOUS
 10
3.645840
 20
2.735040
  0
VERTEX
  8
0
  6
CONTINUOUS
 10
3.642320
 20
3.476880
  0
VERTEX
  8
0
  6
CONTINUOUS
 10
3.633080
 20
3.476440
  0
SEQEND
  8
0
  0
SOLID
  8
0
 62
    15
 10
3.642320
 20
3.476880
 11
3.645840
 21
2.735040
 12
3.655960
 22
3.479520
 13
3.659040
 23
2.737680
  0
POLYLINE
  8
0
  6
CONTINUOUS
 66
     1
 40
0.000000
 41
0.000000
  0
VERTEX
  8
0
  6
CONTINUOUS
 10
3.642320
 20
3.476880
  0
VERTEX
  8
0
  6
CONTINUOUS
 10
3.645840
 20
2.735040
  0
VERTEX
  8
0
  6
CONTINUOUS
 10
3.659040
 20
2.737680
  0
VERTEX
  8
0
  6
CONTINUOUS
 10
3.655960
 20
3.479520
  0
VERTEX
  8
0
  6
CONTINUOUS
 10
3.642320
 20
3.476880
  0
SEQEND
  8
0
  0
SOLID
  8
0
 62
    15
 10
3.655960
 20
3.479520
 11
3.659040
 21
2.737680
 12
3.671360
 22
3.485240
 13
3.674880
 23
2.742960
  0
POLYLINE
  8
0
  6
CONTINUOUS
 66
     1
 40
0.000000
 41
0.000000
  0
VERTEX
  8
0
  6
CONTINUOUS
 10
3.655960
 20
3.479520
  0
VERTEX
  8
0
  6
CONTINUOUS
 10
3.659040
 20
2.737680
  0
VERTEX
  8
0
  6
CONTINUOUS
 10
3.674880
 20
2.742960
  0
VERTEX
  8
0
  6
CONTINUOUS
 10
3.671360
 20
3.485240
  0
VERTEX
  8
0
  6
CONTINUOUS
 10
3.655960
 20
3.479520
  0
SEQEND
  8
0
  0
SOLID
  8
0
 62
    15
 10
3.671360
 20
3.485240
 11
3.674880
 21
2.742960
 12
3.688080
 22
3.494920
 13
3.691600
 23
2.753080
  0
POLYLINE
  8
0
  6
CONTINUOUS
 66
     1
 40
0.000000
 41
0.000000
  0
VERTEX
  8
0
  6
CONTINUOUS
 10
3.671360
 20
3.485240
  0
VERTEX
  8
0
  6
CONTINUOUS
 10
3.674880
 20
2.742960
  0
VERTEX
  8
0
  6
CONTINUOUS
 10
3.691600
 20
2.753080
  0
VERTEX
  8
0
  6
CONTINUOUS
 10
3.688080
 20
3.494920
  0
VERTEX
  8
0
  6
CONTINUOUS
 10
3.671360
 20
3.485240
  0
SEQEND
  8
0
  0
SOLID
  8
0
 62
    15
 10
3.688080
 20
3.494920
 11
3.691600
 21
2.753080
 12
3.703920
 22
3.509880
 13
3.707440
 23
2.768040
  0
POLYLINE
  8
0
  6
CONTINUOUS
 66
     1
 40
0.000000
 41
0.000000
  0
VERTEX
  8
0
  6
CONTINUOUS
 10
3.688080
 20
3.494920
  0
VERTEX
  8
0
  6
CONTINUOUS
 10
3.691600
 20
2.753080
  0
VERTEX
  8
0
  6
CONTINUOUS
 10
3.707440
 20
2.768040
  0
VERTEX
  8
0
  6
CONTINUOUS
 10
3.703920
 20
3.509880
  0
VERTEX
  8
0
  6
CONTINUOUS
 10
3.688080
 20
3.494920
  0
SEQEND
  8
0
  0
SOLID
  8
0
 62
    15
 10
3.703920
 20
3.509880
 11
3.707440
 21
2.768040
 12
3.717120
 22
3.531880
 13
3.720640
 23
2.790040
  0
POLYLINE
  8
0
  6
CONTINUOUS
 66
     1
 40
0.000000
 41
0.000000
  0
VERTEX
  8
0
  6
CONTINUOUS
 10
3.703920
 20
3.509880
  0
VERTEX
  8
0
  6
CONTINUOUS
 10
3.707440
 20
2.768040
  0
VERTEX
  8
0
  6
CONTINUOUS
 10
3.720640
 20
2.790040
  0
VERTEX
  8
0
  6
CONTINUOUS
 10
3.717120
 20
3.531880
  0
VERTEX
  8
0
  6
CONTINUOUS
 10
3.703920
 20
3.509880
  0
SEQEND
  8
0
  0
SOLID
  8
0
 62
    15
 10
3.726360
 20
3.561800
 11
3.729880
 21
2.819960
 12
3.726360
 22
3.718440
 13
3.729880
 23
2.976160
  0
POLYLINE
  8
0
  6
CONTINUOUS
 66
     1
 40
0.000000
 41
0.000000
  0
VERTEX
  8
0
  6
CONTINUOUS
 10
3.726360
 20
3.561800
  0
VERTEX
  8
0
  6
CONTINUOUS
 10
3.729880
 20
2.819960
  0
VERTEX
  8
0
  6
CONTINUOUS
 10
3.729880
 20
2.976160
  0
VERTEX
  8
0
  6
CONTINUOUS
 10
3.726360
 20
3.718440
  0
VERTEX
  8
0
  6
CONTINUOUS
 10
3.726360
 20
3.561800
  0
SEQEND
  8
0
  0
SOLID
  8
0
 62
    15
 10
3.717120
 20
3.531880
 11
3.720640
 21
2.790040
 12
3.726360
 22
3.561800
 13
3.729880
 23
2.819960
  0
POLYLINE
  8
0
  6
CONTINUOUS
 66
     1
 40
0.000000
 41
0.000000
  0
VERTEX
  8
0
  6
CONTINUOUS
 10
3.717120
 20
3.531880
  0
VERTEX
  8
0
  6
CONTINUOUS
 10
3.720640
 20
2.790040
  0
VERTEX
  8
0
  6
CONTINUOUS
 10
3.729880
 20
2.819960
  0
VERTEX
  8
0
  6
CONTINUOUS
 10
3.726360
 20
3.561800
  0
VERTEX
  8
0
  6
CONTINUOUS
 10
3.717120
 20
3.531880
  0
SEQEND
  8
0
  0
SOLID
  8
0
 62
    15
 10
3.725920
 20
3.718440
 11
3.729440
 21
2.976160
 12
3.726360
 22
3.718440
 13
3.729880
 23
2.976160
  0
POLYLINE
  8
0
  6
CONTINUOUS
 66
     1
 40
0.000000
 41
0.000000
  0
VERTEX
  8
0
  6
CONTINUOUS
 10
3.725920
 20
3.718440
  0
VERTEX
  8
0
  6
CONTINUOUS
 10
3.729440
 20
2.976160
  0
VERTEX
  8
0
  6
CONTINUOUS
 10
3.729880
 20
2.976160
  0
VERTEX
  8
0
  6
CONTINUOUS
 10
3.726360
 20
3.718440
  0
VERTEX
  8
0
  6
CONTINUOUS
 10
3.725920
 20
3.718440
  0
SEQEND
  8
0
  0
POLYLINE
  8
0
  6
CONTINUOUS
 66
     1
 40
0.000000
 41
0.000000
  0
VERTEX
  8
0
  6
CONTINUOUS
 10
3.726360
 20
3.718440
  0
VERTEX
  8
0
  6
CONTINUOUS
 10
3.726360
 20
3.743520
  0
VERTEX
  8
0
  6
CONTINUOUS
 10
0.976360
 20
3.743520
  0
VERTEX
  8
0
  6
CONTINUOUS
 10
0.976360
 20
2.993760
  0
VERTEX
  8
0
  6
CONTINUOUS
 10
1.299760
 20
2.993760
  0
VERTEX
  8
0
  6
CONTINUOUS
 10
1.327480
 20
2.999920
  0
VERTEX
  8
0
  6
CONTINUOUS
 10
1.355640
 20
3.017520
  0
VERTEX
  8
0
  6
CONTINUOUS
 10
1.398760
 20
3.055360
  0
VERTEX
  8
0
  6
CONTINUOUS
 10
1.443200
 20
3.097160
  0
VERTEX
  8
0
  6
CONTINUOUS
 10
1.474000
 20
3.121360
  0
VERTEX
  8
0
  6
CONTINUOUS
 10
1.505680
 20
3.138520
  0
VERTEX
  8
0
  6
CONTINUOUS
 10
1.538680
 20
3.145120
  0
VERTEX
  8
0
  6
CONTINUOUS
 10
2.652320
 20
3.145120
  0
VERTEX
  8
0
  6
CONTINUOUS
 10
2.666840
 20
3.146880
  0
VERTEX
  8
0
  6
CONTINUOUS
 10
2.680040
 20
3.152160
  0
VERTEX
  8
0
  6
CONTINUOUS
 10
2.703800
 20
3.171520
  0
VERTEX
  8
0
  6
CONTINUOUS
 10
2.739880
 20
3.215960
  0
VERTEX
  8
0
  6
CONTINUOUS
 10
2.783880
 20
3.269200
  0
VERTEX
  8
0
  6
CONTINUOUS
 10
2.823040
 20
3.304400
  0
VERTEX
  8
0
  6
CONTINUOUS
 10
2.846800
 20
3.320680
  0
VERTEX
  8
0
  6
CONTINUOUS
 10
2.873200
 20
3.335200
  0
VERTEX
  8
0
  6
CONTINUOUS
 10
2.903120
 20
3.347960
  0
VERTEX
  8
0
  6
CONTINUOUS
 10
2.937000
 20
3.358960
  0
VERTEX
  8
0
  6
CONTINUOUS
 10
2.989360
 20
3.368200
  0
VERTEX
  8
0
  6
CONTINUOUS
 10
3.039960
 20
3.371280
  0
VERTEX
  8
0
  6
CONTINUOUS
 10
3.123560
 20
3.369520
  0
VERTEX
  8
0
  6
CONTINUOUS
 10
3.178560
 20
3.369520
  0
VERTEX
  8
0
  6
CONTINUOUS
 10
3.223880
 20
3.372160
  0
VERTEX
  8
0
  6
CONTINUOUS
 10
3.261280
 20
3.378320
  0
VERTEX
  8
0
  6
CONTINUOUS
 10
3.292960
 20
3.388000
  0
VERTEX
  8
0
  6
CONTINUOUS
 10
3.321560
 20
3.402520
  0
VERTEX
  8
0
  6
CONTINUOUS
 10
3.347960
 20
3.421440
  0
VERTEX
  8
0
  6
CONTINUOUS
 10
3.375240
 20
3.446080
  0
VERTEX
  8
0
  6
CONTINUOUS
 10
3.404720
 20
3.476440
  0
VERTEX
  8
0
  6
CONTINUOUS
 10
3.642320
 20
3.476880
  0
VERTEX
  8
0
  6
CONTINUOUS
 10
3.655960
 20
3.479520
  0
VERTEX
  8
0
  6
CONTINUOUS
 10
3.671360
 20
3.485240
  0
VERTEX
  8
0
  6
CONTINUOUS
 10
3.688080
 20
3.494920
  0
VERTEX
  8
0
  6
CONTINUOUS
 10
3.703920
 20
3.509880
  0
VERTEX
  8
0
  6
CONTINUOUS
 10
3.717120
 20
3.531880
  0
VERTEX
  8
0
  6
CONTINUOUS
 10
3.726360
 20
3.561800
  0
VERTEX
  8
0
  6
CONTINUOUS
 10
3.725920
 20
3.718440
  0
VERTEX
  8
0
  6
CONTINUOUS
 10
3.726360
 20
3.718440
  0
SEQEND
  8
0
  0
TEXT
  8
0
 10
1.781120
 20
3.475560
 40
0.138152
  1
BA  994
 41
1.000000
  7
SN0
 71
     0
 72
     5
 11
2.370540
 21
3.475560
  0
TEXT
  8
0
 10
1.625360
 20
3.283720
 40
0.138152
  1
3/4" x 2-3/4"
 41
1.000000
  7
SN0
 71
     0
 72
     5
 11
2.525249
 21
3.283720
  0
ENDSEC
  0
EOF
