  0
SECTION
  2
HEADER
  9
$ACADVER
  1
AC1006
  9
$EXTMIN
 10
0.776160
 20
0.718960
  9
$EXTMAX
 10
7.931000
 20
3.659480
  9
$LTSCALE
 40
0.044000
  9
$PDMODE
 70
    35
  9
$PDSIZE
 40
0.035200
  0
ENDSEC
  0
SECTION
  2
TABLES
  0
TABLE
  2
LTYPE
 70
     9
  0
LTYPE
  2
CONTINUOUS
 70
    64
  3
Solid line
 72
    65
 73
     0
 40
0.000000
  0
LTYPE
  2
DASHED
 70
    64
  3
__ __ __ __ __ __ __ __ __ __ __ __ __ __ __
 72
    65
 73
     2
 40
0.000330
 49
0.000220
 49
-0.000110
  0
LTYPE
  2
HIDDEN
 70
    64
  3
 _ _ _ _ _ _ _ _ _ _ _ _ _ _ _ _ _ _ _ _ _ _
 72
    65
 73
     2
 40
0.000165
 49
0.000110
 49
-0.000055
  0
LTYPE
  2
CENTER
 70
    64
  3
____ _ ____ _ ____ _ ____ _ ____ _ ____ _ ____
 72
    65
 73
     4
 40
0.000880
 49
0.000550
 49
-0.000110
 49
0.000110
 49
-0.000110
  0
LTYPE
  2
PHANTOM
 70
    64
  3
_____ _ _ _____ _ _ _____ _ _ _____ _ _ ____
 72
    65
 73
     6
 40
0.001100
 49
0.000550
 49
-0.000110
 49
0.000110
 49
-0.000110
 49
0.000110
 49
-0.000110
  0
LTYPE
  2
DOT
 70
    64
  3
...............................................
 72
    65
 73
     2
 40
0.000110
 49
0.000000
 49
-0.000110
  0
LTYPE
  2
DASHDOT
 70
    64
  3
__ . __ . __ . __ . __ . __ . __ . __ . __ . __
 72
    65
 73
     4
 40
0.000440
 49
0.000220
 49
-0.000110
 49
0.000000
 49
-0.000110
  0
LTYPE
  2
BORDER
 70
    64
  3
__ __ . __ __ . __ __ . __ __ . __ __ . __ __
 72
    65
 73
     6
 40
0.000770
 49
0.000220
 49
-0.000110
 49
0.000220
 49
-0.000110
 49
0.000000
 49
-0.000110
  0
LTYPE
  2
DIVIDE
 70
    64
  3
__ . . __ . . __ . . __ . . __ . . __ . . __
 72
    65
 73
     6
 40
0.000550
 49
0.000220
 49
-0.000110
 49
0.000000
 49
-0.000110
 49
0.000000
 49
-0.000110
  0
LTYPE
  2
DOTDOT
 70
    64
  3
 . .  . .  . .  . .  . .  . . 
 72
    65
 73
     5
 40
0.000242
 49
-0.000110
 49
0.000000
 49
-0.000110
 49
0.000000
 49
-0.000110
  0
ENDTAB
  0
TABLE
  2
STYLE
 70
     2
  0
STYLE
 70
     0
  2
SN0
 40
0.000000
 41
0.000440
 50
0.000000
 71
     0
 42
0.000000
  3
ROMAND
  0
STYLE
 70
    68
  2
SV0
 40
0.000000
 41
0.000440
 50
0.000000
 71
     0
 42
0.000000
  3
ROMAND
  0
ENDTAB
  0
TABLE
  2
LAYER
 70
     3
  0
LAYER
  2
FOREGROUND
 70
    64
 62
     7
  6
CONTINUOUS
  0
LAYER
  2
BACKGROUND
 70
    65
 62
    -7
  6
CONTINUOUS
  0
LAYER
  2
0
 70
    64
 62
     7
  6
CONTINUOUS
  0
ENDTAB
  0
ENDSEC
  0
SECTION
  2
ENTITIES
  0
POLYLINE
  8
FOREGROUND
  6
CONTINUOUS
 66
     1
 40
0.000000
 41
0.000000
  0
VERTEX
  8
FOREGROUND
  6
CONTINUOUS
 10
0.000000
 20
4.378440
  0
VERTEX
  8
FOREGROUND
  6
CONTINUOUS
 10
8.499920
 20
4.378440
  0
VERTEX
  8
FOREGROUND
  6
CONTINUOUS
 10
8.499920
 20
-6.621560
  0
VERTEX
  8
FOREGROUND
  6
CONTINUOUS
 10
0.000000
 20
-6.621560
  0
VERTEX
  8
FOREGROUND
  6
CONTINUOUS
 10
0.000000
 20
4.378440
  0
SEQEND
  8
0
  0
POLYLINE
  8
FOREGROUND
  6
CONTINUOUS
 66
     1
 40
0.000000
 41
0.000000
  0
VERTEX
  8
FOREGROUND
  6
CONTINUOUS
 10
0.000000
 20
4.378440
  0
VERTEX
  8
FOREGROUND
  6
CONTINUOUS
 10
8.499920
 20
4.378440
  0
VERTEX
  8
FOREGROUND
  6
CONTINUOUS
 10
8.499920
 20
-6.621560
  0
VERTEX
  8
FOREGROUND
  6
CONTINUOUS
 10
0.000000
 20
-6.621560
  0
VERTEX
  8
FOREGROUND
  6
CONTINUOUS
 10
0.000000
 20
4.378440
  0
SEQEND
  8
0
  0
SOLID
  8
0
 62
    15
 10
6.998640
 20
1.555840
 11
7.001720
 21
2.297680
 12
7.050560
 22
1.546600
 13
7.054080
 23
2.288440
  0
POLYLINE
  8
0
  6
CONTINUOUS
 66
     1
 40
0.000000
 41
0.000000
  0
VERTEX
  8
0
  6
CONTINUOUS
 10
6.998640
 20
1.555840
  0
VERTEX
  8
0
  6
CONTINUOUS
 10
7.001720
 20
2.297680
  0
VERTEX
  8
0
  6
CONTINUOUS
 10
7.054080
 20
2.288440
  0
VERTEX
  8
0
  6
CONTINUOUS
 10
7.050560
 20
1.546600
  0
VERTEX
  8
0
  6
CONTINUOUS
 10
6.998640
 20
1.555840
  0
SEQEND
  8
0
  0
SOLID
  8
0
 62
    15
 10
5.037560
 20
1.921040
 11
5.041080
 21
2.662880
 12
5.361400
 22
1.921040
 13
5.364480
 23
2.662880
  0
POLYLINE
  8
0
  6
CONTINUOUS
 66
     1
 40
0.000000
 41
0.000000
  0
VERTEX
  8
0
  6
CONTINUOUS
 10
5.037560
 20
1.921040
  0
VERTEX
  8
0
  6
CONTINUOUS
 10
5.041080
 20
2.662880
  0
VERTEX
  8
0
  6
CONTINUOUS
 10
5.364480
 20
2.662880
  0
VERTEX
  8
0
  6
CONTINUOUS
 10
5.361400
 20
1.921040
  0
VERTEX
  8
0
  6
CONTINUOUS
 10
5.037560
 20
1.921040
  0
SEQEND
  8
0
  0
SOLID
  8
0
 62
    15
 10
5.361400
 20
1.921040
 11
5.364480
 21
2.662880
 12
5.389120
 22
1.914440
 13
5.392200
 23
2.656280
  0
POLYLINE
  8
0
  6
CONTINUOUS
 66
     1
 40
0.000000
 41
0.000000
  0
VERTEX
  8
0
  6
CONTINUOUS
 10
5.361400
 20
1.921040
  0
VERTEX
  8
0
  6
CONTINUOUS
 10
5.364480
 20
2.662880
  0
VERTEX
  8
0
  6
CONTINUOUS
 10
5.392200
 20
2.656280
  0
VERTEX
  8
0
  6
CONTINUOUS
 10
5.389120
 20
1.914440
  0
VERTEX
  8
0
  6
CONTINUOUS
 10
5.361400
 20
1.921040
  0
SEQEND
  8
0
  0
SOLID
  8
0
 62
    15
 10
5.389120
 20
1.914440
 11
5.392200
 21
2.656280
 12
5.416840
 22
1.897280
 13
5.420360
 23
2.639120
  0
POLYLINE
  8
0
  6
CONTINUOUS
 66
     1
 40
0.000000
 41
0.000000
  0
VERTEX
  8
0
  6
CONTINUOUS
 10
5.389120
 20
1.914440
  0
VERTEX
  8
0
  6
CONTINUOUS
 10
5.392200
 20
2.656280
  0
VERTEX
  8
0
  6
CONTINUOUS
 10
5.420360
 20
2.639120
  0
VERTEX
  8
0
  6
CONTINUOUS
 10
5.416840
 20
1.897280
  0
VERTEX
  8
0
  6
CONTINUOUS
 10
5.389120
 20
1.914440
  0
SEQEND
  8
0
  0
SOLID
  8
0
 62
    15
 10
5.416840
 20
1.897280
 11
5.420360
 21
2.639120
 12
5.445440
 22
1.873080
 13
5.448960
 23
2.614920
  0
POLYLINE
  8
0
  6
CONTINUOUS
 66
     1
 40
0.000000
 41
0.000000
  0
VERTEX
  8
0
  6
CONTINUOUS
 10
5.416840
 20
1.897280
  0
VERTEX
  8
0
  6
CONTINUOUS
 10
5.420360
 20
2.639120
  0
VERTEX
  8
0
  6
CONTINUOUS
 10
5.448960
 20
2.614920
  0
VERTEX
  8
0
  6
CONTINUOUS
 10
5.445440
 20
1.873080
  0
VERTEX
  8
0
  6
CONTINUOUS
 10
5.416840
 20
1.897280
  0
SEQEND
  8
0
  0
SOLID
  8
0
 62
    15
 10
5.445440
 20
1.873080
 11
5.448960
 21
2.614920
 12
5.459960
 22
1.859440
 13
5.463480
 23
2.601280
  0
POLYLINE
  8
0
  6
CONTINUOUS
 66
     1
 40
0.000000
 41
0.000000
  0
VERTEX
  8
0
  6
CONTINUOUS
 10
5.445440
 20
1.873080
  0
VERTEX
  8
0
  6
CONTINUOUS
 10
5.448960
 20
2.614920
  0
VERTEX
  8
0
  6
CONTINUOUS
 10
5.463480
 20
2.601280
  0
VERTEX
  8
0
  6
CONTINUOUS
 10
5.459960
 20
1.859440
  0
VERTEX
  8
0
  6
CONTINUOUS
 10
5.445440
 20
1.873080
  0
SEQEND
  8
0
  0
SOLID
  8
0
 62
    15
 10
5.459960
 20
1.859440
 11
5.463480
 21
2.601280
 12
5.474920
 22
1.845360
 13
5.478000
 23
2.587200
  0
POLYLINE
  8
0
  6
CONTINUOUS
 66
     1
 40
0.000000
 41
0.000000
  0
VERTEX
  8
0
  6
CONTINUOUS
 10
5.459960
 20
1.859440
  0
VERTEX
  8
0
  6
CONTINUOUS
 10
5.463480
 20
2.601280
  0
VERTEX
  8
0
  6
CONTINUOUS
 10
5.478000
 20
2.587200
  0
VERTEX
  8
0
  6
CONTINUOUS
 10
5.474920
 20
1.845360
  0
VERTEX
  8
0
  6
CONTINUOUS
 10
5.459960
 20
1.859440
  0
SEQEND
  8
0
  0
SOLID
  8
0
 62
    15
 10
5.474920
 20
1.845360
 11
5.478000
 21
2.587200
 12
5.504400
 22
1.817200
 13
5.507920
 23
2.559040
  0
POLYLINE
  8
0
  6
CONTINUOUS
 66
     1
 40
0.000000
 41
0.000000
  0
VERTEX
  8
0
  6
CONTINUOUS
 10
5.474920
 20
1.845360
  0
VERTEX
  8
0
  6
CONTINUOUS
 10
5.478000
 20
2.587200
  0
VERTEX
  8
0
  6
CONTINUOUS
 10
5.507920
 20
2.559040
  0
VERTEX
  8
0
  6
CONTINUOUS
 10
5.504400
 20
1.817200
  0
VERTEX
  8
0
  6
CONTINUOUS
 10
5.474920
 20
1.845360
  0
SEQEND
  8
0
  0
SOLID
  8
0
 62
    15
 10
5.504400
 20
1.817200
 11
5.507920
 21
2.559040
 12
5.535200
 22
1.793000
 13
5.538720
 23
2.534840
  0
POLYLINE
  8
0
  6
CONTINUOUS
 66
     1
 40
0.000000
 41
0.000000
  0
VERTEX
  8
0
  6
CONTINUOUS
 10
5.504400
 20
1.817200
  0
VERTEX
  8
0
  6
CONTINUOUS
 10
5.507920
 20
2.559040
  0
VERTEX
  8
0
  6
CONTINUOUS
 10
5.538720
 20
2.534840
  0
VERTEX
  8
0
  6
CONTINUOUS
 10
5.535200
 20
1.793000
  0
VERTEX
  8
0
  6
CONTINUOUS
 10
5.504400
 20
1.817200
  0
SEQEND
  8
0
  0
SOLID
  8
0
 62
    15
 10
5.535200
 20
1.793000
 11
5.538720
 21
2.534840
 12
5.566880
 22
1.775840
 13
5.570400
 23
2.517680
  0
POLYLINE
  8
0
  6
CONTINUOUS
 66
     1
 40
0.000000
 41
0.000000
  0
VERTEX
  8
0
  6
CONTINUOUS
 10
5.535200
 20
1.793000
  0
VERTEX
  8
0
  6
CONTINUOUS
 10
5.538720
 20
2.534840
  0
VERTEX
  8
0
  6
CONTINUOUS
 10
5.570400
 20
2.517680
  0
VERTEX
  8
0
  6
CONTINUOUS
 10
5.566880
 20
1.775840
  0
VERTEX
  8
0
  6
CONTINUOUS
 10
5.535200
 20
1.793000
  0
SEQEND
  8
0
  0
SOLID
  8
0
 62
    15
 10
5.566880
 20
1.775840
 11
5.570400
 21
2.517680
 12
5.599880
 22
1.769240
 13
5.603400
 23
2.511080
  0
POLYLINE
  8
0
  6
CONTINUOUS
 66
     1
 40
0.000000
 41
0.000000
  0
VERTEX
  8
0
  6
CONTINUOUS
 10
5.566880
 20
1.775840
  0
VERTEX
  8
0
  6
CONTINUOUS
 10
5.570400
 20
2.517680
  0
VERTEX
  8
0
  6
CONTINUOUS
 10
5.603400
 20
2.511080
  0
VERTEX
  8
0
  6
CONTINUOUS
 10
5.599880
 20
1.769240
  0
VERTEX
  8
0
  6
CONTINUOUS
 10
5.566880
 20
1.775840
  0
SEQEND
  8
0
  0
SOLID
  8
0
 62
    15
 10
5.599880
 20
1.769240
 11
5.603400
 21
2.511080
 12
6.713520
 22
1.769240
 13
6.717040
 23
2.511080
  0
POLYLINE
  8
0
  6
CONTINUOUS
 66
     1
 40
0.000000
 41
0.000000
  0
VERTEX
  8
0
  6
CONTINUOUS
 10
5.599880
 20
1.769240
  0
VERTEX
  8
0
  6
CONTINUOUS
 10
5.603400
 20
2.511080
  0
VERTEX
  8
0
  6
CONTINUOUS
 10
6.717040
 20
2.511080
  0
VERTEX
  8
0
  6
CONTINUOUS
 10
6.713520
 20
1.769240
  0
VERTEX
  8
0
  6
CONTINUOUS
 10
5.599880
 20
1.769240
  0
SEQEND
  8
0
  0
SOLID
  8
0
 62
    15
 10
6.713520
 20
1.769240
 11
6.717040
 21
2.511080
 12
6.728040
 22
1.767480
 13
6.731560
 23
2.509320
  0
POLYLINE
  8
0
  6
CONTINUOUS
 66
     1
 40
0.000000
 41
0.000000
  0
VERTEX
  8
0
  6
CONTINUOUS
 10
6.713520
 20
1.769240
  0
VERTEX
  8
0
  6
CONTINUOUS
 10
6.717040
 20
2.511080
  0
VERTEX
  8
0
  6
CONTINUOUS
 10
6.731560
 20
2.509320
  0
VERTEX
  8
0
  6
CONTINUOUS
 10
6.728040
 20
1.767480
  0
VERTEX
  8
0
  6
CONTINUOUS
 10
6.713520
 20
1.769240
  0
SEQEND
  8
0
  0
SOLID
  8
0
 62
    15
 10
6.728040
 20
1.767480
 11
6.731560
 21
2.509320
 12
6.741240
 22
1.762200
 13
6.744760
 23
2.504040
  0
POLYLINE
  8
0
  6
CONTINUOUS
 66
     1
 40
0.000000
 41
0.000000
  0
VERTEX
  8
0
  6
CONTINUOUS
 10
6.728040
 20
1.767480
  0
VERTEX
  8
0
  6
CONTINUOUS
 10
6.731560
 20
2.509320
  0
VERTEX
  8
0
  6
CONTINUOUS
 10
6.744760
 20
2.504040
  0
VERTEX
  8
0
  6
CONTINUOUS
 10
6.741240
 20
1.762200
  0
VERTEX
  8
0
  6
CONTINUOUS
 10
6.728040
 20
1.767480
  0
SEQEND
  8
0
  0
SOLID
  8
0
 62
    15
 10
6.741240
 20
1.762200
 11
6.744760
 21
2.504040
 12
6.765440
 22
1.742840
 13
6.768520
 23
2.484680
  0
POLYLINE
  8
0
  6
CONTINUOUS
 66
     1
 40
0.000000
 41
0.000000
  0
VERTEX
  8
0
  6
CONTINUOUS
 10
6.741240
 20
1.762200
  0
VERTEX
  8
0
  6
CONTINUOUS
 10
6.744760
 20
2.504040
  0
VERTEX
  8
0
  6
CONTINUOUS
 10
6.768520
 20
2.484680
  0
VERTEX
  8
0
  6
CONTINUOUS
 10
6.765440
 20
1.742840
  0
VERTEX
  8
0
  6
CONTINUOUS
 10
6.741240
 20
1.762200
  0
SEQEND
  8
0
  0
SOLID
  8
0
 62
    15
 10
6.765440
 20
1.742840
 11
6.768520
 21
2.484680
 12
6.788760
 22
1.715120
 13
6.792280
 23
2.456960
  0
POLYLINE
  8
0
  6
CONTINUOUS
 66
     1
 40
0.000000
 41
0.000000
  0
VERTEX
  8
0
  6
CONTINUOUS
 10
6.765440
 20
1.742840
  0
VERTEX
  8
0
  6
CONTINUOUS
 10
6.768520
 20
2.484680
  0
VERTEX
  8
0
  6
CONTINUOUS
 10
6.792280
 20
2.456960
  0
VERTEX
  8
0
  6
CONTINUOUS
 10
6.788760
 20
1.715120
  0
VERTEX
  8
0
  6
CONTINUOUS
 10
6.765440
 20
1.742840
  0
SEQEND
  8
0
  0
SOLID
  8
0
 62
    15
 10
6.788760
 20
1.715120
 11
6.792280
 21
2.456960
 12
6.801080
 22
1.698400
 13
6.804600
 23
2.440680
  0
POLYLINE
  8
0
  6
CONTINUOUS
 66
     1
 40
0.000000
 41
0.000000
  0
VERTEX
  8
0
  6
CONTINUOUS
 10
6.788760
 20
1.715120
  0
VERTEX
  8
0
  6
CONTINUOUS
 10
6.792280
 20
2.456960
  0
VERTEX
  8
0
  6
CONTINUOUS
 10
6.804600
 20
2.440680
  0
VERTEX
  8
0
  6
CONTINUOUS
 10
6.801080
 20
1.698400
  0
VERTEX
  8
0
  6
CONTINUOUS
 10
6.788760
 20
1.715120
  0
SEQEND
  8
0
  0
SOLID
  8
0
 62
    15
 10
6.801080
 20
1.698400
 11
6.804600
 21
2.440680
 12
6.814280
 22
1.681240
 13
6.817800
 23
2.423080
  0
POLYLINE
  8
0
  6
CONTINUOUS
 66
     1
 40
0.000000
 41
0.000000
  0
VERTEX
  8
0
  6
CONTINUOUS
 10
6.801080
 20
1.698400
  0
VERTEX
  8
0
  6
CONTINUOUS
 10
6.804600
 20
2.440680
  0
VERTEX
  8
0
  6
CONTINUOUS
 10
6.817800
 20
2.423080
  0
VERTEX
  8
0
  6
CONTINUOUS
 10
6.814280
 20
1.681240
  0
VERTEX
  8
0
  6
CONTINUOUS
 10
6.801080
 20
1.698400
  0
SEQEND
  8
0
  0
SOLID
  8
0
 62
    15
 10
6.814280
 20
1.681240
 11
6.817800
 21
2.423080
 12
6.845520
 22
1.645160
 13
6.848600
 23
2.387000
  0
POLYLINE
  8
0
  6
CONTINUOUS
 66
     1
 40
0.000000
 41
0.000000
  0
VERTEX
  8
0
  6
CONTINUOUS
 10
6.814280
 20
1.681240
  0
VERTEX
  8
0
  6
CONTINUOUS
 10
6.817800
 20
2.423080
  0
VERTEX
  8
0
  6
CONTINUOUS
 10
6.848600
 20
2.387000
  0
VERTEX
  8
0
  6
CONTINUOUS
 10
6.845520
 20
1.645160
  0
VERTEX
  8
0
  6
CONTINUOUS
 10
6.814280
 20
1.681240
  0
SEQEND
  8
0
  0
SOLID
  8
0
 62
    15
 10
6.845520
 20
1.645160
 11
6.848600
 21
2.387000
 12
6.884240
 22
1.610400
 13
6.887760
 23
2.352240
  0
POLYLINE
  8
0
  6
CONTINUOUS
 66
     1
 40
0.000000
 41
0.000000
  0
VERTEX
  8
0
  6
CONTINUOUS
 10
6.845520
 20
1.645160
  0
VERTEX
  8
0
  6
CONTINUOUS
 10
6.848600
 20
2.387000
  0
VERTEX
  8
0
  6
CONTINUOUS
 10
6.887760
 20
2.352240
  0
VERTEX
  8
0
  6
CONTINUOUS
 10
6.884240
 20
1.610400
  0
VERTEX
  8
0
  6
CONTINUOUS
 10
6.845520
 20
1.645160
  0
SEQEND
  8
0
  0
SOLID
  8
0
 62
    15
 10
6.884240
 20
1.610400
 11
6.887760
 21
2.352240
 12
6.908000
 22
1.594120
 13
6.911080
 23
2.335960
  0
POLYLINE
  8
0
  6
CONTINUOUS
 66
     1
 40
0.000000
 41
0.000000
  0
VERTEX
  8
0
  6
CONTINUOUS
 10
6.884240
 20
1.610400
  0
VERTEX
  8
0
  6
CONTINUOUS
 10
6.887760
 20
2.352240
  0
VERTEX
  8
0
  6
CONTINUOUS
 10
6.911080
 20
2.335960
  0
VERTEX
  8
0
  6
CONTINUOUS
 10
6.908000
 20
1.594120
  0
VERTEX
  8
0
  6
CONTINUOUS
 10
6.884240
 20
1.610400
  0
SEQEND
  8
0
  0
SOLID
  8
0
 62
    15
 10
6.908000
 20
1.594120
 11
6.911080
 21
2.335960
 12
6.934400
 22
1.579160
 13
6.937920
 23
2.321000
  0
POLYLINE
  8
0
  6
CONTINUOUS
 66
     1
 40
0.000000
 41
0.000000
  0
VERTEX
  8
0
  6
CONTINUOUS
 10
6.908000
 20
1.594120
  0
VERTEX
  8
0
  6
CONTINUOUS
 10
6.911080
 20
2.335960
  0
VERTEX
  8
0
  6
CONTINUOUS
 10
6.937920
 20
2.321000
  0
VERTEX
  8
0
  6
CONTINUOUS
 10
6.934400
 20
1.579160
  0
VERTEX
  8
0
  6
CONTINUOUS
 10
6.908000
 20
1.594120
  0
SEQEND
  8
0
  0
SOLID
  8
0
 62
    15
 10
6.934400
 20
1.579160
 11
6.937920
 21
2.321000
 12
6.964320
 22
1.566400
 13
6.967840
 23
2.308240
  0
POLYLINE
  8
0
  6
CONTINUOUS
 66
     1
 40
0.000000
 41
0.000000
  0
VERTEX
  8
0
  6
CONTINUOUS
 10
6.934400
 20
1.579160
  0
VERTEX
  8
0
  6
CONTINUOUS
 10
6.937920
 20
2.321000
  0
VERTEX
  8
0
  6
CONTINUOUS
 10
6.967840
 20
2.308240
  0
VERTEX
  8
0
  6
CONTINUOUS
 10
6.964320
 20
1.566400
  0
VERTEX
  8
0
  6
CONTINUOUS
 10
6.934400
 20
1.579160
  0
SEQEND
  8
0
  0
SOLID
  8
0
 62
    15
 10
6.964320
 20
1.566400
 11
6.967840
 21
2.308240
 12
6.998640
 22
1.555840
 13
7.001720
 23
2.297680
  0
POLYLINE
  8
0
  6
CONTINUOUS
 66
     1
 40
0.000000
 41
0.000000
  0
VERTEX
  8
0
  6
CONTINUOUS
 10
6.964320
 20
1.566400
  0
VERTEX
  8
0
  6
CONTINUOUS
 10
6.967840
 20
2.308240
  0
VERTEX
  8
0
  6
CONTINUOUS
 10
7.001720
 20
2.297680
  0
VERTEX
  8
0
  6
CONTINUOUS
 10
6.998640
 20
1.555840
  0
VERTEX
  8
0
  6
CONTINUOUS
 10
6.964320
 20
1.566400
  0
SEQEND
  8
0
  0
SOLID
  8
0
 62
    15
 10
7.788000
 20
1.196360
 11
7.791080
 21
1.938200
 12
7.788000
 22
1.171280
 13
7.791080
 23
1.913120
  0
POLYLINE
  8
0
  6
CONTINUOUS
 66
     1
 40
0.000000
 41
0.000000
  0
VERTEX
  8
0
  6
CONTINUOUS
 10
7.788000
 20
1.196360
  0
VERTEX
  8
0
  6
CONTINUOUS
 10
7.791080
 20
1.938200
  0
VERTEX
  8
0
  6
CONTINUOUS
 10
7.791080
 20
1.913120
  0
VERTEX
  8
0
  6
CONTINUOUS
 10
7.788000
 20
1.171280
  0
VERTEX
  8
0
  6
CONTINUOUS
 10
7.788000
 20
1.196360
  0
SEQEND
  8
0
  0
SOLID
  8
0
 62
    15
 10
7.050560
 20
1.546600
 11
7.054080
 21
2.288440
 12
7.101600
 22
1.543520
 13
7.104680
 23
2.285360
  0
POLYLINE
  8
0
  6
CONTINUOUS
 66
     1
 40
0.000000
 41
0.000000
  0
VERTEX
  8
0
  6
CONTINUOUS
 10
7.050560
 20
1.546600
  0
VERTEX
  8
0
  6
CONTINUOUS
 10
7.054080
 20
2.288440
  0
VERTEX
  8
0
  6
CONTINUOUS
 10
7.104680
 20
2.285360
  0
VERTEX
  8
0
  6
CONTINUOUS
 10
7.101600
 20
1.543520
  0
VERTEX
  8
0
  6
CONTINUOUS
 10
7.050560
 20
1.546600
  0
SEQEND
  8
0
  0
SOLID
  8
0
 62
    15
 10
7.101600
 20
1.543520
 11
7.104680
 21
2.285360
 12
7.147360
 22
1.543960
 13
7.150880
 23
2.285800
  0
POLYLINE
  8
0
  6
CONTINUOUS
 66
     1
 40
0.000000
 41
0.000000
  0
VERTEX
  8
0
  6
CONTINUOUS
 10
7.101600
 20
1.543520
  0
VERTEX
  8
0
  6
CONTINUOUS
 10
7.104680
 20
2.285360
  0
VERTEX
  8
0
  6
CONTINUOUS
 10
7.150880
 20
2.285800
  0
VERTEX
  8
0
  6
CONTINUOUS
 10
7.147360
 20
1.543960
  0
VERTEX
  8
0
  6
CONTINUOUS
 10
7.101600
 20
1.543520
  0
SEQEND
  8
0
  0
SOLID
  8
0
 62
    15
 10
7.147360
 20
1.543960
 11
7.150880
 21
2.285800
 12
7.167160
 22
1.544840
 13
7.170680
 23
2.286680
  0
POLYLINE
  8
0
  6
CONTINUOUS
 66
     1
 40
0.000000
 41
0.000000
  0
VERTEX
  8
0
  6
CONTINUOUS
 10
7.147360
 20
1.543960
  0
VERTEX
  8
0
  6
CONTINUOUS
 10
7.150880
 20
2.285800
  0
VERTEX
  8
0
  6
CONTINUOUS
 10
7.170680
 20
2.286680
  0
VERTEX
  8
0
  6
CONTINUOUS
 10
7.167160
 20
1.544840
  0
VERTEX
  8
0
  6
CONTINUOUS
 10
7.147360
 20
1.543960
  0
SEQEND
  8
0
  0
SOLID
  8
0
 62
    15
 10
7.167160
 20
1.544840
 11
7.170680
 21
2.286680
 12
7.184760
 22
1.545280
 13
7.188280
 23
2.287120
  0
POLYLINE
  8
0
  6
CONTINUOUS
 66
     1
 40
0.000000
 41
0.000000
  0
VERTEX
  8
0
  6
CONTINUOUS
 10
7.167160
 20
1.544840
  0
VERTEX
  8
0
  6
CONTINUOUS
 10
7.170680
 20
2.286680
  0
VERTEX
  8
0
  6
CONTINUOUS
 10
7.188280
 20
2.287120
  0
VERTEX
  8
0
  6
CONTINUOUS
 10
7.184760
 20
1.545280
  0
VERTEX
  8
0
  6
CONTINUOUS
 10
7.167160
 20
1.544840
  0
SEQEND
  8
0
  0
SOLID
  8
0
 62
    15
 10
7.184760
 20
1.545280
 11
7.188280
 21
2.287120
 12
7.239760
 22
1.545280
 13
7.243280
 23
2.287120
  0
POLYLINE
  8
0
  6
CONTINUOUS
 66
     1
 40
0.000000
 41
0.000000
  0
VERTEX
  8
0
  6
CONTINUOUS
 10
7.184760
 20
1.545280
  0
VERTEX
  8
0
  6
CONTINUOUS
 10
7.188280
 20
2.287120
  0
VERTEX
  8
0
  6
CONTINUOUS
 10
7.243280
 20
2.287120
  0
VERTEX
  8
0
  6
CONTINUOUS
 10
7.239760
 20
1.545280
  0
VERTEX
  8
0
  6
CONTINUOUS
 10
7.184760
 20
1.545280
  0
SEQEND
  8
0
  0
SOLID
  8
0
 62
    15
 10
7.239760
 20
1.545280
 11
7.243280
 21
2.287120
 12
7.285080
 22
1.542640
 13
7.288600
 23
2.284480
  0
POLYLINE
  8
0
  6
CONTINUOUS
 66
     1
 40
0.000000
 41
0.000000
  0
VERTEX
  8
0
  6
CONTINUOUS
 10
7.239760
 20
1.545280
  0
VERTEX
  8
0
  6
CONTINUOUS
 10
7.243280
 20
2.287120
  0
VERTEX
  8
0
  6
CONTINUOUS
 10
7.288600
 20
2.284480
  0
VERTEX
  8
0
  6
CONTINUOUS
 10
7.285080
 20
1.542640
  0
VERTEX
  8
0
  6
CONTINUOUS
 10
7.239760
 20
1.545280
  0
SEQEND
  8
0
  0
SOLID
  8
0
 62
    15
 10
7.285080
 20
1.542640
 11
7.288600
 21
2.284480
 12
7.322480
 22
1.536480
 13
7.326000
 23
2.278320
  0
POLYLINE
  8
0
  6
CONTINUOUS
 66
     1
 40
0.000000
 41
0.000000
  0
VERTEX
  8
0
  6
CONTINUOUS
 10
7.285080
 20
1.542640
  0
VERTEX
  8
0
  6
CONTINUOUS
 10
7.288600
 20
2.284480
  0
VERTEX
  8
0
  6
CONTINUOUS
 10
7.326000
 20
2.278320
  0
VERTEX
  8
0
  6
CONTINUOUS
 10
7.322480
 20
1.536480
  0
VERTEX
  8
0
  6
CONTINUOUS
 10
7.285080
 20
1.542640
  0
SEQEND
  8
0
  0
SOLID
  8
0
 62
    15
 10
7.322480
 20
1.536480
 11
7.326000
 21
2.278320
 12
7.354600
 22
1.526360
 13
7.357680
 23
2.268200
  0
POLYLINE
  8
0
  6
CONTINUOUS
 66
     1
 40
0.000000
 41
0.000000
  0
VERTEX
  8
0
  6
CONTINUOUS
 10
7.322480
 20
1.536480
  0
VERTEX
  8
0
  6
CONTINUOUS
 10
7.326000
 20
2.278320
  0
VERTEX
  8
0
  6
CONTINUOUS
 10
7.357680
 20
2.268200
  0
VERTEX
  8
0
  6
CONTINUOUS
 10
7.354600
 20
1.526360
  0
VERTEX
  8
0
  6
CONTINUOUS
 10
7.322480
 20
1.536480
  0
SEQEND
  8
0
  0
SOLID
  8
0
 62
    15
 10
7.354600
 20
1.526360
 11
7.357680
 21
2.268200
 12
7.382760
 22
1.512280
 13
7.386280
 23
2.254120
  0
POLYLINE
  8
0
  6
CONTINUOUS
 66
     1
 40
0.000000
 41
0.000000
  0
VERTEX
  8
0
  6
CONTINUOUS
 10
7.354600
 20
1.526360
  0
VERTEX
  8
0
  6
CONTINUOUS
 10
7.357680
 20
2.268200
  0
VERTEX
  8
0
  6
CONTINUOUS
 10
7.386280
 20
2.254120
  0
VERTEX
  8
0
  6
CONTINUOUS
 10
7.382760
 20
1.512280
  0
VERTEX
  8
0
  6
CONTINUOUS
 10
7.354600
 20
1.526360
  0
SEQEND
  8
0
  0
SOLID
  8
0
 62
    15
 10
7.382760
 20
1.512280
 11
7.386280
 21
2.254120
 12
7.409160
 22
1.492920
 13
7.412680
 23
2.234760
  0
POLYLINE
  8
0
  6
CONTINUOUS
 66
     1
 40
0.000000
 41
0.000000
  0
VERTEX
  8
0
  6
CONTINUOUS
 10
7.382760
 20
1.512280
  0
VERTEX
  8
0
  6
CONTINUOUS
 10
7.386280
 20
2.254120
  0
VERTEX
  8
0
  6
CONTINUOUS
 10
7.412680
 20
2.234760
  0
VERTEX
  8
0
  6
CONTINUOUS
 10
7.409160
 20
1.492920
  0
VERTEX
  8
0
  6
CONTINUOUS
 10
7.382760
 20
1.512280
  0
SEQEND
  8
0
  0
SOLID
  8
0
 62
    15
 10
7.409160
 20
1.492920
 11
7.412680
 21
2.234760
 12
7.436440
 22
1.468720
 13
7.439960
 23
2.210560
  0
POLYLINE
  8
0
  6
CONTINUOUS
 66
     1
 40
0.000000
 41
0.000000
  0
VERTEX
  8
0
  6
CONTINUOUS
 10
7.409160
 20
1.492920
  0
VERTEX
  8
0
  6
CONTINUOUS
 10
7.412680
 20
2.234760
  0
VERTEX
  8
0
  6
CONTINUOUS
 10
7.439960
 20
2.210560
  0
VERTEX
  8
0
  6
CONTINUOUS
 10
7.436440
 20
1.468720
  0
VERTEX
  8
0
  6
CONTINUOUS
 10
7.409160
 20
1.492920
  0
SEQEND
  8
0
  0
SOLID
  8
0
 62
    15
 10
7.436440
 20
1.468720
 11
7.439960
 21
2.210560
 12
7.465920
 22
1.438360
 13
7.469440
 23
2.180200
  0
POLYLINE
  8
0
  6
CONTINUOUS
 66
     1
 40
0.000000
 41
0.000000
  0
VERTEX
  8
0
  6
CONTINUOUS
 10
7.436440
 20
1.468720
  0
VERTEX
  8
0
  6
CONTINUOUS
 10
7.439960
 20
2.210560
  0
VERTEX
  8
0
  6
CONTINUOUS
 10
7.469440
 20
2.180200
  0
VERTEX
  8
0
  6
CONTINUOUS
 10
7.465920
 20
1.438360
  0
VERTEX
  8
0
  6
CONTINUOUS
 10
7.436440
 20
1.468720
  0
SEQEND
  8
0
  0
SOLID
  8
0
 62
    15
 10
7.465920
 20
1.438360
 11
7.469440
 21
2.180200
 12
7.691200
 22
1.437920
 13
7.694720
 23
2.179760
  0
POLYLINE
  8
0
  6
CONTINUOUS
 66
     1
 40
0.000000
 41
0.000000
  0
VERTEX
  8
0
  6
CONTINUOUS
 10
7.465920
 20
1.438360
  0
VERTEX
  8
0
  6
CONTINUOUS
 10
7.469440
 20
2.180200
  0
VERTEX
  8
0
  6
CONTINUOUS
 10
7.694720
 20
2.179760
  0
VERTEX
  8
0
  6
CONTINUOUS
 10
7.691200
 20
1.437920
  0
VERTEX
  8
0
  6
CONTINUOUS
 10
7.465920
 20
1.438360
  0
SEQEND
  8
0
  0
SOLID
  8
0
 62
    15
 10
7.691200
 20
1.437920
 11
7.694720
 21
2.179760
 12
7.694720
 22
1.437920
 13
7.697800
 23
2.180200
  0
POLYLINE
  8
0
  6
CONTINUOUS
 66
     1
 40
0.000000
 41
0.000000
  0
VERTEX
  8
0
  6
CONTINUOUS
 10
7.691200
 20
1.437920
  0
VERTEX
  8
0
  6
CONTINUOUS
 10
7.694720
 20
2.179760
  0
VERTEX
  8
0
  6
CONTINUOUS
 10
7.697800
 20
2.180200
  0
VERTEX
  8
0
  6
CONTINUOUS
 10
7.694720
 20
1.437920
  0
VERTEX
  8
0
  6
CONTINUOUS
 10
7.691200
 20
1.437920
  0
SEQEND
  8
0
  0
SOLID
  8
0
 62
    15
 10
7.694720
 20
1.437920
 11
7.697800
 21
2.180200
 12
7.703960
 22
1.437480
 13
7.707040
 23
2.179320
  0
POLYLINE
  8
0
  6
CONTINUOUS
 66
     1
 40
0.000000
 41
0.000000
  0
VERTEX
  8
0
  6
CONTINUOUS
 10
7.694720
 20
1.437920
  0
VERTEX
  8
0
  6
CONTINUOUS
 10
7.697800
 20
2.180200
  0
VERTEX
  8
0
  6
CONTINUOUS
 10
7.707040
 20
2.179320
  0
VERTEX
  8
0
  6
CONTINUOUS
 10
7.703960
 20
1.437480
  0
VERTEX
  8
0
  6
CONTINUOUS
 10
7.694720
 20
1.437920
  0
SEQEND
  8
0
  0
SOLID
  8
0
 62
    15
 10
7.703960
 20
1.437480
 11
7.707040
 21
2.179320
 12
7.717160
 22
1.435280
 13
7.720240
 23
2.177120
  0
POLYLINE
  8
0
  6
CONTINUOUS
 66
     1
 40
0.000000
 41
0.000000
  0
VERTEX
  8
0
  6
CONTINUOUS
 10
7.703960
 20
1.437480
  0
VERTEX
  8
0
  6
CONTINUOUS
 10
7.707040
 20
2.179320
  0
VERTEX
  8
0
  6
CONTINUOUS
 10
7.720240
 20
2.177120
  0
VERTEX
  8
0
  6
CONTINUOUS
 10
7.717160
 20
1.435280
  0
VERTEX
  8
0
  6
CONTINUOUS
 10
7.703960
 20
1.437480
  0
SEQEND
  8
0
  0
SOLID
  8
0
 62
    15
 10
7.717160
 20
1.435280
 11
7.720240
 21
2.177120
 12
7.733000
 22
1.429560
 13
7.736080
 23
2.171400
  0
POLYLINE
  8
0
  6
CONTINUOUS
 66
     1
 40
0.000000
 41
0.000000
  0
VERTEX
  8
0
  6
CONTINUOUS
 10
7.717160
 20
1.435280
  0
VERTEX
  8
0
  6
CONTINUOUS
 10
7.720240
 20
2.177120
  0
VERTEX
  8
0
  6
CONTINUOUS
 10
7.736080
 20
2.171400
  0
VERTEX
  8
0
  6
CONTINUOUS
 10
7.733000
 20
1.429560
  0
VERTEX
  8
0
  6
CONTINUOUS
 10
7.717160
 20
1.435280
  0
SEQEND
  8
0
  0
SOLID
  8
0
 62
    15
 10
7.733000
 20
1.429560
 11
7.736080
 21
2.171400
 12
7.749280
 22
1.419880
 13
7.752800
 23
2.161720
  0
POLYLINE
  8
0
  6
CONTINUOUS
 66
     1
 40
0.000000
 41
0.000000
  0
VERTEX
  8
0
  6
CONTINUOUS
 10
7.733000
 20
1.429560
  0
VERTEX
  8
0
  6
CONTINUOUS
 10
7.736080
 20
2.171400
  0
VERTEX
  8
0
  6
CONTINUOUS
 10
7.752800
 20
2.161720
  0
VERTEX
  8
0
  6
CONTINUOUS
 10
7.749280
 20
1.419880
  0
VERTEX
  8
0
  6
CONTINUOUS
 10
7.733000
 20
1.429560
  0
SEQEND
  8
0
  0
SOLID
  8
0
 62
    15
 10
7.749280
 20
1.419880
 11
7.752800
 21
2.161720
 12
7.765120
 22
1.404480
 13
7.768640
 23
2.146320
  0
POLYLINE
  8
0
  6
CONTINUOUS
 66
     1
 40
0.000000
 41
0.000000
  0
VERTEX
  8
0
  6
CONTINUOUS
 10
7.749280
 20
1.419880
  0
VERTEX
  8
0
  6
CONTINUOUS
 10
7.752800
 20
2.161720
  0
VERTEX
  8
0
  6
CONTINUOUS
 10
7.768640
 20
2.146320
  0
VERTEX
  8
0
  6
CONTINUOUS
 10
7.765120
 20
1.404480
  0
VERTEX
  8
0
  6
CONTINUOUS
 10
7.749280
 20
1.419880
  0
SEQEND
  8
0
  0
SOLID
  8
0
 62
    15
 10
7.765120
 20
1.404480
 11
7.768640
 21
2.146320
 12
7.778760
 22
1.382920
 13
7.781840
 23
2.124760
  0
POLYLINE
  8
0
  6
CONTINUOUS
 66
     1
 40
0.000000
 41
0.000000
  0
VERTEX
  8
0
  6
CONTINUOUS
 10
7.765120
 20
1.404480
  0
VERTEX
  8
0
  6
CONTINUOUS
 10
7.768640
 20
2.146320
  0
VERTEX
  8
0
  6
CONTINUOUS
 10
7.781840
 20
2.124760
  0
VERTEX
  8
0
  6
CONTINUOUS
 10
7.778760
 20
1.382920
  0
VERTEX
  8
0
  6
CONTINUOUS
 10
7.765120
 20
1.404480
  0
SEQEND
  8
0
  0
SOLID
  8
0
 62
    15
 10
7.788000
 20
1.353000
 11
7.791080
 21
2.094840
 12
7.788000
 22
1.196360
 13
7.791080
 23
1.938200
  0
POLYLINE
  8
0
  6
CONTINUOUS
 66
     1
 40
0.000000
 41
0.000000
  0
VERTEX
  8
0
  6
CONTINUOUS
 10
7.788000
 20
1.353000
  0
VERTEX
  8
0
  6
CONTINUOUS
 10
7.791080
 20
2.094840
  0
VERTEX
  8
0
  6
CONTINUOUS
 10
7.791080
 20
1.938200
  0
VERTEX
  8
0
  6
CONTINUOUS
 10
7.788000
 20
1.196360
  0
VERTEX
  8
0
  6
CONTINUOUS
 10
7.788000
 20
1.353000
  0
SEQEND
  8
0
  0
SOLID
  8
0
 62
    15
 10
7.778760
 20
1.382920
 11
7.781840
 21
2.124760
 12
7.788000
 22
1.353000
 13
7.791080
 23
2.094840
  0
POLYLINE
  8
0
  6
CONTINUOUS
 66
     1
 40
0.000000
 41
0.000000
  0
VERTEX
  8
0
  6
CONTINUOUS
 10
7.778760
 20
1.382920
  0
VERTEX
  8
0
  6
CONTINUOUS
 10
7.781840
 20
2.124760
  0
VERTEX
  8
0
  6
CONTINUOUS
 10
7.791080
 20
2.094840
  0
VERTEX
  8
0
  6
CONTINUOUS
 10
7.788000
 20
1.353000
  0
VERTEX
  8
0
  6
CONTINUOUS
 10
7.778760
 20
1.382920
  0
SEQEND
  8
0
  0
SOLID
  8
0
 62
    15
 10
7.787560
 20
1.196360
 11
7.790640
 21
1.938200
 12
7.788000
 22
1.196360
 13
7.791080
 23
1.938200
  0
POLYLINE
  8
0
  6
CONTINUOUS
 66
     1
 40
0.000000
 41
0.000000
  0
VERTEX
  8
0
  6
CONTINUOUS
 10
7.787560
 20
1.196360
  0
VERTEX
  8
0
  6
CONTINUOUS
 10
7.790640
 20
1.938200
  0
VERTEX
  8
0
  6
CONTINUOUS
 10
7.791080
 20
1.938200
  0
VERTEX
  8
0
  6
CONTINUOUS
 10
7.788000
 20
1.196360
  0
VERTEX
  8
0
  6
CONTINUOUS
 10
7.787560
 20
1.196360
  0
SEQEND
  8
0
  0
POLYLINE
  8
0
  6
CONTINUOUS
 66
     1
 40
0.000000
 41
0.000000
  0
VERTEX
  8
0
  6
CONTINUOUS
 10
7.788000
 20
1.196360
  0
VERTEX
  8
0
  6
CONTINUOUS
 10
7.788000
 20
1.171280
  0
VERTEX
  8
0
  6
CONTINUOUS
 10
5.037560
 20
1.171280
  0
VERTEX
  8
0
  6
CONTINUOUS
 10
5.037560
 20
1.921040
  0
VERTEX
  8
0
  6
CONTINUOUS
 10
5.361400
 20
1.921040
  0
VERTEX
  8
0
  6
CONTINUOUS
 10
5.389120
 20
1.914440
  0
VERTEX
  8
0
  6
CONTINUOUS
 10
5.416840
 20
1.897280
  0
VERTEX
  8
0
  6
CONTINUOUS
 10
5.459960
 20
1.859440
  0
VERTEX
  8
0
  6
CONTINUOUS
 10
5.504400
 20
1.817200
  0
VERTEX
  8
0
  6
CONTINUOUS
 10
5.535200
 20
1.793000
  0
VERTEX
  8
0
  6
CONTINUOUS
 10
5.566880
 20
1.775840
  0
VERTEX
  8
0
  6
CONTINUOUS
 10
5.599880
 20
1.769240
  0
VERTEX
  8
0
  6
CONTINUOUS
 10
6.713520
 20
1.769240
  0
VERTEX
  8
0
  6
CONTINUOUS
 10
6.728040
 20
1.767480
  0
VERTEX
  8
0
  6
CONTINUOUS
 10
6.741240
 20
1.762200
  0
VERTEX
  8
0
  6
CONTINUOUS
 10
6.765440
 20
1.742840
  0
VERTEX
  8
0
  6
CONTINUOUS
 10
6.801080
 20
1.698400
  0
VERTEX
  8
0
  6
CONTINUOUS
 10
6.845520
 20
1.645160
  0
VERTEX
  8
0
  6
CONTINUOUS
 10
6.884240
 20
1.610400
  0
VERTEX
  8
0
  6
CONTINUOUS
 10
6.908000
 20
1.594120
  0
VERTEX
  8
0
  6
CONTINUOUS
 10
6.934400
 20
1.579160
  0
VERTEX
  8
0
  6
CONTINUOUS
 10
6.964320
 20
1.566400
  0
VERTEX
  8
0
  6
CONTINUOUS
 10
6.998640
 20
1.555840
  0
VERTEX
  8
0
  6
CONTINUOUS
 10
7.050560
 20
1.546600
  0
VERTEX
  8
0
  6
CONTINUOUS
 10
7.101600
 20
1.543520
  0
VERTEX
  8
0
  6
CONTINUOUS
 10
7.184760
 20
1.545280
  0
VERTEX
  8
0
  6
CONTINUOUS
 10
7.239760
 20
1.545280
  0
VERTEX
  8
0
  6
CONTINUOUS
 10
7.285080
 20
1.542640
  0
VERTEX
  8
0
  6
CONTINUOUS
 10
7.322480
 20
1.536480
  0
VERTEX
  8
0
  6
CONTINUOUS
 10
7.354600
 20
1.526360
  0
VERTEX
  8
0
  6
CONTINUOUS
 10
7.382760
 20
1.512280
  0
VERTEX
  8
0
  6
CONTINUOUS
 10
7.409160
 20
1.492920
  0
VERTEX
  8
0
  6
CONTINUOUS
 10
7.436440
 20
1.468720
  0
VERTEX
  8
0
  6
CONTINUOUS
 10
7.465920
 20
1.438360
  0
VERTEX
  8
0
  6
CONTINUOUS
 10
7.703960
 20
1.437480
  0
VERTEX
  8
0
  6
CONTINUOUS
 10
7.717160
 20
1.435280
  0
VERTEX
  8
0
  6
CONTINUOUS
 10
7.733000
 20
1.429560
  0
VERTEX
  8
0
  6
CONTINUOUS
 10
7.749280
 20
1.419880
  0
VERTEX
  8
0
  6
CONTINUOUS
 10
7.765120
 20
1.404480
  0
VERTEX
  8
0
  6
CONTINUOUS
 10
7.778760
 20
1.382920
  0
VERTEX
  8
0
  6
CONTINUOUS
 10
7.788000
 20
1.353000
  0
VERTEX
  8
0
  6
CONTINUOUS
 10
7.787560
 20
1.196360
  0
VERTEX
  8
0
  6
CONTINUOUS
 10
7.788000
 20
1.196360
  0
SEQEND
  8
0
  0
TEXT
  8
0
 10
6.119080
 20
0.957000
 40
0.138064
  1
BA  994
 41
1.000000
  7
SN0
 71
     0
 72
     5
 11
6.708997
 21
0.957000
  0
TEXT
  8
0
 10
5.963320
 20
0.765600
 40
0.138064
  1
3/4" x 2-3/4"
 41
1.000000
  7
SN0
 71
     0
 72
     5
 11
6.863757
 21
0.765600
  0
POLYLINE
  8
0
  6
CONTINUOUS
 66
     1
 40
0.014080
 41
0.014080
  0
VERTEX
  8
0
  6
CONTINUOUS
 10
7.923960
 20
2.927320
  0
VERTEX
  8
0
  6
CONTINUOUS
 10
7.923960
 20
2.902240
  0
VERTEX
  8
0
  6
CONTINUOUS
 10
5.173960
 20
2.902240
  0
VERTEX
  8
0
  6
CONTINUOUS
 10
5.173960
 20
3.652000
  0
VERTEX
  8
0
  6
CONTINUOUS
 10
5.504400
 20
3.651560
  0
VERTEX
  8
0
  6
CONTINUOUS
 10
5.525080
 20
3.645400
  0
VERTEX
  8
0
  6
CONTINUOUS
 10
5.539160
 20
3.637920
  0
VERTEX
  8
0
  6
CONTINUOUS
 10
5.567320
 20
3.616800
  0
VERTEX
  8
0
  6
CONTINUOUS
 10
5.640360
 20
3.548160
  0
VERTEX
  8
0
  6
CONTINUOUS
 10
5.671160
 20
3.523960
  0
VERTEX
  8
0
  6
CONTINUOUS
 10
5.687000
 20
3.514280
  0
VERTEX
  8
0
  6
CONTINUOUS
 10
5.711200
 20
3.504160
  0
VERTEX
  8
0
  6
CONTINUOUS
 10
5.727480
 20
3.500640
  0
VERTEX
  8
0
  6
CONTINUOUS
 10
6.856960
 20
3.499760
  0
VERTEX
  8
0
  6
CONTINUOUS
 10
6.870600
 20
3.496240
  0
VERTEX
  8
0
  6
CONTINUOUS
 10
6.889520
 20
3.484800
  0
VERTEX
  8
0
  6
CONTINUOUS
 10
6.912840
 20
3.460600
  0
VERTEX
  8
0
  6
CONTINUOUS
 10
6.965200
 20
3.394160
  0
VERTEX
  8
0
  6
CONTINUOUS
 10
6.981480
 20
3.376120
  0
VERTEX
  8
0
  6
CONTINUOUS
 10
7.020640
 20
3.340920
  0
VERTEX
  8
0
  6
CONTINUOUS
 10
7.056720
 20
3.317600
  0
VERTEX
  8
0
  6
CONTINUOUS
 10
7.085320
 20
3.303520
  0
VERTEX
  8
0
  6
CONTINUOUS
 10
7.117000
 20
3.291640
  0
VERTEX
  8
0
  6
CONTINUOUS
 10
7.160560
 20
3.281080
  0
VERTEX
  8
0
  6
CONTINUOUS
 10
7.212480
 20
3.275360
  0
VERTEX
  8
0
  6
CONTINUOUS
 10
7.261320
 20
3.274040
  0
VERTEX
  8
0
  6
CONTINUOUS
 10
7.362960
 20
3.276240
  0
VERTEX
  8
0
  6
CONTINUOUS
 10
7.399480
 20
3.274920
  0
VERTEX
  8
0
  6
CONTINUOUS
 10
7.440840
 20
3.270960
  0
VERTEX
  8
0
  6
CONTINUOUS
 10
7.475160
 20
3.263040
  0
VERTEX
  8
0
  6
CONTINUOUS
 10
7.505080
 20
3.250720
  0
VERTEX
  8
0
  6
CONTINUOUS
 10
7.532360
 20
3.234000
  0
VERTEX
  8
0
  6
CONTINUOUS
 10
7.572400
 20
3.199680
  0
VERTEX
  8
0
  6
CONTINUOUS
 10
7.602320
 20
3.169320
  0
VERTEX
  8
0
  6
CONTINUOUS
 10
7.839920
 20
3.168440
  0
VERTEX
  8
0
  6
CONTINUOUS
 10
7.861040
 20
3.163600
  0
VERTEX
  8
0
  6
CONTINUOUS
 10
7.877320
 20
3.156120
  0
VERTEX
  8
0
  6
CONTINUOUS
 10
7.893600
 20
3.143800
  0
VERTEX
  8
0
  6
CONTINUOUS
 10
7.908560
 20
3.125320
  0
VERTEX
  8
0
  6
CONTINUOUS
 10
7.920000
 20
3.099800
  0
VERTEX
  8
0
  6
CONTINUOUS
 10
7.923960
 20
3.083960
  0
VERTEX
  8
0
  6
CONTINUOUS
 10
7.923520
 20
2.927320
  0
VERTEX
  8
0
  6
CONTINUOUS
 10
7.923960
 20
2.927320
  0
SEQEND
  8
0
  0
TEXT
  8
0
 10
5.921080
 20
3.175040
 40
0.138064
  1
BA  994
 41
1.000000
  7
SN0
 71
     0
 72
     5
 11
6.510997
 21
3.175040
  0
TEXT
  8
0
 10
5.765320
 20
2.983640
 40
0.138064
  1
3/4" x 2-3/4"
 41
1.000000
  7
SN0
 71
     0
 72
     5
 11
6.665757
 21
2.983640
  0
SOLID
  8
0
 62
    15
 10
1.261040
 20
1.680360
 11
1.265440
 21
0.935000
 12
1.322200
 22
1.690480
 13
1.326600
 23
0.945120
  0
POLYLINE
  8
0
  6
CONTINUOUS
 66
     1
 40
0.000000
 41
0.000000
  0
VERTEX
  8
0
  6
CONTINUOUS
 10
1.261040
 20
1.680360
  0
VERTEX
  8
0
  6
CONTINUOUS
 10
1.265440
 20
0.935000
  0
VERTEX
  8
0
  6
CONTINUOUS
 10
1.326600
 20
0.945120
  0
VERTEX
  8
0
  6
CONTINUOUS
 10
1.322200
 20
1.690480
  0
VERTEX
  8
0
  6
CONTINUOUS
 10
1.261040
 20
1.680360
  0
SEQEND
  8
0
  0
SOLID
  8
0
 62
    15
 10
0.776600
 20
2.050840
 11
0.781000
 21
1.305480
 12
0.781880
 22
1.967680
 13
0.786280
 23
1.222320
  0
POLYLINE
  8
0
  6
CONTINUOUS
 66
     1
 40
0.000000
 41
0.000000
  0
VERTEX
  8
0
  6
CONTINUOUS
 10
0.776600
 20
2.050840
  0
VERTEX
  8
0
  6
CONTINUOUS
 10
0.781000
 20
1.305480
  0
VERTEX
  8
0
  6
CONTINUOUS
 10
0.786280
 20
1.222320
  0
VERTEX
  8
0
  6
CONTINUOUS
 10
0.781880
 20
1.967680
  0
VERTEX
  8
0
  6
CONTINUOUS
 10
0.776600
 20
2.050840
  0
SEQEND
  8
0
  0
SOLID
  8
0
 62
    15
 10
0.781880
 20
1.967680
 11
0.786280
 21
1.222320
 12
0.796840
 22
1.892000
 13
0.801240
 23
1.146640
  0
POLYLINE
  8
0
  6
CONTINUOUS
 66
     1
 40
0.000000
 41
0.000000
  0
VERTEX
  8
0
  6
CONTINUOUS
 10
0.781880
 20
1.967680
  0
VERTEX
  8
0
  6
CONTINUOUS
 10
0.786280
 20
1.222320
  0
VERTEX
  8
0
  6
CONTINUOUS
 10
0.801240
 20
1.146640
  0
VERTEX
  8
0
  6
CONTINUOUS
 10
0.796840
 20
1.892000
  0
VERTEX
  8
0
  6
CONTINUOUS
 10
0.781880
 20
1.967680
  0
SEQEND
  8
0
  0
SOLID
  8
0
 62
    15
 10
0.796840
 20
1.892000
 11
0.801240
 21
1.146640
 12
0.821040
 22
1.825120
 13
0.825440
 23
1.079760
  0
POLYLINE
  8
0
  6
CONTINUOUS
 66
     1
 40
0.000000
 41
0.000000
  0
VERTEX
  8
0
  6
CONTINUOUS
 10
0.796840
 20
1.892000
  0
VERTEX
  8
0
  6
CONTINUOUS
 10
0.801240
 20
1.146640
  0
VERTEX
  8
0
  6
CONTINUOUS
 10
0.825440
 20
1.079760
  0
VERTEX
  8
0
  6
CONTINUOUS
 10
0.821040
 20
1.825120
  0
VERTEX
  8
0
  6
CONTINUOUS
 10
0.796840
 20
1.892000
  0
SEQEND
  8
0
  0
SOLID
  8
0
 62
    15
 10
0.821040
 20
1.825120
 11
0.825440
 21
1.079760
 12
0.854480
 22
1.767920
 13
0.858880
 23
1.022120
  0
POLYLINE
  8
0
  6
CONTINUOUS
 66
     1
 40
0.000000
 41
0.000000
  0
VERTEX
  8
0
  6
CONTINUOUS
 10
0.821040
 20
1.825120
  0
VERTEX
  8
0
  6
CONTINUOUS
 10
0.825440
 20
1.079760
  0
VERTEX
  8
0
  6
CONTINUOUS
 10
0.858880
 20
1.022120
  0
VERTEX
  8
0
  6
CONTINUOUS
 10
0.854480
 20
1.767920
  0
VERTEX
  8
0
  6
CONTINUOUS
 10
0.821040
 20
1.825120
  0
SEQEND
  8
0
  0
SOLID
  8
0
 62
    15
 10
0.854480
 20
1.767920
 11
0.858880
 21
1.022120
 12
0.896280
 22
1.721280
 13
0.900680
 23
0.975920
  0
POLYLINE
  8
0
  6
CONTINUOUS
 66
     1
 40
0.000000
 41
0.000000
  0
VERTEX
  8
0
  6
CONTINUOUS
 10
0.854480
 20
1.767920
  0
VERTEX
  8
0
  6
CONTINUOUS
 10
0.858880
 20
1.022120
  0
VERTEX
  8
0
  6
CONTINUOUS
 10
0.900680
 20
0.975920
  0
VERTEX
  8
0
  6
CONTINUOUS
 10
0.896280
 20
1.721280
  0
VERTEX
  8
0
  6
CONTINUOUS
 10
0.854480
 20
1.767920
  0
SEQEND
  8
0
  0
SOLID
  8
0
 62
    15
 10
0.896280
 20
1.721280
 11
0.900680
 21
0.975920
 12
0.946440
 22
1.686520
 13
0.950840
 23
0.941160
  0
POLYLINE
  8
0
  6
CONTINUOUS
 66
     1
 40
0.000000
 41
0.000000
  0
VERTEX
  8
0
  6
CONTINUOUS
 10
0.896280
 20
1.721280
  0
VERTEX
  8
0
  6
CONTINUOUS
 10
0.900680
 20
0.975920
  0
VERTEX
  8
0
  6
CONTINUOUS
 10
0.950840
 20
0.941160
  0
VERTEX
  8
0
  6
CONTINUOUS
 10
0.946440
 20
1.686520
  0
VERTEX
  8
0
  6
CONTINUOUS
 10
0.896280
 20
1.721280
  0
SEQEND
  8
0
  0
SOLID
  8
0
 62
    15
 10
0.946440
 20
1.686520
 11
0.950840
 21
0.941160
 12
1.004080
 22
1.664960
 13
1.008480
 23
0.919600
  0
POLYLINE
  8
0
  6
CONTINUOUS
 66
     1
 40
0.000000
 41
0.000000
  0
VERTEX
  8
0
  6
CONTINUOUS
 10
0.946440
 20
1.686520
  0
VERTEX
  8
0
  6
CONTINUOUS
 10
0.950840
 20
0.941160
  0
VERTEX
  8
0
  6
CONTINUOUS
 10
1.008480
 20
0.919600
  0
VERTEX
  8
0
  6
CONTINUOUS
 10
1.004080
 20
1.664960
  0
VERTEX
  8
0
  6
CONTINUOUS
 10
0.946440
 20
1.686520
  0
SEQEND
  8
0
  0
SOLID
  8
0
 62
    15
 10
1.004080
 20
1.664960
 11
1.008480
 21
0.919600
 12
1.069200
 22
1.657480
 13
1.073600
 23
0.912120
  0
POLYLINE
  8
0
  6
CONTINUOUS
 66
     1
 40
0.000000
 41
0.000000
  0
VERTEX
  8
0
  6
CONTINUOUS
 10
1.004080
 20
1.664960
  0
VERTEX
  8
0
  6
CONTINUOUS
 10
1.008480
 20
0.919600
  0
VERTEX
  8
0
  6
CONTINUOUS
 10
1.073600
 20
0.912120
  0
VERTEX
  8
0
  6
CONTINUOUS
 10
1.069200
 20
1.657480
  0
VERTEX
  8
0
  6
CONTINUOUS
 10
1.004080
 20
1.664960
  0
SEQEND
  8
0
  0
SOLID
  8
0
 62
    15
 10
1.069200
 20
1.657480
 11
1.073600
 21
0.912120
 12
1.091200
 22
1.658360
 13
1.095600
 23
0.913000
  0
POLYLINE
  8
0
  6
CONTINUOUS
 66
     1
 40
0.000000
 41
0.000000
  0
VERTEX
  8
0
  6
CONTINUOUS
 10
1.069200
 20
1.657480
  0
VERTEX
  8
0
  6
CONTINUOUS
 10
1.073600
 20
0.912120
  0
VERTEX
  8
0
  6
CONTINUOUS
 10
1.095600
 20
0.913000
  0
VERTEX
  8
0
  6
CONTINUOUS
 10
1.091200
 20
1.658360
  0
VERTEX
  8
0
  6
CONTINUOUS
 10
1.069200
 20
1.657480
  0
SEQEND
  8
0
  0
SOLID
  8
0
 62
    15
 10
1.091200
 20
1.658360
 11
1.095600
 21
0.913000
 12
1.121560
 22
1.661440
 13
1.125960
 23
0.916080
  0
POLYLINE
  8
0
  6
CONTINUOUS
 66
     1
 40
0.000000
 41
0.000000
  0
VERTEX
  8
0
  6
CONTINUOUS
 10
1.091200
 20
1.658360
  0
VERTEX
  8
0
  6
CONTINUOUS
 10
1.095600
 20
0.913000
  0
VERTEX
  8
0
  6
CONTINUOUS
 10
1.125960
 20
0.916080
  0
VERTEX
  8
0
  6
CONTINUOUS
 10
1.121560
 20
1.661440
  0
VERTEX
  8
0
  6
CONTINUOUS
 10
1.091200
 20
1.658360
  0
SEQEND
  8
0
  0
SOLID
  8
0
 62
    15
 10
1.121560
 20
1.661440
 11
1.125960
 21
0.916080
 12
1.160280
 22
1.665840
 13
1.164680
 23
0.920480
  0
POLYLINE
  8
0
  6
CONTINUOUS
 66
     1
 40
0.000000
 41
0.000000
  0
VERTEX
  8
0
  6
CONTINUOUS
 10
1.121560
 20
1.661440
  0
VERTEX
  8
0
  6
CONTINUOUS
 10
1.125960
 20
0.916080
  0
VERTEX
  8
0
  6
CONTINUOUS
 10
1.164680
 20
0.920480
  0
VERTEX
  8
0
  6
CONTINUOUS
 10
1.160280
 20
1.665840
  0
VERTEX
  8
0
  6
CONTINUOUS
 10
1.121560
 20
1.661440
  0
SEQEND
  8
0
  0
SOLID
  8
0
 62
    15
 10
1.160280
 20
1.665840
 11
1.164680
 21
0.920480
 12
1.206920
 22
1.672440
 13
1.211320
 23
0.927080
  0
POLYLINE
  8
0
  6
CONTINUOUS
 66
     1
 40
0.000000
 41
0.000000
  0
VERTEX
  8
0
  6
CONTINUOUS
 10
1.160280
 20
1.665840
  0
VERTEX
  8
0
  6
CONTINUOUS
 10
1.164680
 20
0.920480
  0
VERTEX
  8
0
  6
CONTINUOUS
 10
1.211320
 20
0.927080
  0
VERTEX
  8
0
  6
CONTINUOUS
 10
1.206920
 20
1.672440
  0
VERTEX
  8
0
  6
CONTINUOUS
 10
1.160280
 20
1.665840
  0
SEQEND
  8
0
  0
SOLID
  8
0
 62
    15
 10
1.206920
 20
1.672440
 11
1.211320
 21
0.927080
 12
1.261040
 22
1.680360
 13
1.265440
 23
0.935000
  0
POLYLINE
  8
0
  6
CONTINUOUS
 66
     1
 40
0.000000
 41
0.000000
  0
VERTEX
  8
0
  6
CONTINUOUS
 10
1.206920
 20
1.672440
  0
VERTEX
  8
0
  6
CONTINUOUS
 10
1.211320
 20
0.927080
  0
VERTEX
  8
0
  6
CONTINUOUS
 10
1.265440
 20
0.935000
  0
VERTEX
  8
0
  6
CONTINUOUS
 10
1.261040
 20
1.680360
  0
VERTEX
  8
0
  6
CONTINUOUS
 10
1.206920
 20
1.672440
  0
SEQEND
  8
0
  0
SOLID
  8
0
 62
    15
 10
3.963960
 20
2.620640
 11
3.968360
 21
1.875280
 12
3.963960
 22
2.895640
 13
3.968360
 23
2.150280
  0
POLYLINE
  8
0
  6
CONTINUOUS
 66
     1
 40
0.000000
 41
0.000000
  0
VERTEX
  8
0
  6
CONTINUOUS
 10
3.963960
 20
2.620640
  0
VERTEX
  8
0
  6
CONTINUOUS
 10
3.968360
 20
1.875280
  0
VERTEX
  8
0
  6
CONTINUOUS
 10
3.968360
 20
2.150280
  0
VERTEX
  8
0
  6
CONTINUOUS
 10
3.963960
 20
2.895640
  0
VERTEX
  8
0
  6
CONTINUOUS
 10
3.963960
 20
2.620640
  0
SEQEND
  8
0
  0
SOLID
  8
0
 62
    15
 10
1.322200
 20
1.690480
 11
1.326600
 21
0.945120
 12
1.389960
 22
1.702800
 13
1.394360
 23
0.957000
  0
POLYLINE
  8
0
  6
CONTINUOUS
 66
     1
 40
0.000000
 41
0.000000
  0
VERTEX
  8
0
  6
CONTINUOUS
 10
1.322200
 20
1.690480
  0
VERTEX
  8
0
  6
CONTINUOUS
 10
1.326600
 20
0.945120
  0
VERTEX
  8
0
  6
CONTINUOUS
 10
1.394360
 20
0.957000
  0
VERTEX
  8
0
  6
CONTINUOUS
 10
1.389960
 20
1.702800
  0
VERTEX
  8
0
  6
CONTINUOUS
 10
1.322200
 20
1.690480
  0
SEQEND
  8
0
  0
SOLID
  8
0
 62
    15
 10
1.389960
 20
1.702800
 11
1.394360
 21
0.957000
 12
1.463880
 22
1.716440
 13
1.468280
 23
0.971080
  0
POLYLINE
  8
0
  6
CONTINUOUS
 66
     1
 40
0.000000
 41
0.000000
  0
VERTEX
  8
0
  6
CONTINUOUS
 10
1.389960
 20
1.702800
  0
VERTEX
  8
0
  6
CONTINUOUS
 10
1.394360
 20
0.957000
  0
VERTEX
  8
0
  6
CONTINUOUS
 10
1.468280
 20
0.971080
  0
VERTEX
  8
0
  6
CONTINUOUS
 10
1.463880
 20
1.716440
  0
VERTEX
  8
0
  6
CONTINUOUS
 10
1.389960
 20
1.702800
  0
SEQEND
  8
0
  0
SOLID
  8
0
 62
    15
 10
1.463880
 20
1.716440
 11
1.468280
 21
0.971080
 12
1.628440
 22
1.749880
 13
1.632840
 23
1.004520
  0
POLYLINE
  8
0
  6
CONTINUOUS
 66
     1
 40
0.000000
 41
0.000000
  0
VERTEX
  8
0
  6
CONTINUOUS
 10
1.463880
 20
1.716440
  0
VERTEX
  8
0
  6
CONTINUOUS
 10
1.468280
 20
0.971080
  0
VERTEX
  8
0
  6
CONTINUOUS
 10
1.632840
 20
1.004520
  0
VERTEX
  8
0
  6
CONTINUOUS
 10
1.628440
 20
1.749880
  0
VERTEX
  8
0
  6
CONTINUOUS
 10
1.463880
 20
1.716440
  0
SEQEND
  8
0
  0
SOLID
  8
0
 62
    15
 10
1.628440
 20
1.749880
 11
1.632840
 21
1.004520
 12
1.812360
 22
1.790360
 13
1.816760
 23
1.045000
  0
POLYLINE
  8
0
  6
CONTINUOUS
 66
     1
 40
0.000000
 41
0.000000
  0
VERTEX
  8
0
  6
CONTINUOUS
 10
1.628440
 20
1.749880
  0
VERTEX
  8
0
  6
CONTINUOUS
 10
1.632840
 20
1.004520
  0
VERTEX
  8
0
  6
CONTINUOUS
 10
1.816760
 20
1.045000
  0
VERTEX
  8
0
  6
CONTINUOUS
 10
1.812360
 20
1.790360
  0
VERTEX
  8
0
  6
CONTINUOUS
 10
1.628440
 20
1.749880
  0
SEQEND
  8
0
  0
SOLID
  8
0
 62
    15
 10
1.812360
 20
1.790360
 11
1.816760
 21
1.045000
 12
2.012560
 22
1.838760
 13
2.016960
 23
1.093400
  0
POLYLINE
  8
0
  6
CONTINUOUS
 66
     1
 40
0.000000
 41
0.000000
  0
VERTEX
  8
0
  6
CONTINUOUS
 10
1.812360
 20
1.790360
  0
VERTEX
  8
0
  6
CONTINUOUS
 10
1.816760
 20
1.045000
  0
VERTEX
  8
0
  6
CONTINUOUS
 10
2.016960
 20
1.093400
  0
VERTEX
  8
0
  6
CONTINUOUS
 10
2.012560
 20
1.838760
  0
VERTEX
  8
0
  6
CONTINUOUS
 10
1.812360
 20
1.790360
  0
SEQEND
  8
0
  0
SOLID
  8
0
 62
    15
 10
2.012560
 20
1.838760
 11
2.016960
 21
1.093400
 12
2.225080
 22
1.894640
 13
2.229480
 23
1.149280
  0
POLYLINE
  8
0
  6
CONTINUOUS
 66
     1
 40
0.000000
 41
0.000000
  0
VERTEX
  8
0
  6
CONTINUOUS
 10
2.012560
 20
1.838760
  0
VERTEX
  8
0
  6
CONTINUOUS
 10
2.016960
 20
1.093400
  0
VERTEX
  8
0
  6
CONTINUOUS
 10
2.229480
 20
1.149280
  0
VERTEX
  8
0
  6
CONTINUOUS
 10
2.225080
 20
1.894640
  0
VERTEX
  8
0
  6
CONTINUOUS
 10
2.012560
 20
1.838760
  0
SEQEND
  8
0
  0
SOLID
  8
0
 62
    15
 10
2.225080
 20
1.894640
 11
2.229480
 21
1.149280
 12
2.446840
 22
1.958440
 13
2.451240
 23
1.213080
  0
POLYLINE
  8
0
  6
CONTINUOUS
 66
     1
 40
0.000000
 41
0.000000
  0
VERTEX
  8
0
  6
CONTINUOUS
 10
2.225080
 20
1.894640
  0
VERTEX
  8
0
  6
CONTINUOUS
 10
2.229480
 20
1.149280
  0
VERTEX
  8
0
  6
CONTINUOUS
 10
2.451240
 20
1.213080
  0
VERTEX
  8
0
  6
CONTINUOUS
 10
2.446840
 20
1.958440
  0
VERTEX
  8
0
  6
CONTINUOUS
 10
2.225080
 20
1.894640
  0
SEQEND
  8
0
  0
SOLID
  8
0
 62
    15
 10
2.446840
 20
1.958440
 11
2.451240
 21
1.213080
 12
2.674320
 22
2.029720
 13
2.678720
 23
1.283920
  0
POLYLINE
  8
0
  6
CONTINUOUS
 66
     1
 40
0.000000
 41
0.000000
  0
VERTEX
  8
0
  6
CONTINUOUS
 10
2.446840
 20
1.958440
  0
VERTEX
  8
0
  6
CONTINUOUS
 10
2.451240
 20
1.213080
  0
VERTEX
  8
0
  6
CONTINUOUS
 10
2.678720
 20
1.283920
  0
VERTEX
  8
0
  6
CONTINUOUS
 10
2.674320
 20
2.029720
  0
VERTEX
  8
0
  6
CONTINUOUS
 10
2.446840
 20
1.958440
  0
SEQEND
  8
0
  0
SOLID
  8
0
 62
    15
 10
2.674320
 20
2.029720
 11
2.678720
 21
1.283920
 12
2.904000
 22
2.108480
 13
2.908400
 23
1.363120
  0
POLYLINE
  8
0
  6
CONTINUOUS
 66
     1
 40
0.000000
 41
0.000000
  0
VERTEX
  8
0
  6
CONTINUOUS
 10
2.674320
 20
2.029720
  0
VERTEX
  8
0
  6
CONTINUOUS
 10
2.678720
 20
1.283920
  0
VERTEX
  8
0
  6
CONTINUOUS
 10
2.908400
 20
1.363120
  0
VERTEX
  8
0
  6
CONTINUOUS
 10
2.904000
 20
2.108480
  0
VERTEX
  8
0
  6
CONTINUOUS
 10
2.674320
 20
2.029720
  0
SEQEND
  8
0
  0
SOLID
  8
0
 62
    15
 10
2.904000
 20
2.108480
 11
2.908400
 21
1.363120
 12
3.132360
 22
2.195160
 13
3.136760
 23
1.449800
  0
POLYLINE
  8
0
  6
CONTINUOUS
 66
     1
 40
0.000000
 41
0.000000
  0
VERTEX
  8
0
  6
CONTINUOUS
 10
2.904000
 20
2.108480
  0
VERTEX
  8
0
  6
CONTINUOUS
 10
2.908400
 20
1.363120
  0
VERTEX
  8
0
  6
CONTINUOUS
 10
3.136760
 20
1.449800
  0
VERTEX
  8
0
  6
CONTINUOUS
 10
3.132360
 20
2.195160
  0
VERTEX
  8
0
  6
CONTINUOUS
 10
2.904000
 20
2.108480
  0
SEQEND
  8
0
  0
SOLID
  8
0
 62
    15
 10
3.132360
 20
2.195160
 11
3.136760
 21
1.449800
 12
3.356320
 22
2.289320
 13
3.360720
 23
1.543960
  0
POLYLINE
  8
0
  6
CONTINUOUS
 66
     1
 40
0.000000
 41
0.000000
  0
VERTEX
  8
0
  6
CONTINUOUS
 10
3.132360
 20
2.195160
  0
VERTEX
  8
0
  6
CONTINUOUS
 10
3.136760
 20
1.449800
  0
VERTEX
  8
0
  6
CONTINUOUS
 10
3.360720
 20
1.543960
  0
VERTEX
  8
0
  6
CONTINUOUS
 10
3.356320
 20
2.289320
  0
VERTEX
  8
0
  6
CONTINUOUS
 10
3.132360
 20
2.195160
  0
SEQEND
  8
0
  0
SOLID
  8
0
 62
    15
 10
3.356320
 20
2.289320
 11
3.360720
 21
1.543960
 12
3.571480
 22
2.391840
 13
3.575880
 23
1.646480
  0
POLYLINE
  8
0
  6
CONTINUOUS
 66
     1
 40
0.000000
 41
0.000000
  0
VERTEX
  8
0
  6
CONTINUOUS
 10
3.356320
 20
2.289320
  0
VERTEX
  8
0
  6
CONTINUOUS
 10
3.360720
 20
1.543960
  0
VERTEX
  8
0
  6
CONTINUOUS
 10
3.575880
 20
1.646480
  0
VERTEX
  8
0
  6
CONTINUOUS
 10
3.571480
 20
2.391840
  0
VERTEX
  8
0
  6
CONTINUOUS
 10
3.356320
 20
2.289320
  0
SEQEND
  8
0
  0
SOLID
  8
0
 62
    15
 10
3.571480
 20
2.391840
 11
3.575880
 21
1.646480
 12
3.775640
 22
2.501840
 13
3.780040
 23
1.756480
  0
POLYLINE
  8
0
  6
CONTINUOUS
 66
     1
 40
0.000000
 41
0.000000
  0
VERTEX
  8
0
  6
CONTINUOUS
 10
3.571480
 20
2.391840
  0
VERTEX
  8
0
  6
CONTINUOUS
 10
3.575880
 20
1.646480
  0
VERTEX
  8
0
  6
CONTINUOUS
 10
3.780040
 20
1.756480
  0
VERTEX
  8
0
  6
CONTINUOUS
 10
3.775640
 20
2.501840
  0
VERTEX
  8
0
  6
CONTINUOUS
 10
3.571480
 20
2.391840
  0
SEQEND
  8
0
  0
SOLID
  8
0
 62
    15
 10
3.775640
 20
2.501840
 11
3.780040
 21
1.756480
 12
3.964400
 22
2.619760
 13
3.968800
 23
1.874400
  0
POLYLINE
  8
0
  6
CONTINUOUS
 66
     1
 40
0.000000
 41
0.000000
  0
VERTEX
  8
0
  6
CONTINUOUS
 10
3.775640
 20
2.501840
  0
VERTEX
  8
0
  6
CONTINUOUS
 10
3.780040
 20
1.756480
  0
VERTEX
  8
0
  6
CONTINUOUS
 10
3.968800
 20
1.874400
  0
VERTEX
  8
0
  6
CONTINUOUS
 10
3.964400
 20
2.619760
  0
VERTEX
  8
0
  6
CONTINUOUS
 10
3.775640
 20
2.501840
  0
SEQEND
  8
0
  0
POLYLINE
  8
0
  6
CONTINUOUS
 66
     1
 40
0.000000
 41
0.000000
  0
VERTEX
  8
0
  6
CONTINUOUS
 10
3.963960
 20
2.620640
  0
VERTEX
  8
0
  6
CONTINUOUS
 10
3.963960
 20
2.895640
  0
VERTEX
  8
0
  6
CONTINUOUS
 10
0.776600
 20
2.895640
  0
VERTEX
  8
0
  6
CONTINUOUS
 10
0.776600
 20
2.050840
  0
VERTEX
  8
0
  6
CONTINUOUS
 10
0.781880
 20
1.967680
  0
VERTEX
  8
0
  6
CONTINUOUS
 10
0.796840
 20
1.892000
  0
VERTEX
  8
0
  6
CONTINUOUS
 10
0.821040
 20
1.825120
  0
VERTEX
  8
0
  6
CONTINUOUS
 10
0.854480
 20
1.767920
  0
VERTEX
  8
0
  6
CONTINUOUS
 10
0.896280
 20
1.721280
  0
VERTEX
  8
0
  6
CONTINUOUS
 10
0.946440
 20
1.686520
  0
VERTEX
  8
0
  6
CONTINUOUS
 10
1.004080
 20
1.664960
  0
VERTEX
  8
0
  6
CONTINUOUS
 10
1.069200
 20
1.657480
  0
VERTEX
  8
0
  6
CONTINUOUS
 10
1.091200
 20
1.658360
  0
VERTEX
  8
0
  6
CONTINUOUS
 10
1.121560
 20
1.661440
  0
VERTEX
  8
0
  6
CONTINUOUS
 10
1.160280
 20
1.665840
  0
VERTEX
  8
0
  6
CONTINUOUS
 10
1.206920
 20
1.672440
  0
VERTEX
  8
0
  6
CONTINUOUS
 10
1.261040
 20
1.680360
  0
VERTEX
  8
0
  6
CONTINUOUS
 10
1.322200
 20
1.690480
  0
VERTEX
  8
0
  6
CONTINUOUS
 10
1.389960
 20
1.702800
  0
VERTEX
  8
0
  6
CONTINUOUS
 10
1.463880
 20
1.716440
  0
VERTEX
  8
0
  6
CONTINUOUS
 10
1.628440
 20
1.749880
  0
VERTEX
  8
0
  6
CONTINUOUS
 10
1.812360
 20
1.790360
  0
VERTEX
  8
0
  6
CONTINUOUS
 10
2.012560
 20
1.838760
  0
VERTEX
  8
0
  6
CONTINUOUS
 10
2.225080
 20
1.894640
  0
VERTEX
  8
0
  6
CONTINUOUS
 10
2.446840
 20
1.958440
  0
VERTEX
  8
0
  6
CONTINUOUS
 10
2.674320
 20
2.029720
  0
VERTEX
  8
0
  6
CONTINUOUS
 10
2.904000
 20
2.108480
  0
VERTEX
  8
0
  6
CONTINUOUS
 10
3.132360
 20
2.195160
  0
VERTEX
  8
0
  6
CONTINUOUS
 10
3.356320
 20
2.289320
  0
VERTEX
  8
0
  6
CONTINUOUS
 10
3.571480
 20
2.391840
  0
VERTEX
  8
0
  6
CONTINUOUS
 10
3.775640
 20
2.501840
  0
VERTEX
  8
0
  6
CONTINUOUS
 10
3.964400
 20
2.619760
  0
VERTEX
  8
0
  6
CONTINUOUS
 10
3.963960
 20
2.620640
  0
SEQEND
  8
0
  0
SOLID
  8
0
 62
    15
 10
2.962960
 20
3.194840
 11
2.966040
 21
2.452560
 12
3.014880
 22
3.204080
 13
3.018400
 23
2.462240
  0
POLYLINE
  8
0
  6
CONTINUOUS
 66
     1
 40
0.000000
 41
0.000000
  0
VERTEX
  8
0
  6
CONTINUOUS
 10
2.962960
 20
3.194840
  0
VERTEX
  8
0
  6
CONTINUOUS
 10
2.966040
 20
2.452560
  0
VERTEX
  8
0
  6
CONTINUOUS
 10
3.018400
 20
2.462240
  0
VERTEX
  8
0
  6
CONTINUOUS
 10
3.014880
 20
3.204080
  0
VERTEX
  8
0
  6
CONTINUOUS
 10
2.962960
 20
3.194840
  0
SEQEND
  8
0
  0
SOLID
  8
0
 62
    15
 10
1.002320
 20
2.829640
 11
1.005400
 21
2.087360
 12
1.325720
 22
2.829640
 13
1.328800
 23
2.087360
  0
POLYLINE
  8
0
  6
CONTINUOUS
 66
     1
 40
0.000000
 41
0.000000
  0
VERTEX
  8
0
  6
CONTINUOUS
 10
1.002320
 20
2.829640
  0
VERTEX
  8
0
  6
CONTINUOUS
 10
1.005400
 20
2.087360
  0
VERTEX
  8
0
  6
CONTINUOUS
 10
1.328800
 20
2.087360
  0
VERTEX
  8
0
  6
CONTINUOUS
 10
1.325720
 20
2.829640
  0
VERTEX
  8
0
  6
CONTINUOUS
 10
1.002320
 20
2.829640
  0
SEQEND
  8
0
  0
SOLID
  8
0
 62
    15
 10
1.325720
 20
2.829640
 11
1.328800
 21
2.087360
 12
1.353440
 22
2.835800
 13
1.356520
 23
2.093960
  0
POLYLINE
  8
0
  6
CONTINUOUS
 66
     1
 40
0.000000
 41
0.000000
  0
VERTEX
  8
0
  6
CONTINUOUS
 10
1.325720
 20
2.829640
  0
VERTEX
  8
0
  6
CONTINUOUS
 10
1.328800
 20
2.087360
  0
VERTEX
  8
0
  6
CONTINUOUS
 10
1.356520
 20
2.093960
  0
VERTEX
  8
0
  6
CONTINUOUS
 10
1.353440
 20
2.835800
  0
VERTEX
  8
0
  6
CONTINUOUS
 10
1.325720
 20
2.829640
  0
SEQEND
  8
0
  0
SOLID
  8
0
 62
    15
 10
1.353440
 20
2.835800
 11
1.356520
 21
2.093960
 12
1.381600
 22
2.852960
 13
1.384680
 23
2.111120
  0
POLYLINE
  8
0
  6
CONTINUOUS
 66
     1
 40
0.000000
 41
0.000000
  0
VERTEX
  8
0
  6
CONTINUOUS
 10
1.353440
 20
2.835800
  0
VERTEX
  8
0
  6
CONTINUOUS
 10
1.356520
 20
2.093960
  0
VERTEX
  8
0
  6
CONTINUOUS
 10
1.384680
 20
2.111120
  0
VERTEX
  8
0
  6
CONTINUOUS
 10
1.381600
 20
2.852960
  0
VERTEX
  8
0
  6
CONTINUOUS
 10
1.353440
 20
2.835800
  0
SEQEND
  8
0
  0
SOLID
  8
0
 62
    15
 10
1.381600
 20
2.852960
 11
1.384680
 21
2.111120
 12
1.409760
 22
2.877600
 13
1.413280
 23
2.135320
  0
POLYLINE
  8
0
  6
CONTINUOUS
 66
     1
 40
0.000000
 41
0.000000
  0
VERTEX
  8
0
  6
CONTINUOUS
 10
1.381600
 20
2.852960
  0
VERTEX
  8
0
  6
CONTINUOUS
 10
1.384680
 20
2.111120
  0
VERTEX
  8
0
  6
CONTINUOUS
 10
1.413280
 20
2.135320
  0
VERTEX
  8
0
  6
CONTINUOUS
 10
1.409760
 20
2.877600
  0
VERTEX
  8
0
  6
CONTINUOUS
 10
1.381600
 20
2.852960
  0
SEQEND
  8
0
  0
SOLID
  8
0
 62
    15
 10
1.409760
 20
2.877600
 11
1.413280
 21
2.135320
 12
1.424280
 22
2.891240
 13
1.427800
 23
2.149400
  0
POLYLINE
  8
0
  6
CONTINUOUS
 66
     1
 40
0.000000
 41
0.000000
  0
VERTEX
  8
0
  6
CONTINUOUS
 10
1.409760
 20
2.877600
  0
VERTEX
  8
0
  6
CONTINUOUS
 10
1.413280
 20
2.135320
  0
VERTEX
  8
0
  6
CONTINUOUS
 10
1.427800
 20
2.149400
  0
VERTEX
  8
0
  6
CONTINUOUS
 10
1.424280
 20
2.891240
  0
VERTEX
  8
0
  6
CONTINUOUS
 10
1.409760
 20
2.877600
  0
SEQEND
  8
0
  0
SOLID
  8
0
 62
    15
 10
1.424280
 20
2.891240
 11
1.427800
 21
2.149400
 12
1.439240
 22
2.905320
 13
1.442320
 23
2.163480
  0
POLYLINE
  8
0
  6
CONTINUOUS
 66
     1
 40
0.000000
 41
0.000000
  0
VERTEX
  8
0
  6
CONTINUOUS
 10
1.424280
 20
2.891240
  0
VERTEX
  8
0
  6
CONTINUOUS
 10
1.427800
 20
2.149400
  0
VERTEX
  8
0
  6
CONTINUOUS
 10
1.442320
 20
2.163480
  0
VERTEX
  8
0
  6
CONTINUOUS
 10
1.439240
 20
2.905320
  0
VERTEX
  8
0
  6
CONTINUOUS
 10
1.424280
 20
2.891240
  0
SEQEND
  8
0
  0
SOLID
  8
0
 62
    15
 10
1.439240
 20
2.905320
 11
1.442320
 21
2.163480
 12
1.469160
 22
2.933040
 13
1.472240
 23
2.191200
  0
POLYLINE
  8
0
  6
CONTINUOUS
 66
     1
 40
0.000000
 41
0.000000
  0
VERTEX
  8
0
  6
CONTINUOUS
 10
1.439240
 20
2.905320
  0
VERTEX
  8
0
  6
CONTINUOUS
 10
1.442320
 20
2.163480
  0
VERTEX
  8
0
  6
CONTINUOUS
 10
1.472240
 20
2.191200
  0
VERTEX
  8
0
  6
CONTINUOUS
 10
1.469160
 20
2.933040
  0
VERTEX
  8
0
  6
CONTINUOUS
 10
1.439240
 20
2.905320
  0
SEQEND
  8
0
  0
SOLID
  8
0
 62
    15
 10
1.469160
 20
2.933040
 11
1.472240
 21
2.191200
 12
1.499960
 22
2.957240
 13
1.503040
 23
2.215400
  0
POLYLINE
  8
0
  6
CONTINUOUS
 66
     1
 40
0.000000
 41
0.000000
  0
VERTEX
  8
0
  6
CONTINUOUS
 10
1.469160
 20
2.933040
  0
VERTEX
  8
0
  6
CONTINUOUS
 10
1.472240
 20
2.191200
  0
VERTEX
  8
0
  6
CONTINUOUS
 10
1.503040
 20
2.215400
  0
VERTEX
  8
0
  6
CONTINUOUS
 10
1.499960
 20
2.957240
  0
VERTEX
  8
0
  6
CONTINUOUS
 10
1.469160
 20
2.933040
  0
SEQEND
  8
0
  0
SOLID
  8
0
 62
    15
 10
1.499960
 20
2.957240
 11
1.503040
 21
2.215400
 12
1.531640
 22
2.974400
 13
1.534720
 23
2.232560
  0
POLYLINE
  8
0
  6
CONTINUOUS
 66
     1
 40
0.000000
 41
0.000000
  0
VERTEX
  8
0
  6
CONTINUOUS
 10
1.499960
 20
2.957240
  0
VERTEX
  8
0
  6
CONTINUOUS
 10
1.503040
 20
2.215400
  0
VERTEX
  8
0
  6
CONTINUOUS
 10
1.534720
 20
2.232560
  0
VERTEX
  8
0
  6
CONTINUOUS
 10
1.531640
 20
2.974400
  0
VERTEX
  8
0
  6
CONTINUOUS
 10
1.499960
 20
2.957240
  0
SEQEND
  8
0
  0
SOLID
  8
0
 62
    15
 10
1.531640
 20
2.974400
 11
1.534720
 21
2.232560
 12
1.564200
 22
2.981000
 13
1.567720
 23
2.239160
  0
POLYLINE
  8
0
  6
CONTINUOUS
 66
     1
 40
0.000000
 41
0.000000
  0
VERTEX
  8
0
  6
CONTINUOUS
 10
1.531640
 20
2.974400
  0
VERTEX
  8
0
  6
CONTINUOUS
 10
1.534720
 20
2.232560
  0
VERTEX
  8
0
  6
CONTINUOUS
 10
1.567720
 20
2.239160
  0
VERTEX
  8
0
  6
CONTINUOUS
 10
1.564200
 20
2.981000
  0
VERTEX
  8
0
  6
CONTINUOUS
 10
1.531640
 20
2.974400
  0
SEQEND
  8
0
  0
SOLID
  8
0
 62
    15
 10
1.564200
 20
2.981000
 11
1.567720
 21
2.239160
 12
2.677840
 22
2.981000
 13
2.681360
 23
2.239160
  0
POLYLINE
  8
0
  6
CONTINUOUS
 66
     1
 40
0.000000
 41
0.000000
  0
VERTEX
  8
0
  6
CONTINUOUS
 10
1.564200
 20
2.981000
  0
VERTEX
  8
0
  6
CONTINUOUS
 10
1.567720
 20
2.239160
  0
VERTEX
  8
0
  6
CONTINUOUS
 10
2.681360
 20
2.239160
  0
VERTEX
  8
0
  6
CONTINUOUS
 10
2.677840
 20
2.981000
  0
VERTEX
  8
0
  6
CONTINUOUS
 10
1.564200
 20
2.981000
  0
SEQEND
  8
0
  0
SOLID
  8
0
 62
    15
 10
2.677840
 20
2.981000
 11
2.681360
 21
2.239160
 12
2.692360
 22
2.982760
 13
2.695880
 23
2.240920
  0
POLYLINE
  8
0
  6
CONTINUOUS
 66
     1
 40
0.000000
 41
0.000000
  0
VERTEX
  8
0
  6
CONTINUOUS
 10
2.677840
 20
2.981000
  0
VERTEX
  8
0
  6
CONTINUOUS
 10
2.681360
 20
2.239160
  0
VERTEX
  8
0
  6
CONTINUOUS
 10
2.695880
 20
2.240920
  0
VERTEX
  8
0
  6
CONTINUOUS
 10
2.692360
 20
2.982760
  0
VERTEX
  8
0
  6
CONTINUOUS
 10
2.677840
 20
2.981000
  0
SEQEND
  8
0
  0
SOLID
  8
0
 62
    15
 10
2.692360
 20
2.982760
 11
2.695880
 21
2.240920
 12
2.705560
 22
2.988040
 13
2.709080
 23
2.246200
  0
POLYLINE
  8
0
  6
CONTINUOUS
 66
     1
 40
0.000000
 41
0.000000
  0
VERTEX
  8
0
  6
CONTINUOUS
 10
2.692360
 20
2.982760
  0
VERTEX
  8
0
  6
CONTINUOUS
 10
2.695880
 20
2.240920
  0
VERTEX
  8
0
  6
CONTINUOUS
 10
2.709080
 20
2.246200
  0
VERTEX
  8
0
  6
CONTINUOUS
 10
2.705560
 20
2.988040
  0
VERTEX
  8
0
  6
CONTINUOUS
 10
2.692360
 20
2.982760
  0
SEQEND
  8
0
  0
SOLID
  8
0
 62
    15
 10
2.705560
 20
2.988040
 11
2.709080
 21
2.246200
 12
2.729760
 22
3.007400
 13
2.733280
 23
2.265560
  0
POLYLINE
  8
0
  6
CONTINUOUS
 66
     1
 40
0.000000
 41
0.000000
  0
VERTEX
  8
0
  6
CONTINUOUS
 10
2.705560
 20
2.988040
  0
VERTEX
  8
0
  6
CONTINUOUS
 10
2.709080
 20
2.246200
  0
VERTEX
  8
0
  6
CONTINUOUS
 10
2.733280
 20
2.265560
  0
VERTEX
  8
0
  6
CONTINUOUS
 10
2.729760
 20
3.007400
  0
VERTEX
  8
0
  6
CONTINUOUS
 10
2.705560
 20
2.988040
  0
SEQEND
  8
0
  0
SOLID
  8
0
 62
    15
 10
2.729760
 20
3.007400
 11
2.733280
 21
2.265560
 12
2.753080
 22
3.035560
 13
2.756600
 23
2.293720
  0
POLYLINE
  8
0
  6
CONTINUOUS
 66
     1
 40
0.000000
 41
0.000000
  0
VERTEX
  8
0
  6
CONTINUOUS
 10
2.729760
 20
3.007400
  0
VERTEX
  8
0
  6
CONTINUOUS
 10
2.733280
 20
2.265560
  0
VERTEX
  8
0
  6
CONTINUOUS
 10
2.756600
 20
2.293720
  0
VERTEX
  8
0
  6
CONTINUOUS
 10
2.753080
 20
3.035560
  0
VERTEX
  8
0
  6
CONTINUOUS
 10
2.729760
 20
3.007400
  0
SEQEND
  8
0
  0
SOLID
  8
0
 62
    15
 10
2.753080
 20
3.035560
 11
2.756600
 21
2.293720
 12
2.765400
 22
3.051840
 13
2.768920
 23
2.310000
  0
POLYLINE
  8
0
  6
CONTINUOUS
 66
     1
 40
0.000000
 41
0.000000
  0
VERTEX
  8
0
  6
CONTINUOUS
 10
2.753080
 20
3.035560
  0
VERTEX
  8
0
  6
CONTINUOUS
 10
2.756600
 20
2.293720
  0
VERTEX
  8
0
  6
CONTINUOUS
 10
2.768920
 20
2.310000
  0
VERTEX
  8
0
  6
CONTINUOUS
 10
2.765400
 20
3.051840
  0
VERTEX
  8
0
  6
CONTINUOUS
 10
2.753080
 20
3.035560
  0
SEQEND
  8
0
  0
SOLID
  8
0
 62
    15
 10
2.765400
 20
3.051840
 11
2.768920
 21
2.310000
 12
2.779040
 22
3.069000
 13
2.782120
 23
2.327160
  0
POLYLINE
  8
0
  6
CONTINUOUS
 66
     1
 40
0.000000
 41
0.000000
  0
VERTEX
  8
0
  6
CONTINUOUS
 10
2.765400
 20
3.051840
  0
VERTEX
  8
0
  6
CONTINUOUS
 10
2.768920
 20
2.310000
  0
VERTEX
  8
0
  6
CONTINUOUS
 10
2.782120
 20
2.327160
  0
VERTEX
  8
0
  6
CONTINUOUS
 10
2.779040
 20
3.069000
  0
VERTEX
  8
0
  6
CONTINUOUS
 10
2.765400
 20
3.051840
  0
SEQEND
  8
0
  0
SOLID
  8
0
 62
    15
 10
2.779040
 20
3.069000
 11
2.782120
 21
2.327160
 12
2.809840
 22
3.105080
 13
2.813360
 23
2.363240
  0
POLYLINE
  8
0
  6
CONTINUOUS
 66
     1
 40
0.000000
 41
0.000000
  0
VERTEX
  8
0
  6
CONTINUOUS
 10
2.779040
 20
3.069000
  0
VERTEX
  8
0
  6
CONTINUOUS
 10
2.782120
 20
2.327160
  0
VERTEX
  8
0
  6
CONTINUOUS
 10
2.813360
 20
2.363240
  0
VERTEX
  8
0
  6
CONTINUOUS
 10
2.809840
 20
3.105080
  0
VERTEX
  8
0
  6
CONTINUOUS
 10
2.779040
 20
3.069000
  0
SEQEND
  8
0
  0
SOLID
  8
0
 62
    15
 10
2.809840
 20
3.105080
 11
2.813360
 21
2.363240
 12
2.849000
 22
3.140280
 13
2.852080
 23
2.398440
  0
POLYLINE
  8
0
  6
CONTINUOUS
 66
     1
 40
0.000000
 41
0.000000
  0
VERTEX
  8
0
  6
CONTINUOUS
 10
2.809840
 20
3.105080
  0
VERTEX
  8
0
  6
CONTINUOUS
 10
2.813360
 20
2.363240
  0
VERTEX
  8
0
  6
CONTINUOUS
 10
2.852080
 20
2.398440
  0
VERTEX
  8
0
  6
CONTINUOUS
 10
2.849000
 20
3.140280
  0
VERTEX
  8
0
  6
CONTINUOUS
 10
2.809840
 20
3.105080
  0
SEQEND
  8
0
  0
SOLID
  8
0
 62
    15
 10
2.849000
 20
3.140280
 11
2.852080
 21
2.398440
 12
2.872320
 22
3.156560
 13
2.875840
 23
2.414720
  0
POLYLINE
  8
0
  6
CONTINUOUS
 66
     1
 40
0.000000
 41
0.000000
  0
VERTEX
  8
0
  6
CONTINUOUS
 10
2.849000
 20
3.140280
  0
VERTEX
  8
0
  6
CONTINUOUS
 10
2.852080
 20
2.398440
  0
VERTEX
  8
0
  6
CONTINUOUS
 10
2.875840
 20
2.414720
  0
VERTEX
  8
0
  6
CONTINUOUS
 10
2.872320
 20
3.156560
  0
VERTEX
  8
0
  6
CONTINUOUS
 10
2.849000
 20
3.140280
  0
SEQEND
  8
0
  0
SOLID
  8
0
 62
    15
 10
2.872320
 20
3.156560
 11
2.875840
 21
2.414720
 12
2.898720
 22
3.171080
 13
2.902240
 23
2.429240
  0
POLYLINE
  8
0
  6
CONTINUOUS
 66
     1
 40
0.000000
 41
0.000000
  0
VERTEX
  8
0
  6
CONTINUOUS
 10
2.872320
 20
3.156560
  0
VERTEX
  8
0
  6
CONTINUOUS
 10
2.875840
 20
2.414720
  0
VERTEX
  8
0
  6
CONTINUOUS
 10
2.902240
 20
2.429240
  0
VERTEX
  8
0
  6
CONTINUOUS
 10
2.898720
 20
3.171080
  0
VERTEX
  8
0
  6
CONTINUOUS
 10
2.872320
 20
3.156560
  0
SEQEND
  8
0
  0
SOLID
  8
0
 62
    15
 10
2.898720
 20
3.171080
 11
2.902240
 21
2.429240
 12
2.929080
 22
3.183840
 13
2.932160
 23
2.442000
  0
POLYLINE
  8
0
  6
CONTINUOUS
 66
     1
 40
0.000000
 41
0.000000
  0
VERTEX
  8
0
  6
CONTINUOUS
 10
2.898720
 20
3.171080
  0
VERTEX
  8
0
  6
CONTINUOUS
 10
2.902240
 20
2.429240
  0
VERTEX
  8
0
  6
CONTINUOUS
 10
2.932160
 20
2.442000
  0
VERTEX
  8
0
  6
CONTINUOUS
 10
2.929080
 20
3.183840
  0
VERTEX
  8
0
  6
CONTINUOUS
 10
2.898720
 20
3.171080
  0
SEQEND
  8
0
  0
SOLID
  8
0
 62
    15
 10
2.929080
 20
3.183840
 11
2.932160
 21
2.442000
 12
2.962960
 22
3.194840
 13
2.966040
 23
2.452560
  0
POLYLINE
  8
0
  6
CONTINUOUS
 66
     1
 40
0.000000
 41
0.000000
  0
VERTEX
  8
0
  6
CONTINUOUS
 10
2.929080
 20
3.183840
  0
VERTEX
  8
0
  6
CONTINUOUS
 10
2.932160
 20
2.442000
  0
VERTEX
  8
0
  6
CONTINUOUS
 10
2.966040
 20
2.452560
  0
VERTEX
  8
0
  6
CONTINUOUS
 10
2.962960
 20
3.194840
  0
VERTEX
  8
0
  6
CONTINUOUS
 10
2.929080
 20
3.183840
  0
SEQEND
  8
0
  0
SOLID
  8
0
 62
    15
 10
3.752320
 20
3.554320
 11
3.755840
 21
2.812040
 12
3.752320
 22
3.579400
 13
3.755840
 23
2.837560
  0
POLYLINE
  8
0
  6
CONTINUOUS
 66
     1
 40
0.000000
 41
0.000000
  0
VERTEX
  8
0
  6
CONTINUOUS
 10
3.752320
 20
3.554320
  0
VERTEX
  8
0
  6
CONTINUOUS
 10
3.755840
 20
2.812040
  0
VERTEX
  8
0
  6
CONTINUOUS
 10
3.755840
 20
2.837560
  0
VERTEX
  8
0
  6
CONTINUOUS
 10
3.752320
 20
3.579400
  0
VERTEX
  8
0
  6
CONTINUOUS
 10
3.752320
 20
3.554320
  0
SEQEND
  8
0
  0
SOLID
  8
0
 62
    15
 10
3.014880
 20
3.204080
 11
3.018400
 21
2.462240
 12
3.065920
 22
3.207160
 13
3.069000
 23
2.465320
  0
POLYLINE
  8
0
  6
CONTINUOUS
 66
     1
 40
0.000000
 41
0.000000
  0
VERTEX
  8
0
  6
CONTINUOUS
 10
3.014880
 20
3.204080
  0
VERTEX
  8
0
  6
CONTINUOUS
 10
3.018400
 20
2.462240
  0
VERTEX
  8
0
  6
CONTINUOUS
 10
3.069000
 20
2.465320
  0
VERTEX
  8
0
  6
CONTINUOUS
 10
3.065920
 20
3.207160
  0
VERTEX
  8
0
  6
CONTINUOUS
 10
3.014880
 20
3.204080
  0
SEQEND
  8
0
  0
SOLID
  8
0
 62
    15
 10
3.065920
 20
3.207160
 11
3.069000
 21
2.465320
 12
3.111680
 22
3.206720
 13
3.115200
 23
2.464880
  0
POLYLINE
  8
0
  6
CONTINUOUS
 66
     1
 40
0.000000
 41
0.000000
  0
VERTEX
  8
0
  6
CONTINUOUS
 10
3.065920
 20
3.207160
  0
VERTEX
  8
0
  6
CONTINUOUS
 10
3.069000
 20
2.465320
  0
VERTEX
  8
0
  6
CONTINUOUS
 10
3.115200
 20
2.464880
  0
VERTEX
  8
0
  6
CONTINUOUS
 10
3.111680
 20
3.206720
  0
VERTEX
  8
0
  6
CONTINUOUS
 10
3.065920
 20
3.207160
  0
SEQEND
  8
0
  0
SOLID
  8
0
 62
    15
 10
3.111680
 20
3.206720
 11
3.115200
 21
2.464880
 12
3.131920
 22
3.205840
 13
3.135000
 23
2.464000
  0
POLYLINE
  8
0
  6
CONTINUOUS
 66
     1
 40
0.000000
 41
0.000000
  0
VERTEX
  8
0
  6
CONTINUOUS
 10
3.111680
 20
3.206720
  0
VERTEX
  8
0
  6
CONTINUOUS
 10
3.115200
 20
2.464880
  0
VERTEX
  8
0
  6
CONTINUOUS
 10
3.135000
 20
2.464000
  0
VERTEX
  8
0
  6
CONTINUOUS
 10
3.131920
 20
3.205840
  0
VERTEX
  8
0
  6
CONTINUOUS
 10
3.111680
 20
3.206720
  0
SEQEND
  8
0
  0
SOLID
  8
0
 62
    15
 10
3.131920
 20
3.205840
 11
3.135000
 21
2.464000
 12
3.149080
 22
3.205400
 13
3.152600
 23
2.463560
  0
POLYLINE
  8
0
  6
CONTINUOUS
 66
     1
 40
0.000000
 41
0.000000
  0
VERTEX
  8
0
  6
CONTINUOUS
 10
3.131920
 20
3.205840
  0
VERTEX
  8
0
  6
CONTINUOUS
 10
3.135000
 20
2.464000
  0
VERTEX
  8
0
  6
CONTINUOUS
 10
3.152600
 20
2.463560
  0
VERTEX
  8
0
  6
CONTINUOUS
 10
3.149080
 20
3.205400
  0
VERTEX
  8
0
  6
CONTINUOUS
 10
3.131920
 20
3.205840
  0
SEQEND
  8
0
  0
SOLID
  8
0
 62
    15
 10
3.149080
 20
3.205400
 11
3.152600
 21
2.463560
 12
3.204080
 22
3.205400
 13
3.207600
 23
2.463560
  0
POLYLINE
  8
0
  6
CONTINUOUS
 66
     1
 40
0.000000
 41
0.000000
  0
VERTEX
  8
0
  6
CONTINUOUS
 10
3.149080
 20
3.205400
  0
VERTEX
  8
0
  6
CONTINUOUS
 10
3.152600
 20
2.463560
  0
VERTEX
  8
0
  6
CONTINUOUS
 10
3.207600
 20
2.463560
  0
VERTEX
  8
0
  6
CONTINUOUS
 10
3.204080
 20
3.205400
  0
VERTEX
  8
0
  6
CONTINUOUS
 10
3.149080
 20
3.205400
  0
SEQEND
  8
0
  0
SOLID
  8
0
 62
    15
 10
3.204080
 20
3.205400
 11
3.207600
 21
2.463560
 12
3.249400
 22
3.208040
 13
3.252920
 23
2.466200
  0
POLYLINE
  8
0
  6
CONTINUOUS
 66
     1
 40
0.000000
 41
0.000000
  0
VERTEX
  8
0
  6
CONTINUOUS
 10
3.204080
 20
3.205400
  0
VERTEX
  8
0
  6
CONTINUOUS
 10
3.207600
 20
2.463560
  0
VERTEX
  8
0
  6
CONTINUOUS
 10
3.252920
 20
2.466200
  0
VERTEX
  8
0
  6
CONTINUOUS
 10
3.249400
 20
3.208040
  0
VERTEX
  8
0
  6
CONTINUOUS
 10
3.204080
 20
3.205400
  0
SEQEND
  8
0
  0
SOLID
  8
0
 62
    15
 10
3.249400
 20
3.208040
 11
3.252920
 21
2.466200
 12
3.287240
 22
3.214200
 13
3.290320
 23
2.472360
  0
POLYLINE
  8
0
  6
CONTINUOUS
 66
     1
 40
0.000000
 41
0.000000
  0
VERTEX
  8
0
  6
CONTINUOUS
 10
3.249400
 20
3.208040
  0
VERTEX
  8
0
  6
CONTINUOUS
 10
3.252920
 20
2.466200
  0
VERTEX
  8
0
  6
CONTINUOUS
 10
3.290320
 20
2.472360
  0
VERTEX
  8
0
  6
CONTINUOUS
 10
3.287240
 20
3.214200
  0
VERTEX
  8
0
  6
CONTINUOUS
 10
3.249400
 20
3.208040
  0
SEQEND
  8
0
  0
SOLID
  8
0
 62
    15
 10
3.287240
 20
3.214200
 11
3.290320
 21
2.472360
 12
3.318920
 22
3.223880
 13
3.322440
 23
2.482040
  0
POLYLINE
  8
0
  6
CONTINUOUS
 66
     1
 40
0.000000
 41
0.000000
  0
VERTEX
  8
0
  6
CONTINUOUS
 10
3.287240
 20
3.214200
  0
VERTEX
  8
0
  6
CONTINUOUS
 10
3.290320
 20
2.472360
  0
VERTEX
  8
0
  6
CONTINUOUS
 10
3.322440
 20
2.482040
  0
VERTEX
  8
0
  6
CONTINUOUS
 10
3.318920
 20
3.223880
  0
VERTEX
  8
0
  6
CONTINUOUS
 10
3.287240
 20
3.214200
  0
SEQEND
  8
0
  0
SOLID
  8
0
 62
    15
 10
3.318920
 20
3.223880
 11
3.322440
 21
2.482040
 12
3.347080
 22
3.238400
 13
3.350600
 23
2.496560
  0
POLYLINE
  8
0
  6
CONTINUOUS
 66
     1
 40
0.000000
 41
0.000000
  0
VERTEX
  8
0
  6
CONTINUOUS
 10
3.318920
 20
3.223880
  0
VERTEX
  8
0
  6
CONTINUOUS
 10
3.322440
 20
2.482040
  0
VERTEX
  8
0
  6
CONTINUOUS
 10
3.350600
 20
2.496560
  0
VERTEX
  8
0
  6
CONTINUOUS
 10
3.347080
 20
3.238400
  0
VERTEX
  8
0
  6
CONTINUOUS
 10
3.318920
 20
3.223880
  0
SEQEND
  8
0
  0
SOLID
  8
0
 62
    15
 10
3.347080
 20
3.238400
 11
3.350600
 21
2.496560
 12
3.373920
 22
3.257320
 13
3.377000
 23
2.515480
  0
POLYLINE
  8
0
  6
CONTINUOUS
 66
     1
 40
0.000000
 41
0.000000
  0
VERTEX
  8
0
  6
CONTINUOUS
 10
3.347080
 20
3.238400
  0
VERTEX
  8
0
  6
CONTINUOUS
 10
3.350600
 20
2.496560
  0
VERTEX
  8
0
  6
CONTINUOUS
 10
3.377000
 20
2.515480
  0
VERTEX
  8
0
  6
CONTINUOUS
 10
3.373920
 20
3.257320
  0
VERTEX
  8
0
  6
CONTINUOUS
 10
3.347080
 20
3.238400
  0
SEQEND
  8
0
  0
SOLID
  8
0
 62
    15
 10
3.373920
 20
3.257320
 11
3.377000
 21
2.515480
 12
3.400760
 22
3.281960
 13
3.404280
 23
2.540120
  0
POLYLINE
  8
0
  6
CONTINUOUS
 66
     1
 40
0.000000
 41
0.000000
  0
VERTEX
  8
0
  6
CONTINUOUS
 10
3.373920
 20
3.257320
  0
VERTEX
  8
0
  6
CONTINUOUS
 10
3.377000
 20
2.515480
  0
VERTEX
  8
0
  6
CONTINUOUS
 10
3.404280
 20
2.540120
  0
VERTEX
  8
0
  6
CONTINUOUS
 10
3.400760
 20
3.281960
  0
VERTEX
  8
0
  6
CONTINUOUS
 10
3.373920
 20
3.257320
  0
SEQEND
  8
0
  0
SOLID
  8
0
 62
    15
 10
3.400760
 20
3.281960
 11
3.404280
 21
2.540120
 12
3.430680
 22
3.312320
 13
3.433760
 23
2.570040
  0
POLYLINE
  8
0
  6
CONTINUOUS
 66
     1
 40
0.000000
 41
0.000000
  0
VERTEX
  8
0
  6
CONTINUOUS
 10
3.400760
 20
3.281960
  0
VERTEX
  8
0
  6
CONTINUOUS
 10
3.404280
 20
2.540120
  0
VERTEX
  8
0
  6
CONTINUOUS
 10
3.433760
 20
2.570040
  0
VERTEX
  8
0
  6
CONTINUOUS
 10
3.430680
 20
3.312320
  0
VERTEX
  8
0
  6
CONTINUOUS
 10
3.400760
 20
3.281960
  0
SEQEND
  8
0
  0
SOLID
  8
0
 62
    15
 10
3.430680
 20
3.312320
 11
3.433760
 21
2.570040
 12
3.655520
 22
3.312320
 13
3.659040
 23
2.570480
  0
POLYLINE
  8
0
  6
CONTINUOUS
 66
     1
 40
0.000000
 41
0.000000
  0
VERTEX
  8
0
  6
CONTINUOUS
 10
3.430680
 20
3.312320
  0
VERTEX
  8
0
  6
CONTINUOUS
 10
3.433760
 20
2.570040
  0
VERTEX
  8
0
  6
CONTINUOUS
 10
3.659040
 20
2.570480
  0
VERTEX
  8
0
  6
CONTINUOUS
 10
3.655520
 20
3.312320
  0
VERTEX
  8
0
  6
CONTINUOUS
 10
3.430680
 20
3.312320
  0
SEQEND
  8
0
  0
SOLID
  8
0
 62
    15
 10
3.655520
 20
3.312320
 11
3.659040
 21
2.570480
 12
3.659040
 22
3.312320
 13
3.662120
 23
2.570480
  0
POLYLINE
  8
0
  6
CONTINUOUS
 66
     1
 40
0.000000
 41
0.000000
  0
VERTEX
  8
0
  6
CONTINUOUS
 10
3.655520
 20
3.312320
  0
VERTEX
  8
0
  6
CONTINUOUS
 10
3.659040
 20
2.570480
  0
VERTEX
  8
0
  6
CONTINUOUS
 10
3.662120
 20
2.570480
  0
VERTEX
  8
0
  6
CONTINUOUS
 10
3.659040
 20
3.312320
  0
VERTEX
  8
0
  6
CONTINUOUS
 10
3.655520
 20
3.312320
  0
SEQEND
  8
0
  0
SOLID
  8
0
 62
    15
 10
3.659040
 20
3.312320
 11
3.662120
 21
2.570480
 12
3.668280
 22
3.312760
 13
3.671360
 23
2.570920
  0
POLYLINE
  8
0
  6
CONTINUOUS
 66
     1
 40
0.000000
 41
0.000000
  0
VERTEX
  8
0
  6
CONTINUOUS
 10
3.659040
 20
3.312320
  0
VERTEX
  8
0
  6
CONTINUOUS
 10
3.662120
 20
2.570480
  0
VERTEX
  8
0
  6
CONTINUOUS
 10
3.671360
 20
2.570920
  0
VERTEX
  8
0
  6
CONTINUOUS
 10
3.668280
 20
3.312760
  0
VERTEX
  8
0
  6
CONTINUOUS
 10
3.659040
 20
3.312320
  0
SEQEND
  8
0
  0
SOLID
  8
0
 62
    15
 10
3.668280
 20
3.312760
 11
3.671360
 21
2.570920
 12
3.681480
 22
3.315400
 13
3.685000
 23
2.573560
  0
POLYLINE
  8
0
  6
CONTINUOUS
 66
     1
 40
0.000000
 41
0.000000
  0
VERTEX
  8
0
  6
CONTINUOUS
 10
3.668280
 20
3.312760
  0
VERTEX
  8
0
  6
CONTINUOUS
 10
3.671360
 20
2.570920
  0
VERTEX
  8
0
  6
CONTINUOUS
 10
3.685000
 20
2.573560
  0
VERTEX
  8
0
  6
CONTINUOUS
 10
3.681480
 20
3.315400
  0
VERTEX
  8
0
  6
CONTINUOUS
 10
3.668280
 20
3.312760
  0
SEQEND
  8
0
  0
SOLID
  8
0
 62
    15
 10
3.681480
 20
3.315400
 11
3.685000
 21
2.573560
 12
3.697320
 22
3.321120
 13
3.700840
 23
2.578840
  0
POLYLINE
  8
0
  6
CONTINUOUS
 66
     1
 40
0.000000
 41
0.000000
  0
VERTEX
  8
0
  6
CONTINUOUS
 10
3.681480
 20
3.315400
  0
VERTEX
  8
0
  6
CONTINUOUS
 10
3.685000
 20
2.573560
  0
VERTEX
  8
0
  6
CONTINUOUS
 10
3.700840
 20
2.578840
  0
VERTEX
  8
0
  6
CONTINUOUS
 10
3.697320
 20
3.321120
  0
VERTEX
  8
0
  6
CONTINUOUS
 10
3.681480
 20
3.315400
  0
SEQEND
  8
0
  0
SOLID
  8
0
 62
    15
 10
3.697320
 20
3.321120
 11
3.700840
 21
2.578840
 12
3.714040
 22
3.330800
 13
3.717120
 23
2.588960
  0
POLYLINE
  8
0
  6
CONTINUOUS
 66
     1
 40
0.000000
 41
0.000000
  0
VERTEX
  8
0
  6
CONTINUOUS
 10
3.697320
 20
3.321120
  0
VERTEX
  8
0
  6
CONTINUOUS
 10
3.700840
 20
2.578840
  0
VERTEX
  8
0
  6
CONTINUOUS
 10
3.717120
 20
2.588960
  0
VERTEX
  8
0
  6
CONTINUOUS
 10
3.714040
 20
3.330800
  0
VERTEX
  8
0
  6
CONTINUOUS
 10
3.697320
 20
3.321120
  0
SEQEND
  8
0
  0
SOLID
  8
0
 62
    15
 10
3.714040
 20
3.330800
 11
3.717120
 21
2.588960
 12
3.729880
 22
3.345760
 13
3.732960
 23
2.603920
  0
POLYLINE
  8
0
  6
CONTINUOUS
 66
     1
 40
0.000000
 41
0.000000
  0
VERTEX
  8
0
  6
CONTINUOUS
 10
3.714040
 20
3.330800
  0
VERTEX
  8
0
  6
CONTINUOUS
 10
3.717120
 20
2.588960
  0
VERTEX
  8
0
  6
CONTINUOUS
 10
3.732960
 20
2.603920
  0
VERTEX
  8
0
  6
CONTINUOUS
 10
3.729880
 20
3.345760
  0
VERTEX
  8
0
  6
CONTINUOUS
 10
3.714040
 20
3.330800
  0
SEQEND
  8
0
  0
SOLID
  8
0
 62
    15
 10
3.729880
 20
3.345760
 11
3.732960
 21
2.603920
 12
3.743080
 22
3.367760
 13
3.746160
 23
2.625920
  0
POLYLINE
  8
0
  6
CONTINUOUS
 66
     1
 40
0.000000
 41
0.000000
  0
VERTEX
  8
0
  6
CONTINUOUS
 10
3.729880
 20
3.345760
  0
VERTEX
  8
0
  6
CONTINUOUS
 10
3.732960
 20
2.603920
  0
VERTEX
  8
0
  6
CONTINUOUS
 10
3.746160
 20
2.625920
  0
VERTEX
  8
0
  6
CONTINUOUS
 10
3.743080
 20
3.367760
  0
VERTEX
  8
0
  6
CONTINUOUS
 10
3.729880
 20
3.345760
  0
SEQEND
  8
0
  0
SOLID
  8
0
 62
    15
 10
3.752320
 20
3.397680
 11
3.755840
 21
2.655400
 12
3.752320
 22
3.554320
 13
3.755840
 23
2.812040
  0
POLYLINE
  8
0
  6
CONTINUOUS
 66
     1
 40
0.000000
 41
0.000000
  0
VERTEX
  8
0
  6
CONTINUOUS
 10
3.752320
 20
3.397680
  0
VERTEX
  8
0
  6
CONTINUOUS
 10
3.755840
 20
2.655400
  0
VERTEX
  8
0
  6
CONTINUOUS
 10
3.755840
 20
2.812040
  0
VERTEX
  8
0
  6
CONTINUOUS
 10
3.752320
 20
3.554320
  0
VERTEX
  8
0
  6
CONTINUOUS
 10
3.752320
 20
3.397680
  0
SEQEND
  8
0
  0
SOLID
  8
0
 62
    15
 10
3.743080
 20
3.367760
 11
3.746160
 21
2.625920
 12
3.752320
 22
3.397680
 13
3.755840
 23
2.655400
  0
POLYLINE
  8
0
  6
CONTINUOUS
 66
     1
 40
0.000000
 41
0.000000
  0
VERTEX
  8
0
  6
CONTINUOUS
 10
3.743080
 20
3.367760
  0
VERTEX
  8
0
  6
CONTINUOUS
 10
3.746160
 20
2.625920
  0
VERTEX
  8
0
  6
CONTINUOUS
 10
3.755840
 20
2.655400
  0
VERTEX
  8
0
  6
CONTINUOUS
 10
3.752320
 20
3.397680
  0
VERTEX
  8
0
  6
CONTINUOUS
 10
3.743080
 20
3.367760
  0
SEQEND
  8
0
  0
SOLID
  8
0
 62
    15
 10
3.751880
 20
3.554320
 11
3.755400
 21
2.812040
 12
3.752320
 22
3.554320
 13
3.755840
 23
2.812040
  0
POLYLINE
  8
0
  6
CONTINUOUS
 66
     1
 40
0.000000
 41
0.000000
  0
VERTEX
  8
0
  6
CONTINUOUS
 10
3.751880
 20
3.554320
  0
VERTEX
  8
0
  6
CONTINUOUS
 10
3.755400
 20
2.812040
  0
VERTEX
  8
0
  6
CONTINUOUS
 10
3.755840
 20
2.812040
  0
VERTEX
  8
0
  6
CONTINUOUS
 10
3.752320
 20
3.554320
  0
VERTEX
  8
0
  6
CONTINUOUS
 10
3.751880
 20
3.554320
  0
SEQEND
  8
0
  0
POLYLINE
  8
0
  6
CONTINUOUS
 66
     1
 40
0.000000
 41
0.000000
  0
VERTEX
  8
0
  6
CONTINUOUS
 10
3.752320
 20
3.554320
  0
VERTEX
  8
0
  6
CONTINUOUS
 10
3.752320
 20
3.579400
  0
VERTEX
  8
0
  6
CONTINUOUS
 10
1.002320
 20
3.579400
  0
VERTEX
  8
0
  6
CONTINUOUS
 10
1.002320
 20
2.829640
  0
VERTEX
  8
0
  6
CONTINUOUS
 10
1.325720
 20
2.829640
  0
VERTEX
  8
0
  6
CONTINUOUS
 10
1.353440
 20
2.835800
  0
VERTEX
  8
0
  6
CONTINUOUS
 10
1.381600
 20
2.852960
  0
VERTEX
  8
0
  6
CONTINUOUS
 10
1.469160
 20
2.933040
  0
VERTEX
  8
0
  6
CONTINUOUS
 10
1.499960
 20
2.957240
  0
VERTEX
  8
0
  6
CONTINUOUS
 10
1.531640
 20
2.974400
  0
VERTEX
  8
0
  6
CONTINUOUS
 10
1.564200
 20
2.981000
  0
VERTEX
  8
0
  6
CONTINUOUS
 10
2.677840
 20
2.981000
  0
VERTEX
  8
0
  6
CONTINUOUS
 10
2.692360
 20
2.982760
  0
VERTEX
  8
0
  6
CONTINUOUS
 10
2.705560
 20
2.988040
  0
VERTEX
  8
0
  6
CONTINUOUS
 10
2.729760
 20
3.007400
  0
VERTEX
  8
0
  6
CONTINUOUS
 10
2.779040
 20
3.069000
  0
VERTEX
  8
0
  6
CONTINUOUS
 10
2.809840
 20
3.105080
  0
VERTEX
  8
0
  6
CONTINUOUS
 10
2.849000
 20
3.140280
  0
VERTEX
  8
0
  6
CONTINUOUS
 10
2.872320
 20
3.156560
  0
VERTEX
  8
0
  6
CONTINUOUS
 10
2.898720
 20
3.171080
  0
VERTEX
  8
0
  6
CONTINUOUS
 10
2.929080
 20
3.183840
  0
VERTEX
  8
0
  6
CONTINUOUS
 10
2.962960
 20
3.194840
  0
VERTEX
  8
0
  6
CONTINUOUS
 10
3.014880
 20
3.204080
  0
VERTEX
  8
0
  6
CONTINUOUS
 10
3.065920
 20
3.207160
  0
VERTEX
  8
0
  6
CONTINUOUS
 10
3.149080
 20
3.205400
  0
VERTEX
  8
0
  6
CONTINUOUS
 10
3.204080
 20
3.205400
  0
VERTEX
  8
0
  6
CONTINUOUS
 10
3.249400
 20
3.208040
  0
VERTEX
  8
0
  6
CONTINUOUS
 10
3.287240
 20
3.214200
  0
VERTEX
  8
0
  6
CONTINUOUS
 10
3.318920
 20
3.223880
  0
VERTEX
  8
0
  6
CONTINUOUS
 10
3.347080
 20
3.238400
  0
VERTEX
  8
0
  6
CONTINUOUS
 10
3.373920
 20
3.257320
  0
VERTEX
  8
0
  6
CONTINUOUS
 10
3.400760
 20
3.281960
  0
VERTEX
  8
0
  6
CONTINUOUS
 10
3.430680
 20
3.312320
  0
VERTEX
  8
0
  6
CONTINUOUS
 10
3.668280
 20
3.312760
  0
VERTEX
  8
0
  6
CONTINUOUS
 10
3.681480
 20
3.315400
  0
VERTEX
  8
0
  6
CONTINUOUS
 10
3.697320
 20
3.321120
  0
VERTEX
  8
0
  6
CONTINUOUS
 10
3.714040
 20
3.330800
  0
VERTEX
  8
0
  6
CONTINUOUS
 10
3.729880
 20
3.345760
  0
VERTEX
  8
0
  6
CONTINUOUS
 10
3.743080
 20
3.367760
  0
VERTEX
  8
0
  6
CONTINUOUS
 10
3.752320
 20
3.397680
  0
VERTEX
  8
0
  6
CONTINUOUS
 10
3.751880
 20
3.554320
  0
VERTEX
  8
0
  6
CONTINUOUS
 10
3.752320
 20
3.554320
  0
SEQEND
  8
0
  0
TEXT
  8
0
 10
1.806640
 20
3.311440
 40
0.138064
  1
BA  994
 41
1.000000
  7
SN0
 71
     0
 72
     5
 11
2.396557
 21
3.311440
  0
TEXT
  8
0
 10
1.650880
 20
3.119600
 40
0.138064
  1
3/4" x 2-3/4"
 41
1.000000
  7
SN0
 71
     0
 72
     5
 11
2.551317
 21
3.119600
  0
TEXT
  8
0
 10
2.389200
 20
0.980320
 40
0.138064
  1
BA  995
 41
1.000000
  7
SN0
 71
     0
 72
     5
 11
2.979117
 21
0.980320
  0
TEXT
  8
0
 10
2.113320
 20
0.788920
 40
0.138064
  1
1-1/4" x 3-3/16"
 41
1.000000
  7
SN0
 71
     0
 72
     5
 11
3.253444
 21
0.788920
  0
ENDSEC
  0
EOF
