  0
SECTION
  2
HEADER
  9
$ACADVER
  1
AC1006
  9
$EXTMIN
 10
1.112320
 20
0.455400
  9
$EXTMAX
 10
7.392000
 20
7.293880
  9
$LTSCALE
 40
0.044000
  9
$PDMODE
 70
    35
  9
$PDSIZE
 40
0.035200
  0
ENDSEC
  0
SECTION
  2
TABLES
  0
TABLE
  2
LTYPE
 70
     9
  0
LTYPE
  2
CONTINUOUS
 70
    64
  3
Solid line
 72
    65
 73
     0
 40
0.000000
  0
LTYPE
  2
DASHED
 70
    64
  3
__ __ __ __ __ __ __ __ __ __ __ __ __ __ __
 72
    65
 73
     2
 40
0.000330
 49
0.000220
 49
-0.000110
  0
LTYPE
  2
HIDDEN
 70
    64
  3
 _ _ _ _ _ _ _ _ _ _ _ _ _ _ _ _ _ _ _ _ _ _
 72
    65
 73
     2
 40
0.000165
 49
0.000110
 49
-0.000055
  0
LTYPE
  2
CENTER
 70
    64
  3
____ _ ____ _ ____ _ ____ _ ____ _ ____ _ ____
 72
    65
 73
     4
 40
0.000880
 49
0.000550
 49
-0.000110
 49
0.000110
 49
-0.000110
  0
LTYPE
  2
PHANTOM
 70
    64
  3
_____ _ _ _____ _ _ _____ _ _ _____ _ _ ____
 72
    65
 73
     6
 40
0.001100
 49
0.000550
 49
-0.000110
 49
0.000110
 49
-0.000110
 49
0.000110
 49
-0.000110
  0
LTYPE
  2
DOT
 70
    64
  3
...............................................
 72
    65
 73
     2
 40
0.000110
 49
0.000000
 49
-0.000110
  0
LTYPE
  2
DASHDOT
 70
    64
  3
__ . __ . __ . __ . __ . __ . __ . __ . __ . __
 72
    65
 73
     4
 40
0.000440
 49
0.000220
 49
-0.000110
 49
0.000000
 49
-0.000110
  0
LTYPE
  2
BORDER
 70
    64
  3
__ __ . __ __ . __ __ . __ __ . __ __ . __ __
 72
    65
 73
     6
 40
0.000770
 49
0.000220
 49
-0.000110
 49
0.000220
 49
-0.000110
 49
0.000000
 49
-0.000110
  0
LTYPE
  2
DIVIDE
 70
    64
  3
__ . . __ . . __ . . __ . . __ . . __ . . __
 72
    65
 73
     6
 40
0.000550
 49
0.000220
 49
-0.000110
 49
0.000000
 49
-0.000110
 49
0.000000
 49
-0.000110
  0
LTYPE
  2
DOTDOT
 70
    64
  3
 . .  . .  . .  . .  . .  . . 
 72
    65
 73
     5
 40
0.000242
 49
-0.000110
 49
0.000000
 49
-0.000110
 49
0.000000
 49
-0.000110
  0
ENDTAB
  0
TABLE
  2
STYLE
 70
     2
  0
STYLE
 70
     0
  2
SN0
 40
0.000000
 41
0.000440
 50
0.000000
 71
     0
 42
0.000000
  3
ROMAND
  0
STYLE
 70
    68
  2
SV0
 40
0.000000
 41
0.000440
 50
0.000000
 71
     0
 42
0.000000
  3
ROMAND
  0
ENDTAB
  0
TABLE
  2
LAYER
 70
     3
  0
LAYER
  2
FOREGROUND
 70
    64
 62
     7
  6
CONTINUOUS
  0
LAYER
  2
BACKGROUND
 70
    65
 62
    -7
  6
CONTINUOUS
  0
LAYER
  2
0
 70
    64
 62
     7
  6
CONTINUOUS
  0
ENDTAB
  0
ENDSEC
  0
SECTION
  2
ENTITIES
  0
POLYLINE
  8
FOREGROUND
  6
CONTINUOUS
 66
     1
 40
0.000000
 41
0.000000
  0
VERTEX
  8
FOREGROUND
  6
CONTINUOUS
 10
0.000000
 20
7.749280
  0
VERTEX
  8
FOREGROUND
  6
CONTINUOUS
 10
8.499920
 20
7.749280
  0
VERTEX
  8
FOREGROUND
  6
CONTINUOUS
 10
8.499920
 20
-3.250720
  0
VERTEX
  8
FOREGROUND
  6
CONTINUOUS
 10
0.000000
 20
-3.250720
  0
VERTEX
  8
FOREGROUND
  6
CONTINUOUS
 10
0.000000
 20
7.749280
  0
SEQEND
  8
0
  0
POLYLINE
  8
FOREGROUND
  6
CONTINUOUS
 66
     1
 40
0.000000
 41
0.000000
  0
VERTEX
  8
FOREGROUND
  6
CONTINUOUS
 10
0.000000
 20
7.749280
  0
VERTEX
  8
FOREGROUND
  6
CONTINUOUS
 10
8.499920
 20
7.749280
  0
VERTEX
  8
FOREGROUND
  6
CONTINUOUS
 10
8.499920
 20
-3.250720
  0
VERTEX
  8
FOREGROUND
  6
CONTINUOUS
 10
0.000000
 20
-3.250720
  0
VERTEX
  8
FOREGROUND
  6
CONTINUOUS
 10
0.000000
 20
7.749280
  0
SEQEND
  8
0
  0
SOLID
  8
0
 62
    15
 10
6.268240
 20
2.695440
 11
6.911960
 21
3.069000
 12
6.241840
 22
2.607440
 13
6.886000
 23
2.981000
  0
POLYLINE
  8
0
  6
CONTINUOUS
 66
     1
 40
0.000000
 41
0.000000
  0
VERTEX
  8
0
  6
CONTINUOUS
 10
6.268240
 20
2.695440
  0
VERTEX
  8
0
  6
CONTINUOUS
 10
6.911960
 20
3.069000
  0
VERTEX
  8
0
  6
CONTINUOUS
 10
6.886000
 20
2.981000
  0
VERTEX
  8
0
  6
CONTINUOUS
 10
6.241840
 20
2.607440
  0
VERTEX
  8
0
  6
CONTINUOUS
 10
6.268240
 20
2.695440
  0
SEQEND
  8
0
  0
SOLID
  8
0
 62
    15
 10
6.440720
 20
2.909720
 11
7.084880
 21
3.282840
 12
6.368560
 22
2.849000
 13
7.012280
 23
3.222120
  0
POLYLINE
  8
0
  6
CONTINUOUS
 66
     1
 40
0.000000
 41
0.000000
  0
VERTEX
  8
0
  6
CONTINUOUS
 10
6.440720
 20
2.909720
  0
VERTEX
  8
0
  6
CONTINUOUS
 10
7.084880
 20
3.282840
  0
VERTEX
  8
0
  6
CONTINUOUS
 10
7.012280
 20
3.222120
  0
VERTEX
  8
0
  6
CONTINUOUS
 10
6.368560
 20
2.849000
  0
VERTEX
  8
0
  6
CONTINUOUS
 10
6.440720
 20
2.909720
  0
SEQEND
  8
0
  0
SOLID
  8
0
 62
    15
 10
6.310480
 20
2.776840
 11
6.954640
 21
3.150400
 12
6.268240
 22
2.695440
 13
6.911960
 23
3.069000
  0
POLYLINE
  8
0
  6
CONTINUOUS
 66
     1
 40
0.000000
 41
0.000000
  0
VERTEX
  8
0
  6
CONTINUOUS
 10
6.310480
 20
2.776840
  0
VERTEX
  8
0
  6
CONTINUOUS
 10
6.954640
 20
3.150400
  0
VERTEX
  8
0
  6
CONTINUOUS
 10
6.911960
 20
3.069000
  0
VERTEX
  8
0
  6
CONTINUOUS
 10
6.268240
 20
2.695440
  0
VERTEX
  8
0
  6
CONTINUOUS
 10
6.310480
 20
2.776840
  0
SEQEND
  8
0
  0
SOLID
  8
0
 62
    15
 10
6.368560
 20
2.849000
 11
7.012280
 21
3.222120
 12
6.310480
 22
2.776840
 13
6.954640
 23
3.150400
  0
POLYLINE
  8
0
  6
CONTINUOUS
 66
     1
 40
0.000000
 41
0.000000
  0
VERTEX
  8
0
  6
CONTINUOUS
 10
6.368560
 20
2.849000
  0
VERTEX
  8
0
  6
CONTINUOUS
 10
7.012280
 20
3.222120
  0
VERTEX
  8
0
  6
CONTINUOUS
 10
6.954640
 20
3.150400
  0
VERTEX
  8
0
  6
CONTINUOUS
 10
6.310480
 20
2.776840
  0
VERTEX
  8
0
  6
CONTINUOUS
 10
6.368560
 20
2.849000
  0
SEQEND
  8
0
  0
SOLID
  8
0
 62
    15
 10
6.735080
 20
3.478200
 11
7.378800
 21
3.851760
 12
6.735080
 22
3.000800
 13
7.378800
 23
3.373920
  0
POLYLINE
  8
0
  6
CONTINUOUS
 66
     1
 40
0.000000
 41
0.000000
  0
VERTEX
  8
0
  6
CONTINUOUS
 10
6.735080
 20
3.478200
  0
VERTEX
  8
0
  6
CONTINUOUS
 10
7.378800
 20
3.851760
  0
VERTEX
  8
0
  6
CONTINUOUS
 10
7.378800
 20
3.373920
  0
VERTEX
  8
0
  6
CONTINUOUS
 10
6.735080
 20
3.000800
  0
VERTEX
  8
0
  6
CONTINUOUS
 10
6.735080
 20
3.478200
  0
SEQEND
  8
0
  0
SOLID
  8
0
 62
    15
 10
3.933600
 20
3.703920
 11
4.577760
 21
4.077040
 12
6.735080
 22
3.478200
 13
7.378800
 23
3.851760
  0
POLYLINE
  8
0
  6
CONTINUOUS
 66
     1
 40
0.000000
 41
0.000000
  0
VERTEX
  8
0
  6
CONTINUOUS
 10
3.933600
 20
3.703920
  0
VERTEX
  8
0
  6
CONTINUOUS
 10
4.577760
 20
4.077040
  0
VERTEX
  8
0
  6
CONTINUOUS
 10
7.378800
 20
3.851760
  0
VERTEX
  8
0
  6
CONTINUOUS
 10
6.735080
 20
3.478200
  0
VERTEX
  8
0
  6
CONTINUOUS
 10
3.933600
 20
3.703920
  0
SEQEND
  8
0
  0
SOLID
  8
0
 62
    15
 10
6.241840
 20
2.607440
 11
6.886000
 21
2.981000
 12
6.233040
 22
2.515040
 13
6.876760
 23
2.888160
  0
POLYLINE
  8
0
  6
CONTINUOUS
 66
     1
 40
0.000000
 41
0.000000
  0
VERTEX
  8
0
  6
CONTINUOUS
 10
6.241840
 20
2.607440
  0
VERTEX
  8
0
  6
CONTINUOUS
 10
6.886000
 20
2.981000
  0
VERTEX
  8
0
  6
CONTINUOUS
 10
6.876760
 20
2.888160
  0
VERTEX
  8
0
  6
CONTINUOUS
 10
6.233040
 20
2.515040
  0
VERTEX
  8
0
  6
CONTINUOUS
 10
6.241840
 20
2.607440
  0
SEQEND
  8
0
  0
SOLID
  8
0
 62
    15
 10
6.233040
 20
2.515040
 11
6.876760
 21
2.888160
 12
6.237000
 22
0.951280
 13
6.881160
 23
1.324400
  0
POLYLINE
  8
0
  6
CONTINUOUS
 66
     1
 40
0.000000
 41
0.000000
  0
VERTEX
  8
0
  6
CONTINUOUS
 10
6.233040
 20
2.515040
  0
VERTEX
  8
0
  6
CONTINUOUS
 10
6.876760
 20
2.888160
  0
VERTEX
  8
0
  6
CONTINUOUS
 10
6.881160
 20
1.324400
  0
VERTEX
  8
0
  6
CONTINUOUS
 10
6.237000
 20
0.951280
  0
VERTEX
  8
0
  6
CONTINUOUS
 10
6.233040
 20
2.515040
  0
SEQEND
  8
0
  0
SOLID
  8
0
 62
    15
 10
1.112760
 20
3.482600
 11
1.756920
 21
3.855720
 12
3.914240
 22
3.707880
 13
4.557960
 23
4.081440
  0
POLYLINE
  8
0
  6
CONTINUOUS
 66
     1
 40
0.000000
 41
0.000000
  0
VERTEX
  8
0
  6
CONTINUOUS
 10
1.112760
 20
3.482600
  0
VERTEX
  8
0
  6
CONTINUOUS
 10
1.756920
 20
3.855720
  0
VERTEX
  8
0
  6
CONTINUOUS
 10
4.557960
 20
4.081440
  0
VERTEX
  8
0
  6
CONTINUOUS
 10
3.914240
 20
3.707880
  0
VERTEX
  8
0
  6
CONTINUOUS
 10
1.112760
 20
3.482600
  0
SEQEND
  8
0
  0
SOLID
  8
0
 62
    15
 10
3.914240
 20
3.707880
 11
4.557960
 21
4.081440
 12
3.933600
 22
3.703920
 13
4.577760
 23
4.077040
  0
POLYLINE
  8
0
  6
CONTINUOUS
 66
     1
 40
0.000000
 41
0.000000
  0
VERTEX
  8
0
  6
CONTINUOUS
 10
3.914240
 20
3.707880
  0
VERTEX
  8
0
  6
CONTINUOUS
 10
4.557960
 20
4.081440
  0
VERTEX
  8
0
  6
CONTINUOUS
 10
4.577760
 20
4.077040
  0
VERTEX
  8
0
  6
CONTINUOUS
 10
3.933600
 20
3.703920
  0
VERTEX
  8
0
  6
CONTINUOUS
 10
3.914240
 20
3.707880
  0
SEQEND
  8
0
  0
POLYLINE
  8
0
  6
CONTINUOUS
 66
     1
 40
0.000000
 41
0.000000
  0
VERTEX
  8
0
  6
CONTINUOUS
 10
3.933600
 20
3.703920
  0
VERTEX
  8
0
  6
CONTINUOUS
 10
6.735080
 20
3.478200
  0
VERTEX
  8
0
  6
CONTINUOUS
 10
6.735080
 20
3.000800
  0
VERTEX
  8
0
  6
CONTINUOUS
 10
6.625080
 20
2.988040
  0
VERTEX
  8
0
  6
CONTINUOUS
 10
6.526520
 20
2.956800
  0
VERTEX
  8
0
  6
CONTINUOUS
 10
6.440720
 20
2.909720
  0
VERTEX
  8
0
  6
CONTINUOUS
 10
6.368560
 20
2.849000
  0
VERTEX
  8
0
  6
CONTINUOUS
 10
6.310480
 20
2.776840
  0
VERTEX
  8
0
  6
CONTINUOUS
 10
6.268240
 20
2.695440
  0
VERTEX
  8
0
  6
CONTINUOUS
 10
6.241840
 20
2.607440
  0
VERTEX
  8
0
  6
CONTINUOUS
 10
6.233040
 20
2.515040
  0
VERTEX
  8
0
  6
CONTINUOUS
 10
6.237000
 20
0.951280
  0
VERTEX
  8
0
  6
CONTINUOUS
 10
1.617440
 20
0.957440
  0
VERTEX
  8
0
  6
CONTINUOUS
 10
1.614800
 20
2.519440
  0
VERTEX
  8
0
  6
CONTINUOUS
 10
1.606000
 20
2.611840
  0
VERTEX
  8
0
  6
CONTINUOUS
 10
1.579600
 20
2.699840
  0
VERTEX
  8
0
  6
CONTINUOUS
 10
1.536920
 20
2.781240
  0
VERTEX
  8
0
  6
CONTINUOUS
 10
1.479280
 20
2.853400
  0
VERTEX
  8
0
  6
CONTINUOUS
 10
1.406680
 20
2.914120
  0
VERTEX
  8
0
  6
CONTINUOUS
 10
1.321320
 20
2.960760
  0
VERTEX
  8
0
  6
CONTINUOUS
 10
1.222760
 20
2.992000
  0
VERTEX
  8
0
  6
CONTINUOUS
 10
1.112760
 20
3.004760
  0
VERTEX
  8
0
  6
CONTINUOUS
 10
1.112760
 20
3.482600
  0
VERTEX
  8
0
  6
CONTINUOUS
 10
3.914240
 20
3.707880
  0
VERTEX
  8
0
  6
CONTINUOUS
 10
3.933600
 20
3.703920
  0
SEQEND
  8
0
  0
TEXT
  8
0
 10
3.255560
 20
0.693880
 40
0.138228
  1
BA  993 2-3/4" x 5-5/8"
 41
1.000000
  7
SN0
 71
     0
 72
     5
 11
4.939878
 21
0.693880
  0
TEXT
  8
0
 10
3.255560
 20
0.502040
 40
0.138228
  1
BA  562 Top 
 41
1.000000
  7
SN0
 71
     0
 72
     5
 11
4.223547
 21
0.502040
  0
POLYLINE
  8
0
  6
CONTINUOUS
 66
     1
 40
0.014080
 41
0.014080
  0
VERTEX
  8
0
  6
CONTINUOUS
 10
4.563680
 20
7.286400
  0
VERTEX
  8
0
  6
CONTINUOUS
 10
1.762640
 20
7.061120
  0
VERTEX
  8
0
  6
CONTINUOUS
 10
1.762640
 20
6.583280
  0
VERTEX
  8
0
  6
CONTINUOUS
 10
1.818960
 20
6.579320
  0
VERTEX
  8
0
  6
CONTINUOUS
 10
1.872640
 20
6.570520
  0
VERTEX
  8
0
  6
CONTINUOUS
 10
1.923240
 20
6.556880
  0
VERTEX
  8
0
  6
CONTINUOUS
 10
1.970760
 20
6.539280
  0
VERTEX
  8
0
  6
CONTINUOUS
 10
1.993640
 20
6.529160
  0
VERTEX
  8
0
  6
CONTINUOUS
 10
2.036320
 20
6.505400
  0
VERTEX
  8
0
  6
CONTINUOUS
 10
2.075920
 20
6.478560
  0
VERTEX
  8
0
  6
CONTINUOUS
 10
2.112440
 20
6.447760
  0
VERTEX
  8
0
  6
CONTINUOUS
 10
2.145000
 20
6.414760
  0
VERTEX
  8
0
  6
CONTINUOUS
 10
2.174040
 20
6.378680
  0
VERTEX
  8
0
  6
CONTINUOUS
 10
2.199120
 20
6.339960
  0
VERTEX
  8
0
  6
CONTINUOUS
 10
2.220240
 20
6.299480
  0
VERTEX
  8
0
  6
CONTINUOUS
 10
2.237400
 20
6.256800
  0
VERTEX
  8
0
  6
CONTINUOUS
 10
2.244880
 20
6.234800
  0
VERTEX
  8
0
  6
CONTINUOUS
 10
2.255880
 20
6.190360
  0
VERTEX
  8
0
  6
CONTINUOUS
 10
2.262480
 20
6.144160
  0
VERTEX
  8
0
  6
CONTINUOUS
 10
2.264680
 20
6.097520
  0
VERTEX
  8
0
  6
CONTINUOUS
 10
2.267320
 20
4.535520
  0
VERTEX
  8
0
  6
CONTINUOUS
 10
6.886880
 20
4.529800
  0
VERTEX
  8
0
  6
CONTINUOUS
 10
6.882480
 20
6.093560
  0
VERTEX
  8
0
  6
CONTINUOUS
 10
6.884680
 20
6.140200
  0
VERTEX
  8
0
  6
CONTINUOUS
 10
6.891280
 20
6.185960
  0
VERTEX
  8
0
  6
CONTINUOUS
 10
6.902280
 20
6.230840
  0
VERTEX
  8
0
  6
CONTINUOUS
 10
6.917680
 20
6.273960
  0
VERTEX
  8
0
  6
CONTINUOUS
 10
6.937040
 20
6.315760
  0
VERTEX
  8
0
  6
CONTINUOUS
 10
6.960360
 20
6.355360
  0
VERTEX
  8
0
  6
CONTINUOUS
 10
6.987200
 20
6.392760
  0
VERTEX
  8
0
  6
CONTINUOUS
 10
7.018000
 20
6.427080
  0
VERTEX
  8
0
  6
CONTINUOUS
 10
7.034720
 20
6.443800
  0
VERTEX
  8
0
  6
CONTINUOUS
 10
7.071240
 20
6.474160
  0
VERTEX
  8
0
  6
CONTINUOUS
 10
7.110840
 20
6.501000
  0
VERTEX
  8
0
  6
CONTINUOUS
 10
7.153520
 20
6.524760
  0
VERTEX
  8
0
  6
CONTINUOUS
 10
7.199720
 20
6.544120
  0
VERTEX
  8
0
  6
CONTINUOUS
 10
7.249000
 20
6.559960
  0
VERTEX
  8
0
  6
CONTINUOUS
 10
7.300920
 20
6.570960
  0
VERTEX
  8
0
  6
CONTINUOUS
 10
7.355920
 20
6.577560
  0
VERTEX
  8
0
  6
CONTINUOUS
 10
7.384520
 20
6.578880
  0
VERTEX
  8
0
  6
CONTINUOUS
 10
7.384520
 20
7.056720
  0
VERTEX
  8
0
  6
CONTINUOUS
 10
4.583480
 20
7.282000
  0
VERTEX
  8
0
  6
CONTINUOUS
 10
4.563680
 20
7.286400
  0
SEQEND
  8
0
  0
TEXT
  8
0
 10
3.583360
 20
4.914360
 40
0.138228
  1
BA  993 2-3/4" x 5-5/8"
 41
1.000000
  7
SN0
 71
     0
 72
     5
 11
5.267678
 21
4.914360
  0
TEXT
  8
0
 10
3.583360
 20
4.722960
 40
0.138228
  1
BA  562 Top 
 41
1.000000
  7
SN0
 71
     0
 72
     5
 11
4.551347
 21
4.722960
  0
ENDSEC
  0
EOF
