  0
SECTION
  2
HEADER
  9
$ACADVER
  1
AC1006
  9
$EXTMIN
 10
1.275560
 20
0.332640
  9
$EXTMAX
 10
7.538520
 20
7.003040
  9
$LTSCALE
 40
0.044000
  9
$PDMODE
 70
    35
  9
$PDSIZE
 40
0.035200
  0
ENDSEC
  0
SECTION
  2
TABLES
  0
TABLE
  2
LTYPE
 70
     9
  0
LTYPE
  2
CONTINUOUS
 70
    64
  3
Solid line
 72
    65
 73
     0
 40
0.000000
  0
LTYPE
  2
DASHED
 70
    64
  3
__ __ __ __ __ __ __ __ __ __ __ __ __ __ __
 72
    65
 73
     2
 40
0.000330
 49
0.000220
 49
-0.000110
  0
LTYPE
  2
HIDDEN
 70
    64
  3
 _ _ _ _ _ _ _ _ _ _ _ _ _ _ _ _ _ _ _ _ _ _
 72
    65
 73
     2
 40
0.000165
 49
0.000110
 49
-0.000055
  0
LTYPE
  2
CENTER
 70
    64
  3
____ _ ____ _ ____ _ ____ _ ____ _ ____ _ ____
 72
    65
 73
     4
 40
0.000880
 49
0.000550
 49
-0.000110
 49
0.000110
 49
-0.000110
  0
LTYPE
  2
PHANTOM
 70
    64
  3
_____ _ _ _____ _ _ _____ _ _ _____ _ _ ____
 72
    65
 73
     6
 40
0.001100
 49
0.000550
 49
-0.000110
 49
0.000110
 49
-0.000110
 49
0.000110
 49
-0.000110
  0
LTYPE
  2
DOT
 70
    64
  3
...............................................
 72
    65
 73
     2
 40
0.000110
 49
0.000000
 49
-0.000110
  0
LTYPE
  2
DASHDOT
 70
    64
  3
__ . __ . __ . __ . __ . __ . __ . __ . __ . __
 72
    65
 73
     4
 40
0.000440
 49
0.000220
 49
-0.000110
 49
0.000000
 49
-0.000110
  0
LTYPE
  2
BORDER
 70
    64
  3
__ __ . __ __ . __ __ . __ __ . __ __ . __ __
 72
    65
 73
     6
 40
0.000770
 49
0.000220
 49
-0.000110
 49
0.000220
 49
-0.000110
 49
0.000000
 49
-0.000110
  0
LTYPE
  2
DIVIDE
 70
    64
  3
__ . . __ . . __ . . __ . . __ . . __ . . __
 72
    65
 73
     6
 40
0.000550
 49
0.000220
 49
-0.000110
 49
0.000000
 49
-0.000110
 49
0.000000
 49
-0.000110
  0
LTYPE
  2
DOTDOT
 70
    64
  3
 . .  . .  . .  . .  . .  . . 
 72
    65
 73
     5
 40
0.000242
 49
-0.000110
 49
0.000000
 49
-0.000110
 49
0.000000
 49
-0.000110
  0
ENDTAB
  0
TABLE
  2
STYLE
 70
     2
  0
STYLE
 70
     0
  2
SN0
 40
0.000000
 41
0.000440
 50
0.000000
 71
     0
 42
0.000000
  3
ROMAND
  0
STYLE
 70
    68
  2
SV0
 40
0.000000
 41
0.000440
 50
0.000000
 71
     0
 42
0.000000
  3
ROMAND
  0
ENDTAB
  0
TABLE
  2
LAYER
 70
     3
  0
LAYER
  2
FOREGROUND
 70
    64
 62
     7
  6
CONTINUOUS
  0
LAYER
  2
BACKGROUND
 70
    65
 62
    -7
  6
CONTINUOUS
  0
LAYER
  2
0
 70
    64
 62
     7
  6
CONTINUOUS
  0
ENDTAB
  0
ENDSEC
  0
SECTION
  2
ENTITIES
  0
POLYLINE
  8
FOREGROUND
  6
CONTINUOUS
 66
     1
 40
0.000000
 41
0.000000
  0
VERTEX
  8
FOREGROUND
  6
CONTINUOUS
 10
0.000000
 20
7.335680
  0
VERTEX
  8
FOREGROUND
  6
CONTINUOUS
 10
8.499920
 20
7.335680
  0
VERTEX
  8
FOREGROUND
  6
CONTINUOUS
 10
8.499920
 20
-3.664320
  0
VERTEX
  8
FOREGROUND
  6
CONTINUOUS
 10
0.000000
 20
-3.664320
  0
VERTEX
  8
FOREGROUND
  6
CONTINUOUS
 10
0.000000
 20
7.335680
  0
SEQEND
  8
0
  0
POLYLINE
  8
FOREGROUND
  6
CONTINUOUS
 66
     1
 40
0.000000
 41
0.000000
  0
VERTEX
  8
FOREGROUND
  6
CONTINUOUS
 10
0.000000
 20
7.335680
  0
VERTEX
  8
FOREGROUND
  6
CONTINUOUS
 10
8.499920
 20
7.335680
  0
VERTEX
  8
FOREGROUND
  6
CONTINUOUS
 10
8.499920
 20
-3.664320
  0
VERTEX
  8
FOREGROUND
  6
CONTINUOUS
 10
0.000000
 20
-3.664320
  0
VERTEX
  8
FOREGROUND
  6
CONTINUOUS
 10
0.000000
 20
7.335680
  0
SEQEND
  8
0
  0
SOLID
  8
0
 62
    15
 10
6.612760
 20
2.314400
 11
7.265720
 21
2.674320
 12
6.541920
 22
2.267320
 13
7.194880
 23
2.627680
  0
POLYLINE
  8
0
  6
CONTINUOUS
 66
     1
 40
0.000000
 41
0.000000
  0
VERTEX
  8
0
  6
CONTINUOUS
 10
6.612760
 20
2.314400
  0
VERTEX
  8
0
  6
CONTINUOUS
 10
7.265720
 20
2.674320
  0
VERTEX
  8
0
  6
CONTINUOUS
 10
7.194880
 20
2.627680
  0
VERTEX
  8
0
  6
CONTINUOUS
 10
6.541920
 20
2.267320
  0
VERTEX
  8
0
  6
CONTINUOUS
 10
6.612760
 20
2.314400
  0
SEQEND
  8
0
  0
SOLID
  8
0
 62
    15
 10
6.084760
 20
3.259960
 11
6.737280
 21
3.619880
 12
6.089160
 22
3.084400
 13
6.742120
 23
3.444320
  0
POLYLINE
  8
0
  6
CONTINUOUS
 66
     1
 40
0.000000
 41
0.000000
  0
VERTEX
  8
0
  6
CONTINUOUS
 10
6.084760
 20
3.259960
  0
VERTEX
  8
0
  6
CONTINUOUS
 10
6.737280
 20
3.619880
  0
VERTEX
  8
0
  6
CONTINUOUS
 10
6.742120
 20
3.444320
  0
VERTEX
  8
0
  6
CONTINUOUS
 10
6.089160
 20
3.084400
  0
VERTEX
  8
0
  6
CONTINUOUS
 10
6.084760
 20
3.259960
  0
SEQEND
  8
0
  0
SOLID
  8
0
 62
    15
 10
6.089160
 20
3.084400
 11
6.742120
 21
3.444320
 12
6.710440
 22
2.881560
 13
7.363400
 23
3.241480
  0
POLYLINE
  8
0
  6
CONTINUOUS
 66
     1
 40
0.000000
 41
0.000000
  0
VERTEX
  8
0
  6
CONTINUOUS
 10
6.089160
 20
3.084400
  0
VERTEX
  8
0
  6
CONTINUOUS
 10
6.742120
 20
3.444320
  0
VERTEX
  8
0
  6
CONTINUOUS
 10
7.363400
 20
3.241480
  0
VERTEX
  8
0
  6
CONTINUOUS
 10
6.710440
 20
2.881560
  0
VERTEX
  8
0
  6
CONTINUOUS
 10
6.089160
 20
3.084400
  0
SEQEND
  8
0
  0
SOLID
  8
0
 62
    15
 10
6.710440
 20
2.881560
 11
7.363400
 21
3.241480
 12
6.792720
 22
2.843720
 13
7.445240
 23
3.204080
  0
POLYLINE
  8
0
  6
CONTINUOUS
 66
     1
 40
0.000000
 41
0.000000
  0
VERTEX
  8
0
  6
CONTINUOUS
 10
6.710440
 20
2.881560
  0
VERTEX
  8
0
  6
CONTINUOUS
 10
7.363400
 20
3.241480
  0
VERTEX
  8
0
  6
CONTINUOUS
 10
7.445240
 20
3.204080
  0
VERTEX
  8
0
  6
CONTINUOUS
 10
6.792720
 20
2.843720
  0
VERTEX
  8
0
  6
CONTINUOUS
 10
6.710440
 20
2.881560
  0
SEQEND
  8
0
  0
SOLID
  8
0
 62
    15
 10
6.792720
 20
2.843720
 11
7.445240
 21
3.204080
 12
6.848160
 22
2.789600
 13
7.500680
 23
3.149520
  0
POLYLINE
  8
0
  6
CONTINUOUS
 66
     1
 40
0.000000
 41
0.000000
  0
VERTEX
  8
0
  6
CONTINUOUS
 10
6.792720
 20
2.843720
  0
VERTEX
  8
0
  6
CONTINUOUS
 10
7.445240
 20
3.204080
  0
VERTEX
  8
0
  6
CONTINUOUS
 10
7.500680
 20
3.149520
  0
VERTEX
  8
0
  6
CONTINUOUS
 10
6.848160
 20
2.789600
  0
VERTEX
  8
0
  6
CONTINUOUS
 10
6.792720
 20
2.843720
  0
SEQEND
  8
0
  0
SOLID
  8
0
 62
    15
 10
6.848160
 20
2.789600
 11
7.500680
 21
3.149520
 12
6.878520
 22
2.724040
 13
7.531040
 23
3.084400
  0
POLYLINE
  8
0
  6
CONTINUOUS
 66
     1
 40
0.000000
 41
0.000000
  0
VERTEX
  8
0
  6
CONTINUOUS
 10
6.848160
 20
2.789600
  0
VERTEX
  8
0
  6
CONTINUOUS
 10
7.500680
 20
3.149520
  0
VERTEX
  8
0
  6
CONTINUOUS
 10
7.531040
 20
3.084400
  0
VERTEX
  8
0
  6
CONTINUOUS
 10
6.878520
 20
2.724040
  0
VERTEX
  8
0
  6
CONTINUOUS
 10
6.848160
 20
2.789600
  0
SEQEND
  8
0
  0
SOLID
  8
0
 62
    15
 10
6.878520
 20
2.724040
 11
7.531040
 21
3.084400
 12
6.885560
 22
2.654080
 13
7.538080
 23
3.014000
  0
POLYLINE
  8
0
  6
CONTINUOUS
 66
     1
 40
0.000000
 41
0.000000
  0
VERTEX
  8
0
  6
CONTINUOUS
 10
6.878520
 20
2.724040
  0
VERTEX
  8
0
  6
CONTINUOUS
 10
7.531040
 20
3.084400
  0
VERTEX
  8
0
  6
CONTINUOUS
 10
7.538080
 20
3.014000
  0
VERTEX
  8
0
  6
CONTINUOUS
 10
6.885560
 20
2.654080
  0
VERTEX
  8
0
  6
CONTINUOUS
 10
6.878520
 20
2.724040
  0
SEQEND
  8
0
  0
SOLID
  8
0
 62
    15
 10
6.870160
 20
2.584560
 11
7.523120
 21
2.944920
 12
6.834520
 22
2.522080
 13
7.487480
 23
2.882000
  0
POLYLINE
  8
0
  6
CONTINUOUS
 66
     1
 40
0.000000
 41
0.000000
  0
VERTEX
  8
0
  6
CONTINUOUS
 10
6.870160
 20
2.584560
  0
VERTEX
  8
0
  6
CONTINUOUS
 10
7.523120
 20
2.944920
  0
VERTEX
  8
0
  6
CONTINUOUS
 10
7.487480
 20
2.882000
  0
VERTEX
  8
0
  6
CONTINUOUS
 10
6.834520
 20
2.522080
  0
VERTEX
  8
0
  6
CONTINUOUS
 10
6.870160
 20
2.584560
  0
SEQEND
  8
0
  0
SOLID
  8
0
 62
    15
 10
6.885560
 20
2.654080
 11
7.538080
 21
3.014000
 12
6.870160
 22
2.584560
 13
7.523120
 23
2.944920
  0
POLYLINE
  8
0
  6
CONTINUOUS
 66
     1
 40
0.000000
 41
0.000000
  0
VERTEX
  8
0
  6
CONTINUOUS
 10
6.885560
 20
2.654080
  0
VERTEX
  8
0
  6
CONTINUOUS
 10
7.538080
 20
3.014000
  0
VERTEX
  8
0
  6
CONTINUOUS
 10
7.523120
 20
2.944920
  0
VERTEX
  8
0
  6
CONTINUOUS
 10
6.870160
 20
2.584560
  0
VERTEX
  8
0
  6
CONTINUOUS
 10
6.885560
 20
2.654080
  0
SEQEND
  8
0
  0
SOLID
  8
0
 62
    15
 10
4.082320
 20
3.425840
 11
4.734840
 21
3.785760
 12
6.084760
 22
3.259960
 13
6.737280
 23
3.619880
  0
POLYLINE
  8
0
  6
CONTINUOUS
 66
     1
 40
0.000000
 41
0.000000
  0
VERTEX
  8
0
  6
CONTINUOUS
 10
4.082320
 20
3.425840
  0
VERTEX
  8
0
  6
CONTINUOUS
 10
4.734840
 20
3.785760
  0
VERTEX
  8
0
  6
CONTINUOUS
 10
6.737280
 20
3.619880
  0
VERTEX
  8
0
  6
CONTINUOUS
 10
6.084760
 20
3.259960
  0
VERTEX
  8
0
  6
CONTINUOUS
 10
4.082320
 20
3.425840
  0
SEQEND
  8
0
  0
SOLID
  8
0
 62
    15
 10
6.707800
 20
2.440680
 11
7.360760
 21
2.800600
 12
6.707800
 22
2.334640
 13
7.360760
 23
2.694560
  0
POLYLINE
  8
0
  6
CONTINUOUS
 66
     1
 40
0.000000
 41
0.000000
  0
VERTEX
  8
0
  6
CONTINUOUS
 10
6.707800
 20
2.440680
  0
VERTEX
  8
0
  6
CONTINUOUS
 10
7.360760
 20
2.800600
  0
VERTEX
  8
0
  6
CONTINUOUS
 10
7.360760
 20
2.694560
  0
VERTEX
  8
0
  6
CONTINUOUS
 10
6.707800
 20
2.334640
  0
VERTEX
  8
0
  6
CONTINUOUS
 10
6.707800
 20
2.440680
  0
SEQEND
  8
0
  0
SOLID
  8
0
 62
    15
 10
6.834520
 20
2.522080
 11
7.487480
 21
2.882000
 12
6.779960
 22
2.472360
 13
7.432480
 23
2.832280
  0
POLYLINE
  8
0
  6
CONTINUOUS
 66
     1
 40
0.000000
 41
0.000000
  0
VERTEX
  8
0
  6
CONTINUOUS
 10
6.834520
 20
2.522080
  0
VERTEX
  8
0
  6
CONTINUOUS
 10
7.487480
 20
2.882000
  0
VERTEX
  8
0
  6
CONTINUOUS
 10
7.432480
 20
2.832280
  0
VERTEX
  8
0
  6
CONTINUOUS
 10
6.779960
 20
2.472360
  0
VERTEX
  8
0
  6
CONTINUOUS
 10
6.834520
 20
2.522080
  0
SEQEND
  8
0
  0
SOLID
  8
0
 62
    15
 10
6.497040
 20
2.200000
 11
7.149560
 21
2.560360
 12
6.479880
 22
2.117720
 13
7.132840
 23
2.477640
  0
POLYLINE
  8
0
  6
CONTINUOUS
 66
     1
 40
0.000000
 41
0.000000
  0
VERTEX
  8
0
  6
CONTINUOUS
 10
6.497040
 20
2.200000
  0
VERTEX
  8
0
  6
CONTINUOUS
 10
7.149560
 20
2.560360
  0
VERTEX
  8
0
  6
CONTINUOUS
 10
7.132840
 20
2.477640
  0
VERTEX
  8
0
  6
CONTINUOUS
 10
6.479880
 20
2.117720
  0
VERTEX
  8
0
  6
CONTINUOUS
 10
6.497040
 20
2.200000
  0
SEQEND
  8
0
  0
SOLID
  8
0
 62
    15
 10
6.541920
 20
2.267320
 11
7.194880
 21
2.627680
 12
6.497040
 22
2.200000
 13
7.149560
 23
2.560360
  0
POLYLINE
  8
0
  6
CONTINUOUS
 66
     1
 40
0.000000
 41
0.000000
  0
VERTEX
  8
0
  6
CONTINUOUS
 10
6.541920
 20
2.267320
  0
VERTEX
  8
0
  6
CONTINUOUS
 10
7.194880
 20
2.627680
  0
VERTEX
  8
0
  6
CONTINUOUS
 10
7.149560
 20
2.560360
  0
VERTEX
  8
0
  6
CONTINUOUS
 10
6.497040
 20
2.200000
  0
VERTEX
  8
0
  6
CONTINUOUS
 10
6.541920
 20
2.267320
  0
SEQEND
  8
0
  0
SOLID
  8
0
 62
    15
 10
6.479880
 20
2.117720
 11
7.132840
 21
2.477640
 12
6.472840
 22
0.795520
 13
7.125800
 23
1.155440
  0
POLYLINE
  8
0
  6
CONTINUOUS
 66
     1
 40
0.000000
 41
0.000000
  0
VERTEX
  8
0
  6
CONTINUOUS
 10
6.479880
 20
2.117720
  0
VERTEX
  8
0
  6
CONTINUOUS
 10
7.132840
 20
2.477640
  0
VERTEX
  8
0
  6
CONTINUOUS
 10
7.125800
 20
1.155440
  0
VERTEX
  8
0
  6
CONTINUOUS
 10
6.472840
 20
0.795520
  0
VERTEX
  8
0
  6
CONTINUOUS
 10
6.479880
 20
2.117720
  0
SEQEND
  8
0
  0
SOLID
  8
0
 62
    15
 10
1.369280
 20
2.843720
 11
2.021800
 21
3.204080
 12
1.451120
 22
2.881560
 13
2.104080
 23
3.241480
  0
POLYLINE
  8
0
  6
CONTINUOUS
 66
     1
 40
0.000000
 41
0.000000
  0
VERTEX
  8
0
  6
CONTINUOUS
 10
1.369280
 20
2.843720
  0
VERTEX
  8
0
  6
CONTINUOUS
 10
2.021800
 20
3.204080
  0
VERTEX
  8
0
  6
CONTINUOUS
 10
2.104080
 20
3.241480
  0
VERTEX
  8
0
  6
CONTINUOUS
 10
1.451120
 20
2.881560
  0
VERTEX
  8
0
  6
CONTINUOUS
 10
1.369280
 20
2.843720
  0
SEQEND
  8
0
  0
SOLID
  8
0
 62
    15
 10
1.451120
 20
2.881560
 11
2.104080
 21
3.241480
 12
2.072400
 22
3.084400
 13
2.725360
 23
3.444320
  0
POLYLINE
  8
0
  6
CONTINUOUS
 66
     1
 40
0.000000
 41
0.000000
  0
VERTEX
  8
0
  6
CONTINUOUS
 10
1.451120
 20
2.881560
  0
VERTEX
  8
0
  6
CONTINUOUS
 10
2.104080
 20
3.241480
  0
VERTEX
  8
0
  6
CONTINUOUS
 10
2.725360
 20
3.444320
  0
VERTEX
  8
0
  6
CONTINUOUS
 10
2.072400
 20
3.084400
  0
VERTEX
  8
0
  6
CONTINUOUS
 10
1.451120
 20
2.881560
  0
SEQEND
  8
0
  0
SOLID
  8
0
 62
    15
 10
2.077240
 20
3.259960
 11
2.729760
 21
3.619880
 12
4.079680
 22
3.425840
 13
4.732200
 23
3.785760
  0
POLYLINE
  8
0
  6
CONTINUOUS
 66
     1
 40
0.000000
 41
0.000000
  0
VERTEX
  8
0
  6
CONTINUOUS
 10
2.077240
 20
3.259960
  0
VERTEX
  8
0
  6
CONTINUOUS
 10
2.729760
 20
3.619880
  0
VERTEX
  8
0
  6
CONTINUOUS
 10
4.732200
 20
3.785760
  0
VERTEX
  8
0
  6
CONTINUOUS
 10
4.079680
 20
3.425840
  0
VERTEX
  8
0
  6
CONTINUOUS
 10
2.077240
 20
3.259960
  0
SEQEND
  8
0
  0
SOLID
  8
0
 62
    15
 10
4.079680
 20
3.425840
 11
4.732200
 21
3.785760
 12
4.082320
 22
3.425840
 13
4.734840
 23
3.785760
  0
POLYLINE
  8
0
  6
CONTINUOUS
 66
     1
 40
0.000000
 41
0.000000
  0
VERTEX
  8
0
  6
CONTINUOUS
 10
4.079680
 20
3.425840
  0
VERTEX
  8
0
  6
CONTINUOUS
 10
4.732200
 20
3.785760
  0
VERTEX
  8
0
  6
CONTINUOUS
 10
4.734840
 20
3.785760
  0
VERTEX
  8
0
  6
CONTINUOUS
 10
4.082320
 20
3.425840
  0
VERTEX
  8
0
  6
CONTINUOUS
 10
4.079680
 20
3.425840
  0
SEQEND
  8
0
  0
POLYLINE
  8
0
  6
CONTINUOUS
 66
     1
 40
0.000000
 41
0.000000
  0
VERTEX
  8
0
  6
CONTINUOUS
 10
4.082320
 20
3.425840
  0
VERTEX
  8
0
  6
CONTINUOUS
 10
6.084760
 20
3.259960
  0
VERTEX
  8
0
  6
CONTINUOUS
 10
6.089160
 20
3.084400
  0
VERTEX
  8
0
  6
CONTINUOUS
 10
6.710440
 20
2.881560
  0
VERTEX
  8
0
  6
CONTINUOUS
 10
6.792720
 20
2.843720
  0
VERTEX
  8
0
  6
CONTINUOUS
 10
6.848160
 20
2.789600
  0
VERTEX
  8
0
  6
CONTINUOUS
 10
6.878520
 20
2.724040
  0
VERTEX
  8
0
  6
CONTINUOUS
 10
6.885560
 20
2.654080
  0
VERTEX
  8
0
  6
CONTINUOUS
 10
6.870160
 20
2.584560
  0
VERTEX
  8
0
  6
CONTINUOUS
 10
6.834520
 20
2.522080
  0
VERTEX
  8
0
  6
CONTINUOUS
 10
6.779960
 20
2.472360
  0
VERTEX
  8
0
  6
CONTINUOUS
 10
6.707800
 20
2.440680
  0
VERTEX
  8
0
  6
CONTINUOUS
 10
6.707800
 20
2.334640
  0
VERTEX
  8
0
  6
CONTINUOUS
 10
6.612760
 20
2.314400
  0
VERTEX
  8
0
  6
CONTINUOUS
 10
6.541920
 20
2.267320
  0
VERTEX
  8
0
  6
CONTINUOUS
 10
6.497040
 20
2.200000
  0
VERTEX
  8
0
  6
CONTINUOUS
 10
6.479880
 20
2.117720
  0
VERTEX
  8
0
  6
CONTINUOUS
 10
6.472840
 20
0.795520
  0
VERTEX
  8
0
  6
CONTINUOUS
 10
1.688720
 20
0.795520
  0
VERTEX
  8
0
  6
CONTINUOUS
 10
1.681680
 20
2.117720
  0
VERTEX
  8
0
  6
CONTINUOUS
 10
1.664520
 20
2.200000
  0
VERTEX
  8
0
  6
CONTINUOUS
 10
1.619640
 20
2.267320
  0
VERTEX
  8
0
  6
CONTINUOUS
 10
1.548800
 20
2.314400
  0
VERTEX
  8
0
  6
CONTINUOUS
 10
1.453760
 20
2.334640
  0
VERTEX
  8
0
  6
CONTINUOUS
 10
1.453760
 20
2.440680
  0
VERTEX
  8
0
  6
CONTINUOUS
 10
1.382040
 20
2.472360
  0
VERTEX
  8
0
  6
CONTINUOUS
 10
1.327040
 20
2.522080
  0
VERTEX
  8
0
  6
CONTINUOUS
 10
1.291400
 20
2.584560
  0
VERTEX
  8
0
  6
CONTINUOUS
 10
1.276440
 20
2.654080
  0
VERTEX
  8
0
  6
CONTINUOUS
 10
1.283040
 20
2.724040
  0
VERTEX
  8
0
  6
CONTINUOUS
 10
1.313840
 20
2.789600
  0
VERTEX
  8
0
  6
CONTINUOUS
 10
1.369280
 20
2.843720
  0
VERTEX
  8
0
  6
CONTINUOUS
 10
1.451120
 20
2.881560
  0
VERTEX
  8
0
  6
CONTINUOUS
 10
2.072400
 20
3.084400
  0
VERTEX
  8
0
  6
CONTINUOUS
 10
2.077240
 20
3.259960
  0
VERTEX
  8
0
  6
CONTINUOUS
 10
4.079680
 20
3.425840
  0
VERTEX
  8
0
  6
CONTINUOUS
 10
4.082320
 20
3.425840
  0
SEQEND
  8
0
  0
TEXT
  8
0
 10
3.416600
 20
0.570680
 40
0.138193
  1
BA  992 2-5/8" x 5-5/8"
 41
1.000000
  7
SN0
 71
     0
 72
     5
 11
5.102544
 21
0.570680
  0
TEXT
  8
0
 10
3.416600
 20
0.378840
 40
0.138193
  1
BA  562 Top
 41
1.000000
  7
SN0
 71
     0
 72
     5
 11
4.339783
 21
0.378840
  0
POLYLINE
  8
0
  6
CONTINUOUS
 66
     1
 40
0.014080
 41
0.014080
  0
VERTEX
  8
0
  6
CONTINUOUS
 10
4.479200
 20
6.995560
  0
VERTEX
  8
0
  6
CONTINUOUS
 10
6.481640
 20
6.830120
  0
VERTEX
  8
0
  6
CONTINUOUS
 10
6.486040
 20
6.654560
  0
VERTEX
  8
0
  6
CONTINUOUS
 10
7.130640
 20
6.444240
  0
VERTEX
  8
0
  6
CONTINUOUS
 10
7.151760
 20
6.435440
  0
VERTEX
  8
0
  6
CONTINUOUS
 10
7.171560
 20
6.425320
  0
VERTEX
  8
0
  6
CONTINUOUS
 10
7.205880
 20
6.401560
  0
VERTEX
  8
0
  6
CONTINUOUS
 10
7.233600
 20
6.374280
  0
VERTEX
  8
0
  6
CONTINUOUS
 10
7.254720
 20
6.343920
  0
VERTEX
  8
0
  6
CONTINUOUS
 10
7.270120
 20
6.311360
  0
VERTEX
  8
0
  6
CONTINUOUS
 10
7.279360
 20
6.277040
  0
VERTEX
  8
0
  6
CONTINUOUS
 10
7.282440
 20
6.241840
  0
VERTEX
  8
0
  6
CONTINUOUS
 10
7.282440
 20
6.223800
  0
VERTEX
  8
0
  6
CONTINUOUS
 10
7.277160
 20
6.189040
  0
VERTEX
  8
0
  6
CONTINUOUS
 10
7.267040
 20
6.154720
  0
VERTEX
  8
0
  6
CONTINUOUS
 10
7.251640
 20
6.122160
  0
VERTEX
  8
0
  6
CONTINUOUS
 10
7.231400
 20
6.092240
  0
VERTEX
  8
0
  6
CONTINUOUS
 10
7.219520
 20
6.078160
  0
VERTEX
  8
0
  6
CONTINUOUS
 10
7.192240
 20
6.053080
  0
VERTEX
  8
0
  6
CONTINUOUS
 10
7.160120
 20
6.032400
  0
VERTEX
  8
0
  6
CONTINUOUS
 10
7.124040
 20
6.016560
  0
VERTEX
  8
0
  6
CONTINUOUS
 10
7.104680
 20
6.010840
  0
VERTEX
  8
0
  6
CONTINUOUS
 10
7.104680
 20
5.904800
  0
VERTEX
  8
0
  6
CONTINUOUS
 10
7.078720
 20
5.902600
  0
VERTEX
  8
0
  6
CONTINUOUS
 10
7.054520
 20
5.898200
  0
VERTEX
  8
0
  6
CONTINUOUS
 10
7.031200
 20
5.892040
  0
VERTEX
  8
0
  6
CONTINUOUS
 10
7.009640
 20
5.884560
  0
VERTEX
  8
0
  6
CONTINUOUS
 10
6.971360
 20
5.863880
  0
VERTEX
  8
0
  6
CONTINUOUS
 10
6.954200
 20
5.851560
  0
VERTEX
  8
0
  6
CONTINUOUS
 10
6.925160
 20
5.822520
  0
VERTEX
  8
0
  6
CONTINUOUS
 10
6.902720
 20
5.788640
  0
VERTEX
  8
0
  6
CONTINUOUS
 10
6.893920
 20
5.770160
  0
VERTEX
  8
0
  6
CONTINUOUS
 10
6.886880
 20
5.750800
  0
VERTEX
  8
0
  6
CONTINUOUS
 10
6.881600
 20
5.730560
  0
VERTEX
  8
0
  6
CONTINUOUS
 10
6.876760
 20
5.687880
  0
VERTEX
  8
0
  6
CONTINUOUS
 10
6.869720
 20
4.365240
  0
VERTEX
  8
0
  6
CONTINUOUS
 10
2.085600
 20
4.365240
  0
VERTEX
  8
0
  6
CONTINUOUS
 10
2.078560
 20
5.687880
  0
VERTEX
  8
0
  6
CONTINUOUS
 10
2.077240
 20
5.709440
  0
VERTEX
  8
0
  6
CONTINUOUS
 10
2.073720
 20
5.730560
  0
VERTEX
  8
0
  6
CONTINUOUS
 10
2.061840
 20
5.770160
  0
VERTEX
  8
0
  6
CONTINUOUS
 10
2.053040
 20
5.788640
  0
VERTEX
  8
0
  6
CONTINUOUS
 10
2.030600
 20
5.822520
  0
VERTEX
  8
0
  6
CONTINUOUS
 10
2.001560
 20
5.851560
  0
VERTEX
  8
0
  6
CONTINUOUS
 10
1.965920
 20
5.874880
  0
VERTEX
  8
0
  6
CONTINUOUS
 10
1.945680
 20
5.884560
  0
VERTEX
  8
0
  6
CONTINUOUS
 10
1.901240
 20
5.898200
  0
VERTEX
  8
0
  6
CONTINUOUS
 10
1.876600
 20
5.902600
  0
VERTEX
  8
0
  6
CONTINUOUS
 10
1.850640
 20
5.904800
  0
VERTEX
  8
0
  6
CONTINUOUS
 10
1.850640
 20
6.010840
  0
VERTEX
  8
0
  6
CONTINUOUS
 10
1.831280
 20
6.016560
  0
VERTEX
  8
0
  6
CONTINUOUS
 10
1.795200
 20
6.032400
  0
VERTEX
  8
0
  6
CONTINUOUS
 10
1.763520
 20
6.053080
  0
VERTEX
  8
0
  6
CONTINUOUS
 10
1.735800
 20
6.078160
  0
VERTEX
  8
0
  6
CONTINUOUS
 10
1.713360
 20
6.106760
  0
VERTEX
  8
0
  6
CONTINUOUS
 10
1.695320
 20
6.138440
  0
VERTEX
  8
0
  6
CONTINUOUS
 10
1.682560
 20
6.171440
  0
VERTEX
  8
0
  6
CONTINUOUS
 10
1.675080
 20
6.206200
  0
VERTEX
  8
0
  6
CONTINUOUS
 10
1.672880
 20
6.241840
  0
VERTEX
  8
0
  6
CONTINUOUS
 10
1.673760
 20
6.259440
  0
VERTEX
  8
0
  6
CONTINUOUS
 10
1.680360
 20
6.294200
  0
VERTEX
  8
0
  6
CONTINUOUS
 10
1.692240
 20
6.327640
  0
VERTEX
  8
0
  6
CONTINUOUS
 10
1.700600
 20
6.343920
  0
VERTEX
  8
0
  6
CONTINUOUS
 10
1.722160
 20
6.374280
  0
VERTEX
  8
0
  6
CONTINUOUS
 10
1.749880
 20
6.401560
  0
VERTEX
  8
0
  6
CONTINUOUS
 10
1.784200
 20
6.425320
  0
VERTEX
  8
0
  6
CONTINUOUS
 10
1.804000
 20
6.435440
  0
VERTEX
  8
0
  6
CONTINUOUS
 10
1.825120
 20
6.444240
  0
VERTEX
  8
0
  6
CONTINUOUS
 10
2.469280
 20
6.654560
  0
VERTEX
  8
0
  6
CONTINUOUS
 10
2.474120
 20
6.830120
  0
VERTEX
  8
0
  6
CONTINUOUS
 10
4.479200
 20
6.995560
  0
SEQEND
  8
0
  0
TEXT
  8
0
 10
3.487440
 20
4.774000
 40
0.138193
  1
BA  992 2-5/8" x 5-5/8"
 41
1.000000
  7
SN0
 71
     0
 72
     5
 11
5.173384
 21
4.774000
  0
TEXT
  8
0
 10
3.487440
 20
4.582600
 40
0.138193
  1
BA  562 Top
 41
1.000000
  7
SN0
 71
     0
 72
     5
 11
4.410623
 21
4.582600
  0
ENDSEC
  0
EOF
