  0
SECTION
  2
HEADER
  9
$ACADVER
  1
AC1006
  9
$EXTMIN
 10
0.701360
 20
1.161160
  9
$EXTMAX
 10
7.843880
 20
5.668960
  9
$LTSCALE
 40
0.044000
  9
$PDMODE
 70
    35
  9
$PDSIZE
 40
0.035200
  0
ENDSEC
  0
SECTION
  2
TABLES
  0
TABLE
  2
LTYPE
 70
     9
  0
LTYPE
  2
CONTINUOUS
 70
    64
  3
Solid line
 72
    65
 73
     0
 40
0.000000
  0
LTYPE
  2
DASHED
 70
    64
  3
__ __ __ __ __ __ __ __ __ __ __ __ __ __ __
 72
    65
 73
     2
 40
0.000330
 49
0.000220
 49
-0.000110
  0
LTYPE
  2
HIDDEN
 70
    64
  3
 _ _ _ _ _ _ _ _ _ _ _ _ _ _ _ _ _ _ _ _ _ _
 72
    65
 73
     2
 40
0.000165
 49
0.000110
 49
-0.000055
  0
LTYPE
  2
CENTER
 70
    64
  3
____ _ ____ _ ____ _ ____ _ ____ _ ____ _ ____
 72
    65
 73
     4
 40
0.000880
 49
0.000550
 49
-0.000110
 49
0.000110
 49
-0.000110
  0
LTYPE
  2
PHANTOM
 70
    64
  3
_____ _ _ _____ _ _ _____ _ _ _____ _ _ ____
 72
    65
 73
     6
 40
0.001100
 49
0.000550
 49
-0.000110
 49
0.000110
 49
-0.000110
 49
0.000110
 49
-0.000110
  0
LTYPE
  2
DOT
 70
    64
  3
...............................................
 72
    65
 73
     2
 40
0.000110
 49
0.000000
 49
-0.000110
  0
LTYPE
  2
DASHDOT
 70
    64
  3
__ . __ . __ . __ . __ . __ . __ . __ . __ . __
 72
    65
 73
     4
 40
0.000440
 49
0.000220
 49
-0.000110
 49
0.000000
 49
-0.000110
  0
LTYPE
  2
BORDER
 70
    64
  3
__ __ . __ __ . __ __ . __ __ . __ __ . __ __
 72
    65
 73
     6
 40
0.000770
 49
0.000220
 49
-0.000110
 49
0.000220
 49
-0.000110
 49
0.000000
 49
-0.000110
  0
LTYPE
  2
DIVIDE
 70
    64
  3
__ . . __ . . __ . . __ . . __ . . __ . . __
 72
    65
 73
     6
 40
0.000550
 49
0.000220
 49
-0.000110
 49
0.000000
 49
-0.000110
 49
0.000000
 49
-0.000110
  0
LTYPE
  2
DOTDOT
 70
    64
  3
 . .  . .  . .  . .  . .  . . 
 72
    65
 73
     5
 40
0.000242
 49
-0.000110
 49
0.000000
 49
-0.000110
 49
0.000000
 49
-0.000110
  0
ENDTAB
  0
TABLE
  2
STYLE
 70
     2
  0
STYLE
 70
     0
  2
SN0
 40
0.000000
 41
0.000440
 50
0.000000
 71
     0
 42
0.000000
  3
ROMAND
  0
STYLE
 70
    68
  2
SV0
 40
0.000000
 41
0.000440
 50
0.000000
 71
     0
 42
0.000000
  3
ROMAND
  0
ENDTAB
  0
TABLE
  2
LAYER
 70
     3
  0
LAYER
  2
FOREGROUND
 70
    64
 62
     7
  6
CONTINUOUS
  0
LAYER
  2
BACKGROUND
 70
    65
 62
    -7
  6
CONTINUOUS
  0
LAYER
  2
0
 70
    64
 62
     7
  6
CONTINUOUS
  0
ENDTAB
  0
ENDSEC
  0
SECTION
  2
ENTITIES
  0
POLYLINE
  8
FOREGROUND
  6
CONTINUOUS
 66
     1
 40
0.000000
 41
0.000000
  0
VERTEX
  8
FOREGROUND
  6
CONTINUOUS
 10
0.000000
 20
6.830120
  0
VERTEX
  8
FOREGROUND
  6
CONTINUOUS
 10
8.499920
 20
6.830120
  0
VERTEX
  8
FOREGROUND
  6
CONTINUOUS
 10
8.499920
 20
-4.169880
  0
VERTEX
  8
FOREGROUND
  6
CONTINUOUS
 10
0.000000
 20
-4.169880
  0
VERTEX
  8
FOREGROUND
  6
CONTINUOUS
 10
0.000000
 20
6.830120
  0
SEQEND
  8
0
  0
POLYLINE
  8
FOREGROUND
  6
CONTINUOUS
 66
     1
 40
0.000000
 41
0.000000
  0
VERTEX
  8
FOREGROUND
  6
CONTINUOUS
 10
0.000000
 20
6.830120
  0
VERTEX
  8
FOREGROUND
  6
CONTINUOUS
 10
8.499920
 20
6.830120
  0
VERTEX
  8
FOREGROUND
  6
CONTINUOUS
 10
8.499920
 20
-4.169880
  0
VERTEX
  8
FOREGROUND
  6
CONTINUOUS
 10
0.000000
 20
-4.169880
  0
VERTEX
  8
FOREGROUND
  6
CONTINUOUS
 10
0.000000
 20
6.830120
  0
SEQEND
  8
0
  0
SOLID
  8
0
 62
    15
 10
7.201480
 20
2.713040
 11
7.843880
 21
3.092320
 12
7.201480
 22
1.161160
 13
7.843880
 23
1.540880
  0
POLYLINE
  8
0
  6
CONTINUOUS
 66
     1
 40
0.000000
 41
0.000000
  0
VERTEX
  8
0
  6
CONTINUOUS
 10
7.201480
 20
2.713040
  0
VERTEX
  8
0
  6
CONTINUOUS
 10
7.843880
 20
3.092320
  0
VERTEX
  8
0
  6
CONTINUOUS
 10
7.843880
 20
1.540880
  0
VERTEX
  8
0
  6
CONTINUOUS
 10
7.201480
 20
1.161160
  0
VERTEX
  8
0
  6
CONTINUOUS
 10
7.201480
 20
2.713040
  0
SEQEND
  8
0
  0
SOLID
  8
0
 62
    15
 10
3.941960
 20
2.995960
 11
4.584360
 21
3.375240
 12
7.201480
 22
2.713040
 13
7.843880
 23
3.092320
  0
POLYLINE
  8
0
  6
CONTINUOUS
 66
     1
 40
0.000000
 41
0.000000
  0
VERTEX
  8
0
  6
CONTINUOUS
 10
3.941960
 20
2.995960
  0
VERTEX
  8
0
  6
CONTINUOUS
 10
4.584360
 20
3.375240
  0
VERTEX
  8
0
  6
CONTINUOUS
 10
7.843880
 20
3.092320
  0
VERTEX
  8
0
  6
CONTINUOUS
 10
7.201480
 20
2.713040
  0
VERTEX
  8
0
  6
CONTINUOUS
 10
3.941960
 20
2.995960
  0
SEQEND
  8
0
  0
SOLID
  8
0
 62
    15
 10
2.126520
 20
1.942160
 11
2.768920
 21
2.321440
 12
2.126520
 22
1.161160
 13
2.768920
 23
1.540880
  0
POLYLINE
  8
0
  6
CONTINUOUS
 66
     1
 40
0.000000
 41
0.000000
  0
VERTEX
  8
0
  6
CONTINUOUS
 10
2.126520
 20
1.942160
  0
VERTEX
  8
0
  6
CONTINUOUS
 10
2.768920
 20
2.321440
  0
VERTEX
  8
0
  6
CONTINUOUS
 10
2.768920
 20
1.540880
  0
VERTEX
  8
0
  6
CONTINUOUS
 10
2.126520
 20
1.161160
  0
VERTEX
  8
0
  6
CONTINUOUS
 10
2.126520
 20
1.942160
  0
SEQEND
  8
0
  0
SOLID
  8
0
 62
    15
 10
0.701800
 20
2.695000
 11
1.344200
 21
3.074280
 12
0.701800
 22
2.693240
 13
1.344200
 23
3.072960
  0
POLYLINE
  8
0
  6
CONTINUOUS
 66
     1
 40
0.000000
 41
0.000000
  0
VERTEX
  8
0
  6
CONTINUOUS
 10
0.701800
 20
2.695000
  0
VERTEX
  8
0
  6
CONTINUOUS
 10
1.344200
 20
3.074280
  0
VERTEX
  8
0
  6
CONTINUOUS
 10
1.344200
 20
3.072960
  0
VERTEX
  8
0
  6
CONTINUOUS
 10
0.701800
 20
2.693240
  0
VERTEX
  8
0
  6
CONTINUOUS
 10
0.701800
 20
2.695000
  0
SEQEND
  8
0
  0
SOLID
  8
0
 62
    15
 10
0.701800
 20
2.693240
 11
1.344200
 21
3.072960
 12
3.941960
 22
2.995960
 13
4.584360
 23
3.375240
  0
POLYLINE
  8
0
  6
CONTINUOUS
 66
     1
 40
0.000000
 41
0.000000
  0
VERTEX
  8
0
  6
CONTINUOUS
 10
0.701800
 20
2.693240
  0
VERTEX
  8
0
  6
CONTINUOUS
 10
1.344200
 20
3.072960
  0
VERTEX
  8
0
  6
CONTINUOUS
 10
4.584360
 20
3.375240
  0
VERTEX
  8
0
  6
CONTINUOUS
 10
3.941960
 20
2.995960
  0
VERTEX
  8
0
  6
CONTINUOUS
 10
0.701800
 20
2.693240
  0
SEQEND
  8
0
  0
POLYLINE
  8
0
  6
CONTINUOUS
 66
     1
 40
0.000000
 41
0.000000
  0
VERTEX
  8
0
  6
CONTINUOUS
 10
0.701800
 20
2.693240
  0
VERTEX
  8
0
  6
CONTINUOUS
 10
3.941960
 20
2.995960
  0
VERTEX
  8
0
  6
CONTINUOUS
 10
7.201480
 20
2.713040
  0
VERTEX
  8
0
  6
CONTINUOUS
 10
7.201480
 20
1.161160
  0
VERTEX
  8
0
  6
CONTINUOUS
 10
5.766640
 20
1.161160
  0
VERTEX
  8
0
  6
CONTINUOUS
 10
5.766640
 20
1.942160
  0
VERTEX
  8
0
  6
CONTINUOUS
 10
2.126520
 20
1.942160
  0
VERTEX
  8
0
  6
CONTINUOUS
 10
2.126520
 20
1.161160
  0
VERTEX
  8
0
  6
CONTINUOUS
 10
0.701800
 20
1.161160
  0
VERTEX
  8
0
  6
CONTINUOUS
 10
0.701800
 20
2.695000
  0
VERTEX
  8
0
  6
CONTINUOUS
 10
0.701800
 20
2.693240
  0
SEQEND
  8
0
  0
TEXT
  8
0
 10
3.366440
 20
1.407120
 40
0.138153
  1
BA  991 7/8" x 6-1/2"
 41
1.000000
  7
SN0
 71
     0
 72
     5
 11
4.900296
 21
1.407120
  0
TEXT
  8
0
 10
3.366440
 20
1.215280
 40
0.138153
  1
BA  981 Top
 41
1.000000
  7
SN0
 71
     0
 72
     5
 11
4.287468
 21
1.215280
  0
POLYLINE
  8
0
  6
CONTINUOUS
 66
     1
 40
0.014080
 41
0.014080
  0
VERTEX
  8
0
  6
CONTINUOUS
 10
0.909920
 20
5.358760
  0
VERTEX
  8
0
  6
CONTINUOUS
 10
4.150080
 20
5.661480
  0
VERTEX
  8
0
  6
CONTINUOUS
 10
7.409600
 20
5.378560
  0
VERTEX
  8
0
  6
CONTINUOUS
 10
7.409600
 20
3.826680
  0
VERTEX
  8
0
  6
CONTINUOUS
 10
5.974760
 20
3.826680
  0
VERTEX
  8
0
  6
CONTINUOUS
 10
5.974760
 20
4.607240
  0
VERTEX
  8
0
  6
CONTINUOUS
 10
2.334640
 20
4.607240
  0
VERTEX
  8
0
  6
CONTINUOUS
 10
2.334640
 20
3.826680
  0
VERTEX
  8
0
  6
CONTINUOUS
 10
0.909920
 20
3.826680
  0
VERTEX
  8
0
  6
CONTINUOUS
 10
0.909920
 20
5.360520
  0
VERTEX
  8
0
  6
CONTINUOUS
 10
0.909920
 20
5.358760
  0
SEQEND
  8
0
  0
TEXT
  8
0
 10
3.458840
 20
4.184400
 40
0.138153
  1
BA  991 & 981 Top
 41
1.000000
  7
SN0
 71
     0
 72
     5
 11
4.858417
 21
4.184400
  0
TEXT
  8
0
 10
3.708760
 20
3.992560
 40
0.138153
  1
7/8" x 6-1/2"
 41
1.000000
  7
SN0
 71
     0
 72
     5
 11
4.607646
 21
3.992560
  0
ENDSEC
  0
EOF
