  0
SECTION
  2
HEADER
  9
$ACADVER
  1
AC1006
  9
$EXTMIN
 10
3.303080
 20
0.383240
  9
$EXTMAX
 10
7.822760
 20
3.672240
  9
$LTSCALE
 40
0.044000
  9
$PDMODE
 70
    35
  9
$PDSIZE
 40
0.035200
  0
ENDSEC
  0
SECTION
  2
TABLES
  0
TABLE
  2
LTYPE
 70
     9
  0
LTYPE
  2
CONTINUOUS
 70
    64
  3
Solid line
 72
    65
 73
     0
 40
0.000000
  0
LTYPE
  2
DASHED
 70
    64
  3
__ __ __ __ __ __ __ __ __ __ __ __ __ __ __
 72
    65
 73
     2
 40
0.000330
 49
0.000220
 49
-0.000110
  0
LTYPE
  2
HIDDEN
 70
    64
  3
 _ _ _ _ _ _ _ _ _ _ _ _ _ _ _ _ _ _ _ _ _ _
 72
    65
 73
     2
 40
0.000165
 49
0.000110
 49
-0.000055
  0
LTYPE
  2
CENTER
 70
    64
  3
____ _ ____ _ ____ _ ____ _ ____ _ ____ _ ____
 72
    65
 73
     4
 40
0.000880
 49
0.000550
 49
-0.000110
 49
0.000110
 49
-0.000110
  0
LTYPE
  2
PHANTOM
 70
    64
  3
_____ _ _ _____ _ _ _____ _ _ _____ _ _ ____
 72
    65
 73
     6
 40
0.001100
 49
0.000550
 49
-0.000110
 49
0.000110
 49
-0.000110
 49
0.000110
 49
-0.000110
  0
LTYPE
  2
DOT
 70
    64
  3
...............................................
 72
    65
 73
     2
 40
0.000110
 49
0.000000
 49
-0.000110
  0
LTYPE
  2
DASHDOT
 70
    64
  3
__ . __ . __ . __ . __ . __ . __ . __ . __ . __
 72
    65
 73
     4
 40
0.000440
 49
0.000220
 49
-0.000110
 49
0.000000
 49
-0.000110
  0
LTYPE
  2
BORDER
 70
    64
  3
__ __ . __ __ . __ __ . __ __ . __ __ . __ __
 72
    65
 73
     6
 40
0.000770
 49
0.000220
 49
-0.000110
 49
0.000220
 49
-0.000110
 49
0.000000
 49
-0.000110
  0
LTYPE
  2
DIVIDE
 70
    64
  3
__ . . __ . . __ . . __ . . __ . . __ . . __
 72
    65
 73
     6
 40
0.000550
 49
0.000220
 49
-0.000110
 49
0.000000
 49
-0.000110
 49
0.000000
 49
-0.000110
  0
LTYPE
  2
DOTDOT
 70
    64
  3
 . .  . .  . .  . .  . .  . . 
 72
    65
 73
     5
 40
0.000242
 49
-0.000110
 49
0.000000
 49
-0.000110
 49
0.000000
 49
-0.000110
  0
ENDTAB
  0
TABLE
  2
STYLE
 70
     2
  0
STYLE
 70
     0
  2
SN0
 40
0.000000
 41
0.000440
 50
0.000000
 71
     0
 42
0.000000
  3
ROMAND
  0
STYLE
 70
    68
  2
SV0
 40
0.000000
 41
0.000440
 50
0.000000
 71
     0
 42
0.000000
  3
ROMAND
  0
ENDTAB
  0
TABLE
  2
LAYER
 70
     3
  0
LAYER
  2
FOREGROUND
 70
    64
 62
     7
  6
CONTINUOUS
  0
LAYER
  2
BACKGROUND
 70
    65
 62
    -7
  6
CONTINUOUS
  0
LAYER
  2
0
 70
    64
 62
     7
  6
CONTINUOUS
  0
ENDTAB
  0
ENDSEC
  0
SECTION
  2
ENTITIES
  0
POLYLINE
  8
FOREGROUND
  6
CONTINUOUS
 66
     1
 40
0.000000
 41
0.000000
  0
VERTEX
  8
FOREGROUND
  6
CONTINUOUS
 10
0.000000
 20
4.055480
  0
VERTEX
  8
FOREGROUND
  6
CONTINUOUS
 10
8.499920
 20
4.055480
  0
VERTEX
  8
FOREGROUND
  6
CONTINUOUS
 10
8.499920
 20
-6.944520
  0
VERTEX
  8
FOREGROUND
  6
CONTINUOUS
 10
0.000000
 20
-6.944520
  0
VERTEX
  8
FOREGROUND
  6
CONTINUOUS
 10
0.000000
 20
4.055480
  0
SEQEND
  8
0
  0
POLYLINE
  8
FOREGROUND
  6
CONTINUOUS
 66
     1
 40
0.000000
 41
0.000000
  0
VERTEX
  8
FOREGROUND
  6
CONTINUOUS
 10
0.000000
 20
4.055480
  0
VERTEX
  8
FOREGROUND
  6
CONTINUOUS
 10
8.499920
 20
4.055480
  0
VERTEX
  8
FOREGROUND
  6
CONTINUOUS
 10
8.499920
 20
-6.944520
  0
VERTEX
  8
FOREGROUND
  6
CONTINUOUS
 10
0.000000
 20
-6.944520
  0
VERTEX
  8
FOREGROUND
  6
CONTINUOUS
 10
0.000000
 20
4.055480
  0
SEQEND
  8
0
  0
SOLID
  8
0
 62
    15
 10
3.751440
 20
2.354000
 11
4.400000
 21
1.964600
 12
3.737800
 22
2.340360
 13
4.386360
 23
1.950960
  0
POLYLINE
  8
0
  6
CONTINUOUS
 66
     1
 40
0.000000
 41
0.000000
  0
VERTEX
  8
0
  6
CONTINUOUS
 10
3.751440
 20
2.354000
  0
VERTEX
  8
0
  6
CONTINUOUS
 10
4.400000
 20
1.964600
  0
VERTEX
  8
0
  6
CONTINUOUS
 10
4.386360
 20
1.950960
  0
VERTEX
  8
0
  6
CONTINUOUS
 10
3.737800
 20
2.340360
  0
VERTEX
  8
0
  6
CONTINUOUS
 10
3.751440
 20
2.354000
  0
SEQEND
  8
0
  0
SOLID
  8
0
 62
    15
 10
4.071760
 20
3.567520
 11
4.720320
 21
3.178560
 12
4.117080
 22
3.517360
 13
4.765200
 23
3.128400
  0
POLYLINE
  8
0
  6
CONTINUOUS
 66
     1
 40
0.000000
 41
0.000000
  0
VERTEX
  8
0
  6
CONTINUOUS
 10
4.071760
 20
3.567520
  0
VERTEX
  8
0
  6
CONTINUOUS
 10
4.720320
 20
3.178560
  0
VERTEX
  8
0
  6
CONTINUOUS
 10
4.765200
 20
3.128400
  0
VERTEX
  8
0
  6
CONTINUOUS
 10
4.117080
 20
3.517360
  0
VERTEX
  8
0
  6
CONTINUOUS
 10
4.071760
 20
3.567520
  0
SEQEND
  8
0
  0
SOLID
  8
0
 62
    15
 10
4.117080
 20
3.517360
 11
4.765200
 21
3.128400
 12
4.151400
 22
3.461040
 13
4.799960
 23
3.071640
  0
POLYLINE
  8
0
  6
CONTINUOUS
 66
     1
 40
0.000000
 41
0.000000
  0
VERTEX
  8
0
  6
CONTINUOUS
 10
4.117080
 20
3.517360
  0
VERTEX
  8
0
  6
CONTINUOUS
 10
4.765200
 20
3.128400
  0
VERTEX
  8
0
  6
CONTINUOUS
 10
4.799960
 20
3.071640
  0
VERTEX
  8
0
  6
CONTINUOUS
 10
4.151400
 20
3.461040
  0
VERTEX
  8
0
  6
CONTINUOUS
 10
4.117080
 20
3.517360
  0
SEQEND
  8
0
  0
SOLID
  8
0
 62
    15
 10
4.151400
 20
3.461040
 11
4.799960
 21
3.071640
 12
4.175600
 22
3.399880
 13
4.823720
 23
3.010920
  0
POLYLINE
  8
0
  6
CONTINUOUS
 66
     1
 40
0.000000
 41
0.000000
  0
VERTEX
  8
0
  6
CONTINUOUS
 10
4.151400
 20
3.461040
  0
VERTEX
  8
0
  6
CONTINUOUS
 10
4.799960
 20
3.071640
  0
VERTEX
  8
0
  6
CONTINUOUS
 10
4.823720
 20
3.010920
  0
VERTEX
  8
0
  6
CONTINUOUS
 10
4.175600
 20
3.399880
  0
VERTEX
  8
0
  6
CONTINUOUS
 10
4.151400
 20
3.461040
  0
SEQEND
  8
0
  0
SOLID
  8
0
 62
    15
 10
4.175600
 20
3.399880
 11
4.823720
 21
3.010920
 12
4.188800
 22
3.336080
 13
4.836920
 23
2.947120
  0
POLYLINE
  8
0
  6
CONTINUOUS
 66
     1
 40
0.000000
 41
0.000000
  0
VERTEX
  8
0
  6
CONTINUOUS
 10
4.175600
 20
3.399880
  0
VERTEX
  8
0
  6
CONTINUOUS
 10
4.823720
 20
3.010920
  0
VERTEX
  8
0
  6
CONTINUOUS
 10
4.836920
 20
2.947120
  0
VERTEX
  8
0
  6
CONTINUOUS
 10
4.188800
 20
3.336080
  0
VERTEX
  8
0
  6
CONTINUOUS
 10
4.175600
 20
3.399880
  0
SEQEND
  8
0
  0
SOLID
  8
0
 62
    15
 10
4.188800
 20
3.336080
 11
4.836920
 21
2.947120
 12
4.191000
 22
3.271400
 13
4.839120
 23
2.882000
  0
POLYLINE
  8
0
  6
CONTINUOUS
 66
     1
 40
0.000000
 41
0.000000
  0
VERTEX
  8
0
  6
CONTINUOUS
 10
4.188800
 20
3.336080
  0
VERTEX
  8
0
  6
CONTINUOUS
 10
4.836920
 20
2.947120
  0
VERTEX
  8
0
  6
CONTINUOUS
 10
4.839120
 20
2.882000
  0
VERTEX
  8
0
  6
CONTINUOUS
 10
4.191000
 20
3.271400
  0
VERTEX
  8
0
  6
CONTINUOUS
 10
4.188800
 20
3.336080
  0
SEQEND
  8
0
  0
SOLID
  8
0
 62
    15
 10
4.191000
 20
3.271400
 11
4.839120
 21
2.882000
 12
4.181760
 22
3.207160
 13
4.829880
 23
2.818200
  0
POLYLINE
  8
0
  6
CONTINUOUS
 66
     1
 40
0.000000
 41
0.000000
  0
VERTEX
  8
0
  6
CONTINUOUS
 10
4.191000
 20
3.271400
  0
VERTEX
  8
0
  6
CONTINUOUS
 10
4.839120
 20
2.882000
  0
VERTEX
  8
0
  6
CONTINUOUS
 10
4.829880
 20
2.818200
  0
VERTEX
  8
0
  6
CONTINUOUS
 10
4.181760
 20
3.207160
  0
VERTEX
  8
0
  6
CONTINUOUS
 10
4.191000
 20
3.271400
  0
SEQEND
  8
0
  0
SOLID
  8
0
 62
    15
 10
4.181760
 20
3.207160
 11
4.829880
 21
2.818200
 12
4.161080
 22
3.145560
 13
4.809200
 23
2.756160
  0
POLYLINE
  8
0
  6
CONTINUOUS
 66
     1
 40
0.000000
 41
0.000000
  0
VERTEX
  8
0
  6
CONTINUOUS
 10
4.181760
 20
3.207160
  0
VERTEX
  8
0
  6
CONTINUOUS
 10
4.829880
 20
2.818200
  0
VERTEX
  8
0
  6
CONTINUOUS
 10
4.809200
 20
2.756160
  0
VERTEX
  8
0
  6
CONTINUOUS
 10
4.161080
 20
3.145560
  0
VERTEX
  8
0
  6
CONTINUOUS
 10
4.181760
 20
3.207160
  0
SEQEND
  8
0
  0
SOLID
  8
0
 62
    15
 10
4.161080
 20
3.145560
 11
4.809200
 21
2.756160
 12
4.128520
 22
3.087920
 13
4.777080
 23
2.698520
  0
POLYLINE
  8
0
  6
CONTINUOUS
 66
     1
 40
0.000000
 41
0.000000
  0
VERTEX
  8
0
  6
CONTINUOUS
 10
4.161080
 20
3.145560
  0
VERTEX
  8
0
  6
CONTINUOUS
 10
4.809200
 20
2.756160
  0
VERTEX
  8
0
  6
CONTINUOUS
 10
4.777080
 20
2.698520
  0
VERTEX
  8
0
  6
CONTINUOUS
 10
4.128520
 20
3.087920
  0
VERTEX
  8
0
  6
CONTINUOUS
 10
4.161080
 20
3.145560
  0
SEQEND
  8
0
  0
SOLID
  8
0
 62
    15
 10
4.128520
 20
3.087920
 11
4.777080
 21
2.698520
 12
4.084520
 22
3.036000
 13
4.732640
 23
2.647040
  0
POLYLINE
  8
0
  6
CONTINUOUS
 66
     1
 40
0.000000
 41
0.000000
  0
VERTEX
  8
0
  6
CONTINUOUS
 10
4.128520
 20
3.087920
  0
VERTEX
  8
0
  6
CONTINUOUS
 10
4.777080
 20
2.698520
  0
VERTEX
  8
0
  6
CONTINUOUS
 10
4.732640
 20
2.647040
  0
VERTEX
  8
0
  6
CONTINUOUS
 10
4.084520
 20
3.036000
  0
VERTEX
  8
0
  6
CONTINUOUS
 10
4.128520
 20
3.087920
  0
SEQEND
  8
0
  0
SOLID
  8
0
 62
    15
 10
4.084520
 20
3.036000
 11
4.732640
 21
2.647040
 12
4.027760
 22
2.992000
 13
4.676320
 23
2.602600
  0
POLYLINE
  8
0
  6
CONTINUOUS
 66
     1
 40
0.000000
 41
0.000000
  0
VERTEX
  8
0
  6
CONTINUOUS
 10
4.084520
 20
3.036000
  0
VERTEX
  8
0
  6
CONTINUOUS
 10
4.732640
 20
2.647040
  0
VERTEX
  8
0
  6
CONTINUOUS
 10
4.676320
 20
2.602600
  0
VERTEX
  8
0
  6
CONTINUOUS
 10
4.027760
 20
2.992000
  0
VERTEX
  8
0
  6
CONTINUOUS
 10
4.084520
 20
3.036000
  0
SEQEND
  8
0
  0
SOLID
  8
0
 62
    15
 10
4.027760
 20
2.992000
 11
4.676320
 21
2.602600
 12
3.959120
 22
2.957240
 13
4.607240
 23
2.568280
  0
POLYLINE
  8
0
  6
CONTINUOUS
 66
     1
 40
0.000000
 41
0.000000
  0
VERTEX
  8
0
  6
CONTINUOUS
 10
4.027760
 20
2.992000
  0
VERTEX
  8
0
  6
CONTINUOUS
 10
4.676320
 20
2.602600
  0
VERTEX
  8
0
  6
CONTINUOUS
 10
4.607240
 20
2.568280
  0
VERTEX
  8
0
  6
CONTINUOUS
 10
3.959120
 20
2.957240
  0
VERTEX
  8
0
  6
CONTINUOUS
 10
4.027760
 20
2.992000
  0
SEQEND
  8
0
  0
SOLID
  8
0
 62
    15
 10
3.959120
 20
2.957240
 11
4.607240
 21
2.568280
 12
3.919960
 22
2.944040
 13
4.568080
 23
2.554640
  0
POLYLINE
  8
0
  6
CONTINUOUS
 66
     1
 40
0.000000
 41
0.000000
  0
VERTEX
  8
0
  6
CONTINUOUS
 10
3.959120
 20
2.957240
  0
VERTEX
  8
0
  6
CONTINUOUS
 10
4.607240
 20
2.568280
  0
VERTEX
  8
0
  6
CONTINUOUS
 10
4.568080
 20
2.554640
  0
VERTEX
  8
0
  6
CONTINUOUS
 10
3.919960
 20
2.944040
  0
VERTEX
  8
0
  6
CONTINUOUS
 10
3.959120
 20
2.957240
  0
SEQEND
  8
0
  0
SOLID
  8
0
 62
    15
 10
3.919960
 20
2.944040
 11
4.568080
 21
2.554640
 12
3.877280
 22
2.933920
 13
4.525840
 23
2.544520
  0
POLYLINE
  8
0
  6
CONTINUOUS
 66
     1
 40
0.000000
 41
0.000000
  0
VERTEX
  8
0
  6
CONTINUOUS
 10
3.919960
 20
2.944040
  0
VERTEX
  8
0
  6
CONTINUOUS
 10
4.568080
 20
2.554640
  0
VERTEX
  8
0
  6
CONTINUOUS
 10
4.525840
 20
2.544520
  0
VERTEX
  8
0
  6
CONTINUOUS
 10
3.877280
 20
2.933920
  0
VERTEX
  8
0
  6
CONTINUOUS
 10
3.919960
 20
2.944040
  0
SEQEND
  8
0
  0
SOLID
  8
0
 62
    15
 10
3.877280
 20
2.933920
 11
4.525840
 21
2.544520
 12
3.877280
 22
2.821280
 13
4.525840
 23
2.432320
  0
POLYLINE
  8
0
  6
CONTINUOUS
 66
     1
 40
0.000000
 41
0.000000
  0
VERTEX
  8
0
  6
CONTINUOUS
 10
3.877280
 20
2.933920
  0
VERTEX
  8
0
  6
CONTINUOUS
 10
4.525840
 20
2.544520
  0
VERTEX
  8
0
  6
CONTINUOUS
 10
4.525840
 20
2.432320
  0
VERTEX
  8
0
  6
CONTINUOUS
 10
3.877280
 20
2.821280
  0
VERTEX
  8
0
  6
CONTINUOUS
 10
3.877280
 20
2.933920
  0
SEQEND
  8
0
  0
SOLID
  8
0
 62
    15
 10
3.877280
 20
2.821280
 11
4.525840
 21
2.432320
 12
3.854840
 22
2.813360
 13
4.503400
 23
2.424400
  0
POLYLINE
  8
0
  6
CONTINUOUS
 66
     1
 40
0.000000
 41
0.000000
  0
VERTEX
  8
0
  6
CONTINUOUS
 10
3.877280
 20
2.821280
  0
VERTEX
  8
0
  6
CONTINUOUS
 10
4.525840
 20
2.432320
  0
VERTEX
  8
0
  6
CONTINUOUS
 10
4.503400
 20
2.424400
  0
VERTEX
  8
0
  6
CONTINUOUS
 10
3.854840
 20
2.813360
  0
VERTEX
  8
0
  6
CONTINUOUS
 10
3.877280
 20
2.821280
  0
SEQEND
  8
0
  0
SOLID
  8
0
 62
    15
 10
3.854840
 20
2.813360
 11
4.503400
 21
2.424400
 12
3.830640
 22
2.800600
 13
4.478760
 23
2.411200
  0
POLYLINE
  8
0
  6
CONTINUOUS
 66
     1
 40
0.000000
 41
0.000000
  0
VERTEX
  8
0
  6
CONTINUOUS
 10
3.854840
 20
2.813360
  0
VERTEX
  8
0
  6
CONTINUOUS
 10
4.503400
 20
2.424400
  0
VERTEX
  8
0
  6
CONTINUOUS
 10
4.478760
 20
2.411200
  0
VERTEX
  8
0
  6
CONTINUOUS
 10
3.830640
 20
2.800600
  0
VERTEX
  8
0
  6
CONTINUOUS
 10
3.854840
 20
2.813360
  0
SEQEND
  8
0
  0
SOLID
  8
0
 62
    15
 10
3.830640
 20
2.800600
 11
4.478760
 21
2.411200
 12
3.806000
 22
2.781240
 13
4.454120
 23
2.391840
  0
POLYLINE
  8
0
  6
CONTINUOUS
 66
     1
 40
0.000000
 41
0.000000
  0
VERTEX
  8
0
  6
CONTINUOUS
 10
3.830640
 20
2.800600
  0
VERTEX
  8
0
  6
CONTINUOUS
 10
4.478760
 20
2.411200
  0
VERTEX
  8
0
  6
CONTINUOUS
 10
4.454120
 20
2.391840
  0
VERTEX
  8
0
  6
CONTINUOUS
 10
3.806000
 20
2.781240
  0
VERTEX
  8
0
  6
CONTINUOUS
 10
3.830640
 20
2.800600
  0
SEQEND
  8
0
  0
SOLID
  8
0
 62
    15
 10
3.806000
 20
2.781240
 11
4.454120
 21
2.391840
 12
3.782240
 22
2.754400
 13
4.430800
 23
2.365440
  0
POLYLINE
  8
0
  6
CONTINUOUS
 66
     1
 40
0.000000
 41
0.000000
  0
VERTEX
  8
0
  6
CONTINUOUS
 10
3.806000
 20
2.781240
  0
VERTEX
  8
0
  6
CONTINUOUS
 10
4.454120
 20
2.391840
  0
VERTEX
  8
0
  6
CONTINUOUS
 10
4.430800
 20
2.365440
  0
VERTEX
  8
0
  6
CONTINUOUS
 10
3.782240
 20
2.754400
  0
VERTEX
  8
0
  6
CONTINUOUS
 10
3.806000
 20
2.781240
  0
SEQEND
  8
0
  0
SOLID
  8
0
 62
    15
 10
3.782240
 20
2.754400
 11
4.430800
 21
2.365440
 12
3.761560
 22
2.719640
 13
4.409680
 23
2.330240
  0
POLYLINE
  8
0
  6
CONTINUOUS
 66
     1
 40
0.000000
 41
0.000000
  0
VERTEX
  8
0
  6
CONTINUOUS
 10
3.782240
 20
2.754400
  0
VERTEX
  8
0
  6
CONTINUOUS
 10
4.430800
 20
2.365440
  0
VERTEX
  8
0
  6
CONTINUOUS
 10
4.409680
 20
2.330240
  0
VERTEX
  8
0
  6
CONTINUOUS
 10
3.761560
 20
2.719640
  0
VERTEX
  8
0
  6
CONTINUOUS
 10
3.782240
 20
2.754400
  0
SEQEND
  8
0
  0
SOLID
  8
0
 62
    15
 10
3.761560
 20
2.719640
 11
4.409680
 21
2.330240
 12
3.744840
 22
2.675200
 13
4.392960
 23
2.286240
  0
POLYLINE
  8
0
  6
CONTINUOUS
 66
     1
 40
0.000000
 41
0.000000
  0
VERTEX
  8
0
  6
CONTINUOUS
 10
3.761560
 20
2.719640
  0
VERTEX
  8
0
  6
CONTINUOUS
 10
4.409680
 20
2.330240
  0
VERTEX
  8
0
  6
CONTINUOUS
 10
4.392960
 20
2.286240
  0
VERTEX
  8
0
  6
CONTINUOUS
 10
3.744840
 20
2.675200
  0
VERTEX
  8
0
  6
CONTINUOUS
 10
3.761560
 20
2.719640
  0
SEQEND
  8
0
  0
SOLID
  8
0
 62
    15
 10
3.744840
 20
2.675200
 11
4.392960
 21
2.286240
 12
3.733400
 22
2.620640
 13
4.381960
 23
2.231240
  0
POLYLINE
  8
0
  6
CONTINUOUS
 66
     1
 40
0.000000
 41
0.000000
  0
VERTEX
  8
0
  6
CONTINUOUS
 10
3.744840
 20
2.675200
  0
VERTEX
  8
0
  6
CONTINUOUS
 10
4.392960
 20
2.286240
  0
VERTEX
  8
0
  6
CONTINUOUS
 10
4.381960
 20
2.231240
  0
VERTEX
  8
0
  6
CONTINUOUS
 10
3.733400
 20
2.620640
  0
VERTEX
  8
0
  6
CONTINUOUS
 10
3.744840
 20
2.675200
  0
SEQEND
  8
0
  0
SOLID
  8
0
 62
    15
 10
3.733400
 20
2.620640
 11
4.381960
 21
2.231240
 12
3.729440
 22
2.554200
 13
4.378000
 23
2.165240
  0
POLYLINE
  8
0
  6
CONTINUOUS
 66
     1
 40
0.000000
 41
0.000000
  0
VERTEX
  8
0
  6
CONTINUOUS
 10
3.733400
 20
2.620640
  0
VERTEX
  8
0
  6
CONTINUOUS
 10
4.381960
 20
2.231240
  0
VERTEX
  8
0
  6
CONTINUOUS
 10
4.378000
 20
2.165240
  0
VERTEX
  8
0
  6
CONTINUOUS
 10
3.729440
 20
2.554200
  0
VERTEX
  8
0
  6
CONTINUOUS
 10
3.733400
 20
2.620640
  0
SEQEND
  8
0
  0
SOLID
  8
0
 62
    15
 10
3.729440
 20
2.554200
 11
4.378000
 21
2.165240
 12
3.727680
 22
2.544080
 13
4.375800
 23
2.154680
  0
POLYLINE
  8
0
  6
CONTINUOUS
 66
     1
 40
0.000000
 41
0.000000
  0
VERTEX
  8
0
  6
CONTINUOUS
 10
3.729440
 20
2.554200
  0
VERTEX
  8
0
  6
CONTINUOUS
 10
4.378000
 20
2.165240
  0
VERTEX
  8
0
  6
CONTINUOUS
 10
4.375800
 20
2.154680
  0
VERTEX
  8
0
  6
CONTINUOUS
 10
3.727680
 20
2.544080
  0
VERTEX
  8
0
  6
CONTINUOUS
 10
3.729440
 20
2.554200
  0
SEQEND
  8
0
  0
SOLID
  8
0
 62
    15
 10
3.727680
 20
2.544080
 11
4.375800
 21
2.154680
 12
3.726360
 22
2.536600
 13
4.374920
 23
2.147200
  0
POLYLINE
  8
0
  6
CONTINUOUS
 66
     1
 40
0.000000
 41
0.000000
  0
VERTEX
  8
0
  6
CONTINUOUS
 10
3.727680
 20
2.544080
  0
VERTEX
  8
0
  6
CONTINUOUS
 10
4.375800
 20
2.154680
  0
VERTEX
  8
0
  6
CONTINUOUS
 10
4.374920
 20
2.147200
  0
VERTEX
  8
0
  6
CONTINUOUS
 10
3.726360
 20
2.536600
  0
VERTEX
  8
0
  6
CONTINUOUS
 10
3.727680
 20
2.544080
  0
SEQEND
  8
0
  0
SOLID
  8
0
 62
    15
 10
3.726360
 20
2.536600
 11
4.374920
 21
2.147200
 12
3.721960
 22
2.526040
 13
4.370520
 23
2.137080
  0
POLYLINE
  8
0
  6
CONTINUOUS
 66
     1
 40
0.000000
 41
0.000000
  0
VERTEX
  8
0
  6
CONTINUOUS
 10
3.726360
 20
2.536600
  0
VERTEX
  8
0
  6
CONTINUOUS
 10
4.374920
 20
2.147200
  0
VERTEX
  8
0
  6
CONTINUOUS
 10
4.370520
 20
2.137080
  0
VERTEX
  8
0
  6
CONTINUOUS
 10
3.721960
 20
2.526040
  0
VERTEX
  8
0
  6
CONTINUOUS
 10
3.726360
 20
2.536600
  0
SEQEND
  8
0
  0
SOLID
  8
0
 62
    15
 10
3.721960
 20
2.526040
 11
4.370520
 21
2.137080
 12
3.706560
 22
2.518560
 13
4.355120
 23
2.129600
  0
POLYLINE
  8
0
  6
CONTINUOUS
 66
     1
 40
0.000000
 41
0.000000
  0
VERTEX
  8
0
  6
CONTINUOUS
 10
3.721960
 20
2.526040
  0
VERTEX
  8
0
  6
CONTINUOUS
 10
4.370520
 20
2.137080
  0
VERTEX
  8
0
  6
CONTINUOUS
 10
4.355120
 20
2.129600
  0
VERTEX
  8
0
  6
CONTINUOUS
 10
3.706560
 20
2.518560
  0
VERTEX
  8
0
  6
CONTINUOUS
 10
3.721960
 20
2.526040
  0
SEQEND
  8
0
  0
SOLID
  8
0
 62
    15
 10
3.706560
 20
2.518560
 11
4.355120
 21
2.129600
 12
3.692040
 22
2.514160
 13
4.340160
 23
2.124760
  0
POLYLINE
  8
0
  6
CONTINUOUS
 66
     1
 40
0.000000
 41
0.000000
  0
VERTEX
  8
0
  6
CONTINUOUS
 10
3.706560
 20
2.518560
  0
VERTEX
  8
0
  6
CONTINUOUS
 10
4.355120
 20
2.129600
  0
VERTEX
  8
0
  6
CONTINUOUS
 10
4.340160
 20
2.124760
  0
VERTEX
  8
0
  6
CONTINUOUS
 10
3.692040
 20
2.514160
  0
VERTEX
  8
0
  6
CONTINUOUS
 10
3.706560
 20
2.518560
  0
SEQEND
  8
0
  0
SOLID
  8
0
 62
    15
 10
3.692040
 20
2.514160
 11
4.340160
 21
2.124760
 12
3.670920
 22
2.508440
 13
4.319040
 23
2.119040
  0
POLYLINE
  8
0
  6
CONTINUOUS
 66
     1
 40
0.000000
 41
0.000000
  0
VERTEX
  8
0
  6
CONTINUOUS
 10
3.692040
 20
2.514160
  0
VERTEX
  8
0
  6
CONTINUOUS
 10
4.340160
 20
2.124760
  0
VERTEX
  8
0
  6
CONTINUOUS
 10
4.319040
 20
2.119040
  0
VERTEX
  8
0
  6
CONTINUOUS
 10
3.670920
 20
2.508440
  0
VERTEX
  8
0
  6
CONTINUOUS
 10
3.692040
 20
2.514160
  0
SEQEND
  8
0
  0
SOLID
  8
0
 62
    15
 10
3.704800
 20
2.494360
 11
4.352920
 21
2.104960
 12
3.733840
 22
2.472360
 13
4.381960
 23
2.082960
  0
POLYLINE
  8
0
  6
CONTINUOUS
 66
     1
 40
0.000000
 41
0.000000
  0
VERTEX
  8
0
  6
CONTINUOUS
 10
3.704800
 20
2.494360
  0
VERTEX
  8
0
  6
CONTINUOUS
 10
4.352920
 20
2.104960
  0
VERTEX
  8
0
  6
CONTINUOUS
 10
4.381960
 20
2.082960
  0
VERTEX
  8
0
  6
CONTINUOUS
 10
3.733840
 20
2.472360
  0
VERTEX
  8
0
  6
CONTINUOUS
 10
3.704800
 20
2.494360
  0
SEQEND
  8
0
  0
SOLID
  8
0
 62
    15
 10
3.733840
 20
2.472360
 11
4.381960
 21
2.082960
 12
3.754960
 22
2.445080
 13
4.403520
 23
2.055680
  0
POLYLINE
  8
0
  6
CONTINUOUS
 66
     1
 40
0.000000
 41
0.000000
  0
VERTEX
  8
0
  6
CONTINUOUS
 10
3.733840
 20
2.472360
  0
VERTEX
  8
0
  6
CONTINUOUS
 10
4.381960
 20
2.082960
  0
VERTEX
  8
0
  6
CONTINUOUS
 10
4.403520
 20
2.055680
  0
VERTEX
  8
0
  6
CONTINUOUS
 10
3.754960
 20
2.445080
  0
VERTEX
  8
0
  6
CONTINUOUS
 10
3.733840
 20
2.472360
  0
SEQEND
  8
0
  0
SOLID
  8
0
 62
    15
 10
3.754960
 20
2.445080
 11
4.403520
 21
2.055680
 12
3.766840
 22
2.414720
 13
4.415400
 23
2.025320
  0
POLYLINE
  8
0
  6
CONTINUOUS
 66
     1
 40
0.000000
 41
0.000000
  0
VERTEX
  8
0
  6
CONTINUOUS
 10
3.754960
 20
2.445080
  0
VERTEX
  8
0
  6
CONTINUOUS
 10
4.403520
 20
2.055680
  0
VERTEX
  8
0
  6
CONTINUOUS
 10
4.415400
 20
2.025320
  0
VERTEX
  8
0
  6
CONTINUOUS
 10
3.766840
 20
2.414720
  0
VERTEX
  8
0
  6
CONTINUOUS
 10
3.754960
 20
2.445080
  0
SEQEND
  8
0
  0
SOLID
  8
0
 62
    15
 10
3.766840
 20
2.414720
 11
4.415400
 21
2.025320
 12
3.766400
 22
2.383480
 13
4.414960
 23
1.994080
  0
POLYLINE
  8
0
  6
CONTINUOUS
 66
     1
 40
0.000000
 41
0.000000
  0
VERTEX
  8
0
  6
CONTINUOUS
 10
3.766840
 20
2.414720
  0
VERTEX
  8
0
  6
CONTINUOUS
 10
4.415400
 20
2.025320
  0
VERTEX
  8
0
  6
CONTINUOUS
 10
4.414960
 20
1.994080
  0
VERTEX
  8
0
  6
CONTINUOUS
 10
3.766400
 20
2.383480
  0
VERTEX
  8
0
  6
CONTINUOUS
 10
3.766840
 20
2.414720
  0
SEQEND
  8
0
  0
SOLID
  8
0
 62
    15
 10
3.766400
 20
2.383480
 11
4.414960
 21
1.994080
 12
3.751440
 22
2.354000
 13
4.400000
 23
1.964600
  0
POLYLINE
  8
0
  6
CONTINUOUS
 66
     1
 40
0.000000
 41
0.000000
  0
VERTEX
  8
0
  6
CONTINUOUS
 10
3.766400
 20
2.383480
  0
VERTEX
  8
0
  6
CONTINUOUS
 10
4.414960
 20
1.994080
  0
VERTEX
  8
0
  6
CONTINUOUS
 10
4.400000
 20
1.964600
  0
VERTEX
  8
0
  6
CONTINUOUS
 10
3.751440
 20
2.354000
  0
VERTEX
  8
0
  6
CONTINUOUS
 10
3.766400
 20
2.383480
  0
SEQEND
  8
0
  0
SOLID
  8
0
 62
    15
 10
4.016760
 20
3.609760
 11
4.665320
 21
3.220360
 12
4.071760
 22
3.567520
 13
4.720320
 23
3.178560
  0
POLYLINE
  8
0
  6
CONTINUOUS
 66
     1
 40
0.000000
 41
0.000000
  0
VERTEX
  8
0
  6
CONTINUOUS
 10
4.016760
 20
3.609760
  0
VERTEX
  8
0
  6
CONTINUOUS
 10
4.665320
 20
3.220360
  0
VERTEX
  8
0
  6
CONTINUOUS
 10
4.720320
 20
3.178560
  0
VERTEX
  8
0
  6
CONTINUOUS
 10
4.071760
 20
3.567520
  0
VERTEX
  8
0
  6
CONTINUOUS
 10
4.016760
 20
3.609760
  0
SEQEND
  8
0
  0
SOLID
  8
0
 62
    15
 10
3.737800
 20
2.340360
 11
4.386360
 21
1.950960
 12
3.719760
 22
2.328040
 13
4.368320
 23
1.938640
  0
POLYLINE
  8
0
  6
CONTINUOUS
 66
     1
 40
0.000000
 41
0.000000
  0
VERTEX
  8
0
  6
CONTINUOUS
 10
3.737800
 20
2.340360
  0
VERTEX
  8
0
  6
CONTINUOUS
 10
4.386360
 20
1.950960
  0
VERTEX
  8
0
  6
CONTINUOUS
 10
4.368320
 20
1.938640
  0
VERTEX
  8
0
  6
CONTINUOUS
 10
3.719760
 20
2.328040
  0
VERTEX
  8
0
  6
CONTINUOUS
 10
3.737800
 20
2.340360
  0
SEQEND
  8
0
  0
SOLID
  8
0
 62
    15
 10
3.719760
 20
2.328040
 11
4.368320
 21
1.938640
 12
3.696880
 22
2.317040
 13
4.345440
 23
1.928080
  0
POLYLINE
  8
0
  6
CONTINUOUS
 66
     1
 40
0.000000
 41
0.000000
  0
VERTEX
  8
0
  6
CONTINUOUS
 10
3.719760
 20
2.328040
  0
VERTEX
  8
0
  6
CONTINUOUS
 10
4.368320
 20
1.938640
  0
VERTEX
  8
0
  6
CONTINUOUS
 10
4.345440
 20
1.928080
  0
VERTEX
  8
0
  6
CONTINUOUS
 10
3.696880
 20
2.317040
  0
VERTEX
  8
0
  6
CONTINUOUS
 10
3.719760
 20
2.328040
  0
SEQEND
  8
0
  0
SOLID
  8
0
 62
    15
 10
3.696880
 20
2.317040
 11
4.345440
 21
1.928080
 12
3.668720
 22
2.308240
 13
4.317280
 23
1.919280
  0
POLYLINE
  8
0
  6
CONTINUOUS
 66
     1
 40
0.000000
 41
0.000000
  0
VERTEX
  8
0
  6
CONTINUOUS
 10
3.696880
 20
2.317040
  0
VERTEX
  8
0
  6
CONTINUOUS
 10
4.345440
 20
1.928080
  0
VERTEX
  8
0
  6
CONTINUOUS
 10
4.317280
 20
1.919280
  0
VERTEX
  8
0
  6
CONTINUOUS
 10
3.668720
 20
2.308240
  0
VERTEX
  8
0
  6
CONTINUOUS
 10
3.696880
 20
2.317040
  0
SEQEND
  8
0
  0
SOLID
  8
0
 62
    15
 10
3.707000
 20
2.290200
 11
4.355560
 21
1.901240
 12
3.735160
 22
2.265560
 13
4.383720
 23
1.876160
  0
POLYLINE
  8
0
  6
CONTINUOUS
 66
     1
 40
0.000000
 41
0.000000
  0
VERTEX
  8
0
  6
CONTINUOUS
 10
3.707000
 20
2.290200
  0
VERTEX
  8
0
  6
CONTINUOUS
 10
4.355560
 20
1.901240
  0
VERTEX
  8
0
  6
CONTINUOUS
 10
4.383720
 20
1.876160
  0
VERTEX
  8
0
  6
CONTINUOUS
 10
3.735160
 20
2.265560
  0
VERTEX
  8
0
  6
CONTINUOUS
 10
3.707000
 20
2.290200
  0
SEQEND
  8
0
  0
SOLID
  8
0
 62
    15
 10
3.735160
 20
2.265560
 11
4.383720
 21
1.876160
 12
3.752760
 22
2.236520
 13
4.400880
 23
1.847120
  0
POLYLINE
  8
0
  6
CONTINUOUS
 66
     1
 40
0.000000
 41
0.000000
  0
VERTEX
  8
0
  6
CONTINUOUS
 10
3.735160
 20
2.265560
  0
VERTEX
  8
0
  6
CONTINUOUS
 10
4.383720
 20
1.876160
  0
VERTEX
  8
0
  6
CONTINUOUS
 10
4.400880
 20
1.847120
  0
VERTEX
  8
0
  6
CONTINUOUS
 10
3.752760
 20
2.236520
  0
VERTEX
  8
0
  6
CONTINUOUS
 10
3.735160
 20
2.265560
  0
SEQEND
  8
0
  0
SOLID
  8
0
 62
    15
 10
3.752760
 20
2.236520
 11
4.400880
 21
1.847120
 12
3.758040
 22
2.205280
 13
4.406160
 23
1.816320
  0
POLYLINE
  8
0
  6
CONTINUOUS
 66
     1
 40
0.000000
 41
0.000000
  0
VERTEX
  8
0
  6
CONTINUOUS
 10
3.752760
 20
2.236520
  0
VERTEX
  8
0
  6
CONTINUOUS
 10
4.400880
 20
1.847120
  0
VERTEX
  8
0
  6
CONTINUOUS
 10
4.406160
 20
1.816320
  0
VERTEX
  8
0
  6
CONTINUOUS
 10
3.758040
 20
2.205280
  0
VERTEX
  8
0
  6
CONTINUOUS
 10
3.752760
 20
2.236520
  0
SEQEND
  8
0
  0
SOLID
  8
0
 62
    15
 10
3.758040
 20
2.205280
 11
4.406160
 21
1.816320
 12
3.750120
 22
2.174920
 13
4.398680
 23
1.785520
  0
POLYLINE
  8
0
  6
CONTINUOUS
 66
     1
 40
0.000000
 41
0.000000
  0
VERTEX
  8
0
  6
CONTINUOUS
 10
3.758040
 20
2.205280
  0
VERTEX
  8
0
  6
CONTINUOUS
 10
4.406160
 20
1.816320
  0
VERTEX
  8
0
  6
CONTINUOUS
 10
4.398680
 20
1.785520
  0
VERTEX
  8
0
  6
CONTINUOUS
 10
3.750120
 20
2.174920
  0
VERTEX
  8
0
  6
CONTINUOUS
 10
3.758040
 20
2.205280
  0
SEQEND
  8
0
  0
SOLID
  8
0
 62
    15
 10
3.750120
 20
2.174920
 11
4.398680
 21
1.785520
 12
3.728120
 22
2.147640
 13
4.376680
 23
1.758240
  0
POLYLINE
  8
0
  6
CONTINUOUS
 66
     1
 40
0.000000
 41
0.000000
  0
VERTEX
  8
0
  6
CONTINUOUS
 10
3.750120
 20
2.174920
  0
VERTEX
  8
0
  6
CONTINUOUS
 10
4.398680
 20
1.785520
  0
VERTEX
  8
0
  6
CONTINUOUS
 10
4.376680
 20
1.758240
  0
VERTEX
  8
0
  6
CONTINUOUS
 10
3.728120
 20
2.147640
  0
VERTEX
  8
0
  6
CONTINUOUS
 10
3.750120
 20
2.174920
  0
SEQEND
  8
0
  0
SOLID
  8
0
 62
    15
 10
3.728120
 20
2.147640
 11
4.376680
 21
1.758240
 12
3.711840
 22
2.135760
 13
4.359960
 23
1.746800
  0
POLYLINE
  8
0
  6
CONTINUOUS
 66
     1
 40
0.000000
 41
0.000000
  0
VERTEX
  8
0
  6
CONTINUOUS
 10
3.728120
 20
2.147640
  0
VERTEX
  8
0
  6
CONTINUOUS
 10
4.376680
 20
1.758240
  0
VERTEX
  8
0
  6
CONTINUOUS
 10
4.359960
 20
1.746800
  0
VERTEX
  8
0
  6
CONTINUOUS
 10
3.711840
 20
2.135760
  0
VERTEX
  8
0
  6
CONTINUOUS
 10
3.728120
 20
2.147640
  0
SEQEND
  8
0
  0
SOLID
  8
0
 62
    15
 10
3.711840
 20
2.135760
 11
4.359960
 21
1.746800
 12
3.691160
 22
2.125640
 13
4.339280
 23
1.736680
  0
POLYLINE
  8
0
  6
CONTINUOUS
 66
     1
 40
0.000000
 41
0.000000
  0
VERTEX
  8
0
  6
CONTINUOUS
 10
3.711840
 20
2.135760
  0
VERTEX
  8
0
  6
CONTINUOUS
 10
4.359960
 20
1.746800
  0
VERTEX
  8
0
  6
CONTINUOUS
 10
4.339280
 20
1.736680
  0
VERTEX
  8
0
  6
CONTINUOUS
 10
3.691160
 20
2.125640
  0
VERTEX
  8
0
  6
CONTINUOUS
 10
3.711840
 20
2.135760
  0
SEQEND
  8
0
  0
SOLID
  8
0
 62
    15
 10
3.691160
 20
2.125640
 11
4.339280
 21
1.736680
 12
3.666520
 22
2.117720
 13
4.314640
 23
1.728320
  0
POLYLINE
  8
0
  6
CONTINUOUS
 66
     1
 40
0.000000
 41
0.000000
  0
VERTEX
  8
0
  6
CONTINUOUS
 10
3.691160
 20
2.125640
  0
VERTEX
  8
0
  6
CONTINUOUS
 10
4.339280
 20
1.736680
  0
VERTEX
  8
0
  6
CONTINUOUS
 10
4.314640
 20
1.728320
  0
VERTEX
  8
0
  6
CONTINUOUS
 10
3.666520
 20
2.117720
  0
VERTEX
  8
0
  6
CONTINUOUS
 10
3.691160
 20
2.125640
  0
SEQEND
  8
0
  0
SOLID
  8
0
 62
    15
 10
3.666520
 20
2.117720
 11
4.314640
 21
1.728320
 12
3.637480
 22
2.112000
 13
4.286040
 23
1.722600
  0
POLYLINE
  8
0
  6
CONTINUOUS
 66
     1
 40
0.000000
 41
0.000000
  0
VERTEX
  8
0
  6
CONTINUOUS
 10
3.666520
 20
2.117720
  0
VERTEX
  8
0
  6
CONTINUOUS
 10
4.314640
 20
1.728320
  0
VERTEX
  8
0
  6
CONTINUOUS
 10
4.286040
 20
1.722600
  0
VERTEX
  8
0
  6
CONTINUOUS
 10
3.637480
 20
2.112000
  0
VERTEX
  8
0
  6
CONTINUOUS
 10
3.666520
 20
2.117720
  0
SEQEND
  8
0
  0
SOLID
  8
0
 62
    15
 10
3.674440
 20
2.097040
 11
4.323000
 21
1.708080
 12
3.706560
 22
2.074600
 13
4.355120
 23
1.685640
  0
POLYLINE
  8
0
  6
CONTINUOUS
 66
     1
 40
0.000000
 41
0.000000
  0
VERTEX
  8
0
  6
CONTINUOUS
 10
3.674440
 20
2.097040
  0
VERTEX
  8
0
  6
CONTINUOUS
 10
4.323000
 20
1.708080
  0
VERTEX
  8
0
  6
CONTINUOUS
 10
4.355120
 20
1.685640
  0
VERTEX
  8
0
  6
CONTINUOUS
 10
3.706560
 20
2.074600
  0
VERTEX
  8
0
  6
CONTINUOUS
 10
3.674440
 20
2.097040
  0
SEQEND
  8
0
  0
SOLID
  8
0
 62
    15
 10
3.706560
 20
2.074600
 11
4.355120
 21
1.685640
 12
3.730760
 22
2.047320
 13
4.378880
 23
1.657920
  0
POLYLINE
  8
0
  6
CONTINUOUS
 66
     1
 40
0.000000
 41
0.000000
  0
VERTEX
  8
0
  6
CONTINUOUS
 10
3.706560
 20
2.074600
  0
VERTEX
  8
0
  6
CONTINUOUS
 10
4.355120
 20
1.685640
  0
VERTEX
  8
0
  6
CONTINUOUS
 10
4.378880
 20
1.657920
  0
VERTEX
  8
0
  6
CONTINUOUS
 10
3.730760
 20
2.047320
  0
VERTEX
  8
0
  6
CONTINUOUS
 10
3.706560
 20
2.074600
  0
SEQEND
  8
0
  0
SOLID
  8
0
 62
    15
 10
3.730760
 20
2.047320
 11
4.378880
 21
1.657920
 12
3.743960
 22
2.016520
 13
4.392520
 23
1.627120
  0
POLYLINE
  8
0
  6
CONTINUOUS
 66
     1
 40
0.000000
 41
0.000000
  0
VERTEX
  8
0
  6
CONTINUOUS
 10
3.730760
 20
2.047320
  0
VERTEX
  8
0
  6
CONTINUOUS
 10
4.378880
 20
1.657920
  0
VERTEX
  8
0
  6
CONTINUOUS
 10
4.392520
 20
1.627120
  0
VERTEX
  8
0
  6
CONTINUOUS
 10
3.743960
 20
2.016520
  0
VERTEX
  8
0
  6
CONTINUOUS
 10
3.730760
 20
2.047320
  0
SEQEND
  8
0
  0
SOLID
  8
0
 62
    15
 10
3.743960
 20
2.016520
 11
4.392520
 21
1.627120
 12
3.744400
 22
1.984400
 13
4.392520
 23
1.595440
  0
POLYLINE
  8
0
  6
CONTINUOUS
 66
     1
 40
0.000000
 41
0.000000
  0
VERTEX
  8
0
  6
CONTINUOUS
 10
3.743960
 20
2.016520
  0
VERTEX
  8
0
  6
CONTINUOUS
 10
4.392520
 20
1.627120
  0
VERTEX
  8
0
  6
CONTINUOUS
 10
4.392520
 20
1.595440
  0
VERTEX
  8
0
  6
CONTINUOUS
 10
3.744400
 20
1.984400
  0
VERTEX
  8
0
  6
CONTINUOUS
 10
3.743960
 20
2.016520
  0
SEQEND
  8
0
  0
SOLID
  8
0
 62
    15
 10
3.744400
 20
1.984400
 11
4.392520
 21
1.595440
 12
3.738240
 22
1.969000
 13
4.386800
 23
1.579600
  0
POLYLINE
  8
0
  6
CONTINUOUS
 66
     1
 40
0.000000
 41
0.000000
  0
VERTEX
  8
0
  6
CONTINUOUS
 10
3.744400
 20
1.984400
  0
VERTEX
  8
0
  6
CONTINUOUS
 10
4.392520
 20
1.595440
  0
VERTEX
  8
0
  6
CONTINUOUS
 10
4.386800
 20
1.579600
  0
VERTEX
  8
0
  6
CONTINUOUS
 10
3.738240
 20
1.969000
  0
VERTEX
  8
0
  6
CONTINUOUS
 10
3.744400
 20
1.984400
  0
SEQEND
  8
0
  0
SOLID
  8
0
 62
    15
 10
3.738240
 20
1.969000
 11
4.386800
 21
1.579600
 12
3.728120
 22
1.953600
 13
4.376240
 23
1.564640
  0
POLYLINE
  8
0
  6
CONTINUOUS
 66
     1
 40
0.000000
 41
0.000000
  0
VERTEX
  8
0
  6
CONTINUOUS
 10
3.738240
 20
1.969000
  0
VERTEX
  8
0
  6
CONTINUOUS
 10
4.386800
 20
1.579600
  0
VERTEX
  8
0
  6
CONTINUOUS
 10
4.376240
 20
1.564640
  0
VERTEX
  8
0
  6
CONTINUOUS
 10
3.728120
 20
1.953600
  0
VERTEX
  8
0
  6
CONTINUOUS
 10
3.738240
 20
1.969000
  0
SEQEND
  8
0
  0
SOLID
  8
0
 62
    15
 10
3.728120
 20
1.953600
 11
4.376240
 21
1.564640
 12
3.713160
 22
1.939520
 13
4.361280
 23
1.550560
  0
POLYLINE
  8
0
  6
CONTINUOUS
 66
     1
 40
0.000000
 41
0.000000
  0
VERTEX
  8
0
  6
CONTINUOUS
 10
3.728120
 20
1.953600
  0
VERTEX
  8
0
  6
CONTINUOUS
 10
4.376240
 20
1.564640
  0
VERTEX
  8
0
  6
CONTINUOUS
 10
4.361280
 20
1.550560
  0
VERTEX
  8
0
  6
CONTINUOUS
 10
3.713160
 20
1.939520
  0
VERTEX
  8
0
  6
CONTINUOUS
 10
3.728120
 20
1.953600
  0
SEQEND
  8
0
  0
SOLID
  8
0
 62
    15
 10
3.713160
 20
1.939520
 11
4.361280
 21
1.550560
 12
3.692920
 22
1.926320
 13
4.341040
 23
1.537360
  0
POLYLINE
  8
0
  6
CONTINUOUS
 66
     1
 40
0.000000
 41
0.000000
  0
VERTEX
  8
0
  6
CONTINUOUS
 10
3.713160
 20
1.939520
  0
VERTEX
  8
0
  6
CONTINUOUS
 10
4.361280
 20
1.550560
  0
VERTEX
  8
0
  6
CONTINUOUS
 10
4.341040
 20
1.537360
  0
VERTEX
  8
0
  6
CONTINUOUS
 10
3.692920
 20
1.926320
  0
VERTEX
  8
0
  6
CONTINUOUS
 10
3.713160
 20
1.939520
  0
SEQEND
  8
0
  0
SOLID
  8
0
 62
    15
 10
3.692920
 20
1.926320
 11
4.341040
 21
1.537360
 12
3.667400
 22
1.914440
 13
4.315520
 23
1.525480
  0
POLYLINE
  8
0
  6
CONTINUOUS
 66
     1
 40
0.000000
 41
0.000000
  0
VERTEX
  8
0
  6
CONTINUOUS
 10
3.692920
 20
1.926320
  0
VERTEX
  8
0
  6
CONTINUOUS
 10
4.341040
 20
1.537360
  0
VERTEX
  8
0
  6
CONTINUOUS
 10
4.315520
 20
1.525480
  0
VERTEX
  8
0
  6
CONTINUOUS
 10
3.667400
 20
1.914440
  0
VERTEX
  8
0
  6
CONTINUOUS
 10
3.692920
 20
1.926320
  0
SEQEND
  8
0
  0
SOLID
  8
0
 62
    15
 10
3.667400
 20
1.914440
 11
4.315520
 21
1.525480
 12
3.635720
 22
1.904320
 13
4.284280
 23
1.515360
  0
POLYLINE
  8
0
  6
CONTINUOUS
 66
     1
 40
0.000000
 41
0.000000
  0
VERTEX
  8
0
  6
CONTINUOUS
 10
3.667400
 20
1.914440
  0
VERTEX
  8
0
  6
CONTINUOUS
 10
4.315520
 20
1.525480
  0
VERTEX
  8
0
  6
CONTINUOUS
 10
4.284280
 20
1.515360
  0
VERTEX
  8
0
  6
CONTINUOUS
 10
3.635720
 20
1.904320
  0
VERTEX
  8
0
  6
CONTINUOUS
 10
3.667400
 20
1.914440
  0
SEQEND
  8
0
  0
SOLID
  8
0
 62
    15
 10
3.635720
 20
1.904320
 11
4.284280
 21
1.515360
 12
3.617680
 22
1.562440
 13
4.265800
 23
1.173040
  0
POLYLINE
  8
0
  6
CONTINUOUS
 66
     1
 40
0.000000
 41
0.000000
  0
VERTEX
  8
0
  6
CONTINUOUS
 10
3.635720
 20
1.904320
  0
VERTEX
  8
0
  6
CONTINUOUS
 10
4.284280
 20
1.515360
  0
VERTEX
  8
0
  6
CONTINUOUS
 10
4.265800
 20
1.173040
  0
VERTEX
  8
0
  6
CONTINUOUS
 10
3.617680
 20
1.562440
  0
VERTEX
  8
0
  6
CONTINUOUS
 10
3.635720
 20
1.904320
  0
SEQEND
  8
0
  0
SOLID
  8
0
 62
    15
 10
3.617680
 20
1.562440
 11
4.265800
 21
1.173040
 12
3.584680
 22
1.552320
 13
4.232800
 23
1.163360
  0
POLYLINE
  8
0
  6
CONTINUOUS
 66
     1
 40
0.000000
 41
0.000000
  0
VERTEX
  8
0
  6
CONTINUOUS
 10
3.617680
 20
1.562440
  0
VERTEX
  8
0
  6
CONTINUOUS
 10
4.265800
 20
1.173040
  0
VERTEX
  8
0
  6
CONTINUOUS
 10
4.232800
 20
1.163360
  0
VERTEX
  8
0
  6
CONTINUOUS
 10
3.584680
 20
1.552320
  0
VERTEX
  8
0
  6
CONTINUOUS
 10
3.617680
 20
1.562440
  0
SEQEND
  8
0
  0
SOLID
  8
0
 62
    15
 10
3.584680
 20
1.552320
 11
4.232800
 21
1.163360
 12
3.553000
 22
1.536920
 13
4.201120
 23
1.147520
  0
POLYLINE
  8
0
  6
CONTINUOUS
 66
     1
 40
0.000000
 41
0.000000
  0
VERTEX
  8
0
  6
CONTINUOUS
 10
3.584680
 20
1.552320
  0
VERTEX
  8
0
  6
CONTINUOUS
 10
4.232800
 20
1.163360
  0
VERTEX
  8
0
  6
CONTINUOUS
 10
4.201120
 20
1.147520
  0
VERTEX
  8
0
  6
CONTINUOUS
 10
3.553000
 20
1.536920
  0
VERTEX
  8
0
  6
CONTINUOUS
 10
3.584680
 20
1.552320
  0
SEQEND
  8
0
  0
SOLID
  8
0
 62
    15
 10
3.553000
 20
1.536920
 11
4.201120
 21
1.147520
 12
3.523520
 22
1.514040
 13
4.171640
 23
1.125080
  0
POLYLINE
  8
0
  6
CONTINUOUS
 66
     1
 40
0.000000
 41
0.000000
  0
VERTEX
  8
0
  6
CONTINUOUS
 10
3.553000
 20
1.536920
  0
VERTEX
  8
0
  6
CONTINUOUS
 10
4.201120
 20
1.147520
  0
VERTEX
  8
0
  6
CONTINUOUS
 10
4.171640
 20
1.125080
  0
VERTEX
  8
0
  6
CONTINUOUS
 10
3.523520
 20
1.514040
  0
VERTEX
  8
0
  6
CONTINUOUS
 10
3.553000
 20
1.536920
  0
SEQEND
  8
0
  0
SOLID
  8
0
 62
    15
 10
3.523520
 20
1.514040
 11
4.171640
 21
1.125080
 12
3.497120
 22
1.482800
 13
4.145240
 23
1.093840
  0
POLYLINE
  8
0
  6
CONTINUOUS
 66
     1
 40
0.000000
 41
0.000000
  0
VERTEX
  8
0
  6
CONTINUOUS
 10
3.523520
 20
1.514040
  0
VERTEX
  8
0
  6
CONTINUOUS
 10
4.171640
 20
1.125080
  0
VERTEX
  8
0
  6
CONTINUOUS
 10
4.145240
 20
1.093840
  0
VERTEX
  8
0
  6
CONTINUOUS
 10
3.497120
 20
1.482800
  0
VERTEX
  8
0
  6
CONTINUOUS
 10
3.523520
 20
1.514040
  0
SEQEND
  8
0
  0
SOLID
  8
0
 62
    15
 10
3.497120
 20
1.482800
 11
4.145240
 21
1.093840
 12
3.475120
 22
1.441440
 13
4.123680
 23
1.052480
  0
POLYLINE
  8
0
  6
CONTINUOUS
 66
     1
 40
0.000000
 41
0.000000
  0
VERTEX
  8
0
  6
CONTINUOUS
 10
3.497120
 20
1.482800
  0
VERTEX
  8
0
  6
CONTINUOUS
 10
4.145240
 20
1.093840
  0
VERTEX
  8
0
  6
CONTINUOUS
 10
4.123680
 20
1.052480
  0
VERTEX
  8
0
  6
CONTINUOUS
 10
3.475120
 20
1.441440
  0
VERTEX
  8
0
  6
CONTINUOUS
 10
3.497120
 20
1.482800
  0
SEQEND
  8
0
  0
SOLID
  8
0
 62
    15
 10
3.475120
 20
1.441440
 11
4.123680
 21
1.052480
 12
3.458840
 22
1.388200
 13
4.106960
 23
0.999240
  0
POLYLINE
  8
0
  6
CONTINUOUS
 66
     1
 40
0.000000
 41
0.000000
  0
VERTEX
  8
0
  6
CONTINUOUS
 10
3.475120
 20
1.441440
  0
VERTEX
  8
0
  6
CONTINUOUS
 10
4.123680
 20
1.052480
  0
VERTEX
  8
0
  6
CONTINUOUS
 10
4.106960
 20
0.999240
  0
VERTEX
  8
0
  6
CONTINUOUS
 10
3.458840
 20
1.388200
  0
VERTEX
  8
0
  6
CONTINUOUS
 10
3.475120
 20
1.441440
  0
SEQEND
  8
0
  0
SOLID
  8
0
 62
    15
 10
3.458840
 20
1.388200
 11
4.106960
 21
0.999240
 12
3.448720
 22
1.322200
 13
4.097280
 23
0.932800
  0
POLYLINE
  8
0
  6
CONTINUOUS
 66
     1
 40
0.000000
 41
0.000000
  0
VERTEX
  8
0
  6
CONTINUOUS
 10
3.458840
 20
1.388200
  0
VERTEX
  8
0
  6
CONTINUOUS
 10
4.106960
 20
0.999240
  0
VERTEX
  8
0
  6
CONTINUOUS
 10
4.097280
 20
0.932800
  0
VERTEX
  8
0
  6
CONTINUOUS
 10
3.448720
 20
1.322200
  0
VERTEX
  8
0
  6
CONTINUOUS
 10
3.458840
 20
1.388200
  0
SEQEND
  8
0
  0
SOLID
  8
0
 62
    15
 10
3.448720
 20
1.322200
 11
4.097280
 21
0.932800
 12
3.446960
 22
1.283480
 13
4.095080
 23
0.894520
  0
POLYLINE
  8
0
  6
CONTINUOUS
 66
     1
 40
0.000000
 41
0.000000
  0
VERTEX
  8
0
  6
CONTINUOUS
 10
3.448720
 20
1.322200
  0
VERTEX
  8
0
  6
CONTINUOUS
 10
4.097280
 20
0.932800
  0
VERTEX
  8
0
  6
CONTINUOUS
 10
4.095080
 20
0.894520
  0
VERTEX
  8
0
  6
CONTINUOUS
 10
3.446960
 20
1.283480
  0
VERTEX
  8
0
  6
CONTINUOUS
 10
3.448720
 20
1.322200
  0
SEQEND
  8
0
  0
SOLID
  8
0
 62
    15
 10
3.446960
 20
1.283480
 11
4.095080
 21
0.894520
 12
3.446960
 22
1.241240
 13
4.095080
 23
0.851840
  0
POLYLINE
  8
0
  6
CONTINUOUS
 66
     1
 40
0.000000
 41
0.000000
  0
VERTEX
  8
0
  6
CONTINUOUS
 10
3.446960
 20
1.283480
  0
VERTEX
  8
0
  6
CONTINUOUS
 10
4.095080
 20
0.894520
  0
VERTEX
  8
0
  6
CONTINUOUS
 10
4.095080
 20
0.851840
  0
VERTEX
  8
0
  6
CONTINUOUS
 10
3.446960
 20
1.241240
  0
VERTEX
  8
0
  6
CONTINUOUS
 10
3.446960
 20
1.283480
  0
SEQEND
  8
0
  0
SOLID
  8
0
 62
    15
 10
3.446960
 20
1.241240
 11
4.095080
 21
0.851840
 12
3.303520
 22
1.241240
 13
3.952080
 23
0.851840
  0
POLYLINE
  8
0
  6
CONTINUOUS
 66
     1
 40
0.000000
 41
0.000000
  0
VERTEX
  8
0
  6
CONTINUOUS
 10
3.446960
 20
1.241240
  0
VERTEX
  8
0
  6
CONTINUOUS
 10
4.095080
 20
0.851840
  0
VERTEX
  8
0
  6
CONTINUOUS
 10
3.952080
 20
0.851840
  0
VERTEX
  8
0
  6
CONTINUOUS
 10
3.303520
 20
1.241240
  0
VERTEX
  8
0
  6
CONTINUOUS
 10
3.446960
 20
1.241240
  0
SEQEND
  8
0
  0
POLYLINE
  8
0
  6
CONTINUOUS
 66
     1
 40
0.000000
 41
0.000000
  0
VERTEX
  8
0
  6
CONTINUOUS
 10
3.409120
 20
3.329480
  0
VERTEX
  8
0
  6
CONTINUOUS
 10
3.409560
 20
3.370840
  0
VERTEX
  8
0
  6
CONTINUOUS
 10
3.414400
 20
3.409560
  0
VERTEX
  8
0
  6
CONTINUOUS
 10
3.424520
 20
3.446520
  0
VERTEX
  8
0
  6
CONTINUOUS
 10
3.438160
 20
3.480840
  0
VERTEX
  8
0
  6
CONTINUOUS
 10
3.456200
 20
3.512960
  0
VERTEX
  8
0
  6
CONTINUOUS
 10
3.477320
 20
3.542440
  0
VERTEX
  8
0
  6
CONTINUOUS
 10
3.528360
 20
3.593040
  0
VERTEX
  8
0
  6
CONTINUOUS
 10
3.588200
 20
3.632200
  0
VERTEX
  8
0
  6
CONTINUOUS
 10
3.654200
 20
3.658600
  0
VERTEX
  8
0
  6
CONTINUOUS
 10
3.723280
 20
3.671360
  0
VERTEX
  8
0
  6
CONTINUOUS
 10
3.835920
 20
3.668280
  0
VERTEX
  8
0
  6
CONTINUOUS
 10
3.876840
 20
3.662560
  0
VERTEX
  8
0
  6
CONTINUOUS
 10
3.951640
 20
3.641880
  0
VERTEX
  8
0
  6
CONTINUOUS
 10
4.016760
 20
3.609760
  0
VERTEX
  8
0
  6
CONTINUOUS
 10
4.071760
 20
3.567520
  0
VERTEX
  8
0
  6
CONTINUOUS
 10
4.117080
 20
3.517360
  0
VERTEX
  8
0
  6
CONTINUOUS
 10
4.151400
 20
3.461040
  0
VERTEX
  8
0
  6
CONTINUOUS
 10
4.175600
 20
3.399880
  0
VERTEX
  8
0
  6
CONTINUOUS
 10
4.188800
 20
3.336080
  0
VERTEX
  8
0
  6
CONTINUOUS
 10
4.191000
 20
3.271400
  0
VERTEX
  8
0
  6
CONTINUOUS
 10
4.181760
 20
3.207160
  0
VERTEX
  8
0
  6
CONTINUOUS
 10
4.161080
 20
3.145560
  0
VERTEX
  8
0
  6
CONTINUOUS
 10
4.128520
 20
3.087920
  0
VERTEX
  8
0
  6
CONTINUOUS
 10
4.084520
 20
3.036000
  0
VERTEX
  8
0
  6
CONTINUOUS
 10
4.027760
 20
2.992000
  0
VERTEX
  8
0
  6
CONTINUOUS
 10
3.959120
 20
2.957240
  0
VERTEX
  8
0
  6
CONTINUOUS
 10
3.919960
 20
2.944040
  0
VERTEX
  8
0
  6
CONTINUOUS
 10
3.877280
 20
2.933920
  0
VERTEX
  8
0
  6
CONTINUOUS
 10
3.877280
 20
2.821280
  0
VERTEX
  8
0
  6
CONTINUOUS
 10
3.854840
 20
2.813360
  0
VERTEX
  8
0
  6
CONTINUOUS
 10
3.830640
 20
2.800600
  0
VERTEX
  8
0
  6
CONTINUOUS
 10
3.806000
 20
2.781240
  0
VERTEX
  8
0
  6
CONTINUOUS
 10
3.782240
 20
2.754400
  0
VERTEX
  8
0
  6
CONTINUOUS
 10
3.761560
 20
2.719640
  0
VERTEX
  8
0
  6
CONTINUOUS
 10
3.744840
 20
2.675200
  0
VERTEX
  8
0
  6
CONTINUOUS
 10
3.733400
 20
2.620640
  0
VERTEX
  8
0
  6
CONTINUOUS
 10
3.729440
 20
2.554200
  0
VERTEX
  8
0
  6
CONTINUOUS
 10
3.726360
 20
2.536600
  0
VERTEX
  8
0
  6
CONTINUOUS
 10
3.721960
 20
2.526040
  0
VERTEX
  8
0
  6
CONTINUOUS
 10
3.706560
 20
2.518560
  0
VERTEX
  8
0
  6
CONTINUOUS
 10
3.670920
 20
2.508440
  0
VERTEX
  8
0
  6
CONTINUOUS
 10
3.704800
 20
2.494360
  0
VERTEX
  8
0
  6
CONTINUOUS
 10
3.733840
 20
2.472360
  0
VERTEX
  8
0
  6
CONTINUOUS
 10
3.754960
 20
2.445080
  0
VERTEX
  8
0
  6
CONTINUOUS
 10
3.766840
 20
2.414720
  0
VERTEX
  8
0
  6
CONTINUOUS
 10
3.766400
 20
2.383480
  0
VERTEX
  8
0
  6
CONTINUOUS
 10
3.751440
 20
2.354000
  0
VERTEX
  8
0
  6
CONTINUOUS
 10
3.737800
 20
2.340360
  0
VERTEX
  8
0
  6
CONTINUOUS
 10
3.719760
 20
2.328040
  0
VERTEX
  8
0
  6
CONTINUOUS
 10
3.696880
 20
2.317040
  0
VERTEX
  8
0
  6
CONTINUOUS
 10
3.668720
 20
2.308240
  0
VERTEX
  8
0
  6
CONTINUOUS
 10
3.707000
 20
2.290200
  0
VERTEX
  8
0
  6
CONTINUOUS
 10
3.735160
 20
2.265560
  0
VERTEX
  8
0
  6
CONTINUOUS
 10
3.752760
 20
2.236520
  0
VERTEX
  8
0
  6
CONTINUOUS
 10
3.758040
 20
2.205280
  0
VERTEX
  8
0
  6
CONTINUOUS
 10
3.750120
 20
2.174920
  0
VERTEX
  8
0
  6
CONTINUOUS
 10
3.728120
 20
2.147640
  0
VERTEX
  8
0
  6
CONTINUOUS
 10
3.711840
 20
2.135760
  0
VERTEX
  8
0
  6
CONTINUOUS
 10
3.691160
 20
2.125640
  0
VERTEX
  8
0
  6
CONTINUOUS
 10
3.666520
 20
2.117720
  0
VERTEX
  8
0
  6
CONTINUOUS
 10
3.637480
 20
2.112000
  0
VERTEX
  8
0
  6
CONTINUOUS
 10
3.674440
 20
2.097040
  0
VERTEX
  8
0
  6
CONTINUOUS
 10
3.706560
 20
2.074600
  0
VERTEX
  8
0
  6
CONTINUOUS
 10
3.730760
 20
2.047320
  0
VERTEX
  8
0
  6
CONTINUOUS
 10
3.743960
 20
2.016520
  0
VERTEX
  8
0
  6
CONTINUOUS
 10
3.744400
 20
1.984400
  0
VERTEX
  8
0
  6
CONTINUOUS
 10
3.738240
 20
1.969000
  0
VERTEX
  8
0
  6
CONTINUOUS
 10
3.728120
 20
1.953600
  0
VERTEX
  8
0
  6
CONTINUOUS
 10
3.713160
 20
1.939520
  0
VERTEX
  8
0
  6
CONTINUOUS
 10
3.692920
 20
1.926320
  0
VERTEX
  8
0
  6
CONTINUOUS
 10
3.667400
 20
1.914440
  0
VERTEX
  8
0
  6
CONTINUOUS
 10
3.635720
 20
1.904320
  0
VERTEX
  8
0
  6
CONTINUOUS
 10
3.617680
 20
1.562440
  0
VERTEX
  8
0
  6
CONTINUOUS
 10
3.584680
 20
1.552320
  0
VERTEX
  8
0
  6
CONTINUOUS
 10
3.553000
 20
1.536920
  0
VERTEX
  8
0
  6
CONTINUOUS
 10
3.523520
 20
1.514040
  0
VERTEX
  8
0
  6
CONTINUOUS
 10
3.497120
 20
1.482800
  0
VERTEX
  8
0
  6
CONTINUOUS
 10
3.475120
 20
1.441440
  0
VERTEX
  8
0
  6
CONTINUOUS
 10
3.458840
 20
1.388200
  0
VERTEX
  8
0
  6
CONTINUOUS
 10
3.448720
 20
1.322200
  0
VERTEX
  8
0
  6
CONTINUOUS
 10
3.446960
 20
1.283480
  0
VERTEX
  8
0
  6
CONTINUOUS
 10
3.446960
 20
1.241240
  0
VERTEX
  8
0
  6
CONTINUOUS
 10
3.303520
 20
1.241240
  0
VERTEX
  8
0
  6
CONTINUOUS
 10
3.303960
 20
3.328160
  0
VERTEX
  8
0
  6
CONTINUOUS
 10
3.409120
 20
3.328160
  0
VERTEX
  8
0
  6
CONTINUOUS
 10
3.409120
 20
3.329480
  0
SEQEND
  8
0
  0
TEXT
  8
0
 10
3.535400
 20
0.619520
 40
0.138175
  1
BA  990 & 745
 41
1.000000
  7
SN0
 71
     0
 72
     5
 11
4.607468
 21
0.619520
  0
TEXT
  8
0
 10
3.573680
 20
0.428120
 40
0.138175
  1
7/8" x 2-7/16"
 41
1.000000
  7
SN0
 71
     0
 72
     5
 11
4.569140
 21
0.428120
  0
POLYLINE
  8
0
  6
CONTINUOUS
 66
     1
 40
0.014080
 41
0.014080
  0
VERTEX
  8
0
  6
CONTINUOUS
 10
5.727040
 20
2.686640
  0
VERTEX
  8
0
  6
CONTINUOUS
 10
5.706360
 20
2.686200
  0
VERTEX
  8
0
  6
CONTINUOUS
 10
5.666320
 20
2.688840
  0
VERTEX
  8
0
  6
CONTINUOUS
 10
5.628040
 20
2.696320
  0
VERTEX
  8
0
  6
CONTINUOUS
 10
5.592400
 20
2.708200
  0
VERTEX
  8
0
  6
CONTINUOUS
 10
5.559400
 20
2.724040
  0
VERTEX
  8
0
  6
CONTINUOUS
 10
5.528600
 20
2.743840
  0
VERTEX
  8
0
  6
CONTINUOUS
 10
5.500440
 20
2.766280
  0
VERTEX
  8
0
  6
CONTINUOUS
 10
5.474920
 20
2.791800
  0
VERTEX
  8
0
  6
CONTINUOUS
 10
5.442360
 20
2.834480
  0
VERTEX
  8
0
  6
CONTINUOUS
 10
5.416400
 20
2.881560
  0
VERTEX
  8
0
  6
CONTINUOUS
 10
5.403200
 20
2.914560
  0
VERTEX
  8
0
  6
CONTINUOUS
 10
5.389560
 20
2.966040
  0
VERTEX
  8
0
  6
CONTINUOUS
 10
5.385160
 20
3.000360
  0
VERTEX
  8
0
  6
CONTINUOUS
 10
5.383840
 20
3.035120
  0
VERTEX
  8
0
  6
CONTINUOUS
 10
5.386480
 20
3.069880
  0
VERTEX
  8
0
  6
CONTINUOUS
 10
5.388240
 20
3.113440
  0
VERTEX
  8
0
  6
CONTINUOUS
 10
5.393960
 20
3.154360
  0
VERTEX
  8
0
  6
CONTINUOUS
 10
5.402760
 20
3.192640
  0
VERTEX
  8
0
  6
CONTINUOUS
 10
5.414640
 20
3.229160
  0
VERTEX
  8
0
  6
CONTINUOUS
 10
5.429600
 20
3.263040
  0
VERTEX
  8
0
  6
CONTINUOUS
 10
5.456440
 20
3.308800
  0
VERTEX
  8
0
  6
CONTINUOUS
 10
5.489000
 20
3.349280
  0
VERTEX
  8
0
  6
CONTINUOUS
 10
5.525960
 20
3.384040
  0
VERTEX
  8
0
  6
CONTINUOUS
 10
5.566880
 20
3.413080
  0
VERTEX
  8
0
  6
CONTINUOUS
 10
5.610440
 20
3.435960
  0
VERTEX
  8
0
  6
CONTINUOUS
 10
5.656640
 20
3.453120
  0
VERTEX
  8
0
  6
CONTINUOUS
 10
5.688320
 20
3.461040
  0
VERTEX
  8
0
  6
CONTINUOUS
 10
5.736720
 20
3.467640
  0
VERTEX
  8
0
  6
CONTINUOUS
 10
5.769280
 20
3.468520
  0
VERTEX
  8
0
  6
CONTINUOUS
 10
5.801400
 20
3.467200
  0
VERTEX
  8
0
  6
CONTINUOUS
 10
5.849360
 20
3.458840
  0
VERTEX
  8
0
  6
CONTINUOUS
 10
5.896000
 20
3.444760
  0
VERTEX
  8
0
  6
CONTINUOUS
 10
5.926360
 20
3.431560
  0
VERTEX
  8
0
  6
CONTINUOUS
 10
5.969040
 20
3.406040
  0
VERTEX
  8
0
  6
CONTINUOUS
 10
6.008640
 20
3.373920
  0
VERTEX
  8
0
  6
CONTINUOUS
 10
6.043840
 20
3.334760
  0
VERTEX
  8
0
  6
CONTINUOUS
 10
6.064960
 20
3.305280
  0
VERTEX
  8
0
  6
CONTINUOUS
 10
6.091800
 20
3.254680
  0
VERTEX
  8
0
  6
CONTINUOUS
 10
6.112920
 20
3.197040
  0
VERTEX
  8
0
  6
CONTINUOUS
 10
6.123040
 20
3.154800
  0
VERTEX
  8
0
  6
CONTINUOUS
 10
6.235240
 20
3.154800
  0
VERTEX
  8
0
  6
CONTINUOUS
 10
6.248880
 20
3.120040
  0
VERTEX
  8
0
  6
CONTINUOUS
 10
6.265160
 20
3.095400
  0
VERTEX
  8
0
  6
CONTINUOUS
 10
6.288040
 20
3.071200
  0
VERTEX
  8
0
  6
CONTINUOUS
 10
6.318400
 20
3.048760
  0
VERTEX
  8
0
  6
CONTINUOUS
 10
6.358000
 20
3.029840
  0
VERTEX
  8
0
  6
CONTINUOUS
 10
6.394080
 20
3.018840
  0
VERTEX
  8
0
  6
CONTINUOUS
 10
6.436320
 20
3.010920
  0
VERTEX
  8
0
  6
CONTINUOUS
 10
6.467560
 20
3.007840
  0
VERTEX
  8
0
  6
CONTINUOUS
 10
6.502320
 20
3.006960
  0
VERTEX
  8
0
  6
CONTINUOUS
 10
6.526080
 20
3.002560
  0
VERTEX
  8
0
  6
CONTINUOUS
 10
6.532240
 20
2.997280
  0
VERTEX
  8
0
  6
CONTINUOUS
 10
6.540160
 20
2.977480
  0
VERTEX
  8
0
  6
CONTINUOUS
 10
6.548080
 20
2.948000
  0
VERTEX
  8
0
  6
CONTINUOUS
 10
6.554240
 20
2.965600
  0
VERTEX
  8
0
  6
CONTINUOUS
 10
6.562160
 20
2.981880
  0
VERTEX
  8
0
  6
CONTINUOUS
 10
6.572280
 20
2.997280
  0
VERTEX
  8
0
  6
CONTINUOUS
 10
6.584160
 20
3.010920
  0
VERTEX
  8
0
  6
CONTINUOUS
 10
6.604400
 20
3.028080
  0
VERTEX
  8
0
  6
CONTINUOUS
 10
6.626400
 20
3.039520
  0
VERTEX
  8
0
  6
CONTINUOUS
 10
6.649720
 20
3.045240
  0
VERTEX
  8
0
  6
CONTINUOUS
 10
6.665560
 20
3.045240
  0
VERTEX
  8
0
  6
CONTINUOUS
 10
6.680960
 20
3.041280
  0
VERTEX
  8
0
  6
CONTINUOUS
 10
6.695480
 20
3.033800
  0
VERTEX
  8
0
  6
CONTINUOUS
 10
6.702960
 20
3.028960
  0
VERTEX
  8
0
  6
CONTINUOUS
 10
6.722760
 20
3.006520
  0
VERTEX
  8
0
  6
CONTINUOUS
 10
6.739480
 20
2.974400
  0
VERTEX
  8
0
  6
CONTINUOUS
 10
6.748280
 20
2.946240
  0
VERTEX
  8
0
  6
CONTINUOUS
 10
6.756200
 20
2.966480
  0
VERTEX
  8
0
  6
CONTINUOUS
 10
6.772040
 20
2.992440
  0
VERTEX
  8
0
  6
CONTINUOUS
 10
6.790960
 20
3.012680
  0
VERTEX
  8
0
  6
CONTINUOUS
 10
6.812520
 20
3.026760
  0
VERTEX
  8
0
  6
CONTINUOUS
 10
6.835400
 20
3.034240
  0
VERTEX
  8
0
  6
CONTINUOUS
 10
6.851240
 20
3.035560
  0
VERTEX
  8
0
  6
CONTINUOUS
 10
6.866640
 20
3.033360
  0
VERTEX
  8
0
  6
CONTINUOUS
 10
6.888640
 20
3.023680
  0
VERTEX
  8
0
  6
CONTINUOUS
 10
6.902720
 20
3.012680
  0
VERTEX
  8
0
  6
CONTINUOUS
 10
6.920760
 20
2.988920
  0
VERTEX
  8
0
  6
CONTINUOUS
 10
6.930880
 20
2.968680
  0
VERTEX
  8
0
  6
CONTINUOUS
 10
6.938800
 20
2.944040
  0
VERTEX
  8
0
  6
CONTINUOUS
 10
6.944520
 20
2.915000
  0
VERTEX
  8
0
  6
CONTINUOUS
 10
6.950680
 20
2.933920
  0
VERTEX
  8
0
  6
CONTINUOUS
 10
6.959480
 20
2.951960
  0
VERTEX
  8
0
  6
CONTINUOUS
 10
6.969600
 20
2.968680
  0
VERTEX
  8
0
  6
CONTINUOUS
 10
6.988080
 20
2.990680
  0
VERTEX
  8
0
  6
CONTINUOUS
 10
7.009200
 20
3.008280
  0
VERTEX
  8
0
  6
CONTINUOUS
 10
7.032520
 20
3.019280
  0
VERTEX
  8
0
  6
CONTINUOUS
 10
7.048360
 20
3.022800
  0
VERTEX
  8
0
  6
CONTINUOUS
 10
7.064200
 20
3.022800
  0
VERTEX
  8
0
  6
CONTINUOUS
 10
7.080040
 20
3.019280
  0
VERTEX
  8
0
  6
CONTINUOUS
 10
7.095440
 20
3.010920
  0
VERTEX
  8
0
  6
CONTINUOUS
 10
7.109960
 20
2.998600
  0
VERTEX
  8
0
  6
CONTINUOUS
 10
7.124040
 20
2.981000
  0
VERTEX
  8
0
  6
CONTINUOUS
 10
7.136360
 20
2.958120
  0
VERTEX
  8
0
  6
CONTINUOUS
 10
7.147360
 20
2.929520
  0
VERTEX
  8
0
  6
CONTINUOUS
 10
7.152200
 20
2.913240
  0
VERTEX
  8
0
  6
CONTINUOUS
 10
7.494080
 20
2.894760
  0
VERTEX
  8
0
  6
CONTINUOUS
 10
7.504200
 20
2.861760
  0
VERTEX
  8
0
  6
CONTINUOUS
 10
7.510800
 20
2.845920
  0
VERTEX
  8
0
  6
CONTINUOUS
 10
7.529720
 20
2.815120
  0
VERTEX
  8
0
  6
CONTINUOUS
 10
7.549080
 20
2.793560
  0
VERTEX
  8
0
  6
CONTINUOUS
 10
7.582960
 20
2.768480
  0
VERTEX
  8
0
  6
CONTINUOUS
 10
7.615080
 20
2.752640
  0
VERTEX
  8
0
  6
CONTINUOUS
 10
7.653800
 20
2.739440
  0
VERTEX
  8
0
  6
CONTINUOUS
 10
7.699560
 20
2.730200
  0
VERTEX
  8
0
  6
CONTINUOUS
 10
7.753240
 20
2.724920
  0
VERTEX
  8
0
  6
CONTINUOUS
 10
7.793720
 20
2.723600
  0
VERTEX
  8
0
  6
CONTINUOUS
 10
7.815280
 20
2.724040
  0
VERTEX
  8
0
  6
CONTINUOUS
 10
7.815280
 20
2.581040
  0
VERTEX
  8
0
  6
CONTINUOUS
 10
5.728800
 20
2.581480
  0
VERTEX
  8
0
  6
CONTINUOUS
 10
5.728800
 20
2.686640
  0
VERTEX
  8
0
  6
CONTINUOUS
 10
5.727040
 20
2.686640
  0
SEQEND
  8
0
  0
TEXT
  8
0
 10
6.103240
 20
2.340360
 40
0.138175
  1
BA  990 & 745
 41
1.000000
  7
SN0
 71
     0
 72
     5
 11
7.175308
 21
2.340360
  0
TEXT
  8
0
 10
6.141520
 20
2.148960
 40
0.138175
  1
7/8" x 2-7/16"
 41
1.000000
  7
SN0
 71
     0
 72
     5
 11
7.136980
 21
2.148960
  0
ENDSEC
  0
EOF
