  0
SECTION
  2
HEADER
  9
$ACADVER
  1
AC1006
  9
$EXTMIN
 10
5.083760
 20
0.558360
  9
$EXTMAX
 10
7.645440
 20
3.364240
  9
$LTSCALE
 40
0.044000
  9
$PDMODE
 70
    35
  9
$PDSIZE
 40
0.035200
  0
ENDSEC
  0
SECTION
  2
TABLES
  0
TABLE
  2
LTYPE
 70
     9
  0
LTYPE
  2
CONTINUOUS
 70
    64
  3
Solid line
 72
    65
 73
     0
 40
0.000000
  0
LTYPE
  2
DASHED
 70
    64
  3
__ __ __ __ __ __ __ __ __ __ __ __ __ __ __
 72
    65
 73
     2
 40
0.000330
 49
0.000220
 49
-0.000110
  0
LTYPE
  2
HIDDEN
 70
    64
  3
 _ _ _ _ _ _ _ _ _ _ _ _ _ _ _ _ _ _ _ _ _ _
 72
    65
 73
     2
 40
0.000165
 49
0.000110
 49
-0.000055
  0
LTYPE
  2
CENTER
 70
    64
  3
____ _ ____ _ ____ _ ____ _ ____ _ ____ _ ____
 72
    65
 73
     4
 40
0.000880
 49
0.000550
 49
-0.000110
 49
0.000110
 49
-0.000110
  0
LTYPE
  2
PHANTOM
 70
    64
  3
_____ _ _ _____ _ _ _____ _ _ _____ _ _ ____
 72
    65
 73
     6
 40
0.001100
 49
0.000550
 49
-0.000110
 49
0.000110
 49
-0.000110
 49
0.000110
 49
-0.000110
  0
LTYPE
  2
DOT
 70
    64
  3
...............................................
 72
    65
 73
     2
 40
0.000110
 49
0.000000
 49
-0.000110
  0
LTYPE
  2
DASHDOT
 70
    64
  3
__ . __ . __ . __ . __ . __ . __ . __ . __ . __
 72
    65
 73
     4
 40
0.000440
 49
0.000220
 49
-0.000110
 49
0.000000
 49
-0.000110
  0
LTYPE
  2
BORDER
 70
    64
  3
__ __ . __ __ . __ __ . __ __ . __ __ . __ __
 72
    65
 73
     6
 40
0.000770
 49
0.000220
 49
-0.000110
 49
0.000220
 49
-0.000110
 49
0.000000
 49
-0.000110
  0
LTYPE
  2
DIVIDE
 70
    64
  3
__ . . __ . . __ . . __ . . __ . . __ . . __
 72
    65
 73
     6
 40
0.000550
 49
0.000220
 49
-0.000110
 49
0.000000
 49
-0.000110
 49
0.000000
 49
-0.000110
  0
LTYPE
  2
DOTDOT
 70
    64
  3
 . .  . .  . .  . .  . .  . . 
 72
    65
 73
     5
 40
0.000242
 49
-0.000110
 49
0.000000
 49
-0.000110
 49
0.000000
 49
-0.000110
  0
ENDTAB
  0
TABLE
  2
STYLE
 70
     2
  0
STYLE
 70
     0
  2
SN0
 40
0.000000
 41
0.000440
 50
0.000000
 71
     0
 42
0.000000
  3
ROMAND
  0
STYLE
 70
    68
  2
SV0
 40
0.000000
 41
0.000440
 50
0.000000
 71
     0
 42
0.000000
  3
ROMAND
  0
ENDTAB
  0
TABLE
  2
LAYER
 70
     3
  0
LAYER
  2
FOREGROUND
 70
    64
 62
     7
  6
CONTINUOUS
  0
LAYER
  2
BACKGROUND
 70
    65
 62
    -7
  6
CONTINUOUS
  0
LAYER
  2
0
 70
    64
 62
     7
  6
CONTINUOUS
  0
ENDTAB
  0
ENDSEC
  0
SECTION
  2
ENTITIES
  0
POLYLINE
  8
FOREGROUND
  6
CONTINUOUS
 66
     1
 40
0.000000
 41
0.000000
  0
VERTEX
  8
FOREGROUND
  6
CONTINUOUS
 10
0.000000
 20
3.922600
  0
VERTEX
  8
FOREGROUND
  6
CONTINUOUS
 10
8.499920
 20
3.922600
  0
VERTEX
  8
FOREGROUND
  6
CONTINUOUS
 10
8.499920
 20
-7.077400
  0
VERTEX
  8
FOREGROUND
  6
CONTINUOUS
 10
0.000000
 20
-7.077400
  0
VERTEX
  8
FOREGROUND
  6
CONTINUOUS
 10
0.000000
 20
3.922600
  0
SEQEND
  8
0
  0
POLYLINE
  8
FOREGROUND
  6
CONTINUOUS
 66
     1
 40
0.000000
 41
0.000000
  0
VERTEX
  8
FOREGROUND
  6
CONTINUOUS
 10
0.000000
 20
3.922600
  0
VERTEX
  8
FOREGROUND
  6
CONTINUOUS
 10
8.499920
 20
3.922600
  0
VERTEX
  8
FOREGROUND
  6
CONTINUOUS
 10
8.499920
 20
-7.077400
  0
VERTEX
  8
FOREGROUND
  6
CONTINUOUS
 10
0.000000
 20
-7.077400
  0
VERTEX
  8
FOREGROUND
  6
CONTINUOUS
 10
0.000000
 20
3.922600
  0
SEQEND
  8
0
  0
SOLID
  8
0
 62
    15
 10
5.899520
 20
1.593240
 11
6.543240
 21
1.962840
 12
5.904360
 22
1.543080
 13
6.548080
 23
1.912680
  0
POLYLINE
  8
0
  6
CONTINUOUS
 66
     1
 40
0.000000
 41
0.000000
  0
VERTEX
  8
0
  6
CONTINUOUS
 10
5.899520
 20
1.593240
  0
VERTEX
  8
0
  6
CONTINUOUS
 10
6.543240
 20
1.962840
  0
VERTEX
  8
0
  6
CONTINUOUS
 10
6.548080
 20
1.912680
  0
VERTEX
  8
0
  6
CONTINUOUS
 10
5.904360
 20
1.543080
  0
VERTEX
  8
0
  6
CONTINUOUS
 10
5.899520
 20
1.593240
  0
SEQEND
  8
0
  0
SOLID
  8
0
 62
    15
 10
5.349960
 20
2.513720
 11
5.993680
 21
2.883320
 12
5.375480
 22
2.488200
 13
6.019200
 23
2.857800
  0
POLYLINE
  8
0
  6
CONTINUOUS
 66
     1
 40
0.000000
 41
0.000000
  0
VERTEX
  8
0
  6
CONTINUOUS
 10
5.349960
 20
2.513720
  0
VERTEX
  8
0
  6
CONTINUOUS
 10
5.993680
 20
2.883320
  0
VERTEX
  8
0
  6
CONTINUOUS
 10
6.019200
 20
2.857800
  0
VERTEX
  8
0
  6
CONTINUOUS
 10
5.375480
 20
2.488200
  0
VERTEX
  8
0
  6
CONTINUOUS
 10
5.349960
 20
2.513720
  0
SEQEND
  8
0
  0
SOLID
  8
0
 62
    15
 10
5.375480
 20
2.488200
 11
6.019200
 21
2.857800
 12
5.403200
 22
2.458720
 13
6.046920
 23
2.828320
  0
POLYLINE
  8
0
  6
CONTINUOUS
 66
     1
 40
0.000000
 41
0.000000
  0
VERTEX
  8
0
  6
CONTINUOUS
 10
5.375480
 20
2.488200
  0
VERTEX
  8
0
  6
CONTINUOUS
 10
6.019200
 20
2.857800
  0
VERTEX
  8
0
  6
CONTINUOUS
 10
6.046920
 20
2.828320
  0
VERTEX
  8
0
  6
CONTINUOUS
 10
5.403200
 20
2.458720
  0
VERTEX
  8
0
  6
CONTINUOUS
 10
5.375480
 20
2.488200
  0
SEQEND
  8
0
  0
SOLID
  8
0
 62
    15
 10
5.403200
 20
2.458720
 11
6.046920
 21
2.828320
 12
5.432680
 22
2.425720
 13
6.076400
 23
2.795320
  0
POLYLINE
  8
0
  6
CONTINUOUS
 66
     1
 40
0.000000
 41
0.000000
  0
VERTEX
  8
0
  6
CONTINUOUS
 10
5.403200
 20
2.458720
  0
VERTEX
  8
0
  6
CONTINUOUS
 10
6.046920
 20
2.828320
  0
VERTEX
  8
0
  6
CONTINUOUS
 10
6.076400
 20
2.795320
  0
VERTEX
  8
0
  6
CONTINUOUS
 10
5.432680
 20
2.425720
  0
VERTEX
  8
0
  6
CONTINUOUS
 10
5.403200
 20
2.458720
  0
SEQEND
  8
0
  0
SOLID
  8
0
 62
    15
 10
5.432680
 20
2.425720
 11
6.076400
 21
2.795320
 12
5.496920
 22
2.350480
 13
6.140640
 23
2.720080
  0
POLYLINE
  8
0
  6
CONTINUOUS
 66
     1
 40
0.000000
 41
0.000000
  0
VERTEX
  8
0
  6
CONTINUOUS
 10
5.432680
 20
2.425720
  0
VERTEX
  8
0
  6
CONTINUOUS
 10
6.076400
 20
2.795320
  0
VERTEX
  8
0
  6
CONTINUOUS
 10
6.140640
 20
2.720080
  0
VERTEX
  8
0
  6
CONTINUOUS
 10
5.496920
 20
2.350480
  0
VERTEX
  8
0
  6
CONTINUOUS
 10
5.432680
 20
2.425720
  0
SEQEND
  8
0
  0
SOLID
  8
0
 62
    15
 10
5.496920
 20
2.350480
 11
6.140640
 21
2.720080
 12
5.564680
 22
2.265120
 13
6.208400
 23
2.634280
  0
POLYLINE
  8
0
  6
CONTINUOUS
 66
     1
 40
0.000000
 41
0.000000
  0
VERTEX
  8
0
  6
CONTINUOUS
 10
5.496920
 20
2.350480
  0
VERTEX
  8
0
  6
CONTINUOUS
 10
6.140640
 20
2.720080
  0
VERTEX
  8
0
  6
CONTINUOUS
 10
6.208400
 20
2.634280
  0
VERTEX
  8
0
  6
CONTINUOUS
 10
5.564680
 20
2.265120
  0
VERTEX
  8
0
  6
CONTINUOUS
 10
5.496920
 20
2.350480
  0
SEQEND
  8
0
  0
SOLID
  8
0
 62
    15
 10
5.564680
 20
2.265120
 11
6.208400
 21
2.634280
 12
5.633320
 22
2.170960
 13
6.277040
 23
2.540560
  0
POLYLINE
  8
0
  6
CONTINUOUS
 66
     1
 40
0.000000
 41
0.000000
  0
VERTEX
  8
0
  6
CONTINUOUS
 10
5.564680
 20
2.265120
  0
VERTEX
  8
0
  6
CONTINUOUS
 10
6.208400
 20
2.634280
  0
VERTEX
  8
0
  6
CONTINUOUS
 10
6.277040
 20
2.540560
  0
VERTEX
  8
0
  6
CONTINUOUS
 10
5.633320
 20
2.170960
  0
VERTEX
  8
0
  6
CONTINUOUS
 10
5.564680
 20
2.265120
  0
SEQEND
  8
0
  0
SOLID
  8
0
 62
    15
 10
5.633320
 20
2.170960
 11
6.277040
 21
2.540560
 12
5.699760
 22
2.070200
 13
6.343920
 23
2.439800
  0
POLYLINE
  8
0
  6
CONTINUOUS
 66
     1
 40
0.000000
 41
0.000000
  0
VERTEX
  8
0
  6
CONTINUOUS
 10
5.633320
 20
2.170960
  0
VERTEX
  8
0
  6
CONTINUOUS
 10
6.277040
 20
2.540560
  0
VERTEX
  8
0
  6
CONTINUOUS
 10
6.343920
 20
2.439800
  0
VERTEX
  8
0
  6
CONTINUOUS
 10
5.699760
 20
2.070200
  0
VERTEX
  8
0
  6
CONTINUOUS
 10
5.633320
 20
2.170960
  0
SEQEND
  8
0
  0
SOLID
  8
0
 62
    15
 10
5.699760
 20
2.070200
 11
6.343920
 21
2.439800
 12
5.761800
 22
1.965480
 13
6.405520
 23
2.334640
  0
POLYLINE
  8
0
  6
CONTINUOUS
 66
     1
 40
0.000000
 41
0.000000
  0
VERTEX
  8
0
  6
CONTINUOUS
 10
5.699760
 20
2.070200
  0
VERTEX
  8
0
  6
CONTINUOUS
 10
6.343920
 20
2.439800
  0
VERTEX
  8
0
  6
CONTINUOUS
 10
6.405520
 20
2.334640
  0
VERTEX
  8
0
  6
CONTINUOUS
 10
5.761800
 20
1.965480
  0
VERTEX
  8
0
  6
CONTINUOUS
 10
5.699760
 20
2.070200
  0
SEQEND
  8
0
  0
SOLID
  8
0
 62
    15
 10
5.761800
 20
1.965480
 11
6.405520
 21
2.334640
 12
5.815920
 22
1.858120
 13
6.459640
 23
2.227720
  0
POLYLINE
  8
0
  6
CONTINUOUS
 66
     1
 40
0.000000
 41
0.000000
  0
VERTEX
  8
0
  6
CONTINUOUS
 10
5.761800
 20
1.965480
  0
VERTEX
  8
0
  6
CONTINUOUS
 10
6.405520
 20
2.334640
  0
VERTEX
  8
0
  6
CONTINUOUS
 10
6.459640
 20
2.227720
  0
VERTEX
  8
0
  6
CONTINUOUS
 10
5.815920
 20
1.858120
  0
VERTEX
  8
0
  6
CONTINUOUS
 10
5.761800
 20
1.965480
  0
SEQEND
  8
0
  0
SOLID
  8
0
 62
    15
 10
5.815920
 20
1.858120
 11
6.459640
 21
2.227720
 12
5.859920
 22
1.750320
 13
6.503640
 23
2.119920
  0
POLYLINE
  8
0
  6
CONTINUOUS
 66
     1
 40
0.000000
 41
0.000000
  0
VERTEX
  8
0
  6
CONTINUOUS
 10
5.815920
 20
1.858120
  0
VERTEX
  8
0
  6
CONTINUOUS
 10
6.459640
 20
2.227720
  0
VERTEX
  8
0
  6
CONTINUOUS
 10
6.503640
 20
2.119920
  0
VERTEX
  8
0
  6
CONTINUOUS
 10
5.859920
 20
1.750320
  0
VERTEX
  8
0
  6
CONTINUOUS
 10
5.815920
 20
1.858120
  0
SEQEND
  8
0
  0
SOLID
  8
0
 62
    15
 10
5.859920
 20
1.750320
 11
6.503640
 21
2.119920
 12
5.890280
 22
1.644720
 13
6.534000
 23
2.014320
  0
POLYLINE
  8
0
  6
CONTINUOUS
 66
     1
 40
0.000000
 41
0.000000
  0
VERTEX
  8
0
  6
CONTINUOUS
 10
5.859920
 20
1.750320
  0
VERTEX
  8
0
  6
CONTINUOUS
 10
6.503640
 20
2.119920
  0
VERTEX
  8
0
  6
CONTINUOUS
 10
6.534000
 20
2.014320
  0
VERTEX
  8
0
  6
CONTINUOUS
 10
5.890280
 20
1.644720
  0
VERTEX
  8
0
  6
CONTINUOUS
 10
5.859920
 20
1.750320
  0
SEQEND
  8
0
  0
SOLID
  8
0
 62
    15
 10
5.890280
 20
1.644720
 11
6.534000
 21
2.014320
 12
5.899520
 22
1.593240
 13
6.543240
 23
1.962840
  0
POLYLINE
  8
0
  6
CONTINUOUS
 66
     1
 40
0.000000
 41
0.000000
  0
VERTEX
  8
0
  6
CONTINUOUS
 10
5.890280
 20
1.644720
  0
VERTEX
  8
0
  6
CONTINUOUS
 10
6.534000
 20
2.014320
  0
VERTEX
  8
0
  6
CONTINUOUS
 10
6.543240
 20
1.962840
  0
VERTEX
  8
0
  6
CONTINUOUS
 10
5.899520
 20
1.593240
  0
VERTEX
  8
0
  6
CONTINUOUS
 10
5.890280
 20
1.644720
  0
SEQEND
  8
0
  0
SOLID
  8
0
 62
    15
 10
5.327520
 20
2.535720
 11
5.971240
 21
2.905320
 12
5.349960
 22
2.513720
 13
5.993680
 23
2.883320
  0
POLYLINE
  8
0
  6
CONTINUOUS
 66
     1
 40
0.000000
 41
0.000000
  0
VERTEX
  8
0
  6
CONTINUOUS
 10
5.327520
 20
2.535720
  0
VERTEX
  8
0
  6
CONTINUOUS
 10
5.971240
 20
2.905320
  0
VERTEX
  8
0
  6
CONTINUOUS
 10
5.993680
 20
2.883320
  0
VERTEX
  8
0
  6
CONTINUOUS
 10
5.349960
 20
2.513720
  0
VERTEX
  8
0
  6
CONTINUOUS
 10
5.327520
 20
2.535720
  0
SEQEND
  8
0
  0
SOLID
  8
0
 62
    15
 10
5.904360
 20
1.543080
 11
6.548080
 21
1.912680
 12
5.904360
 22
1.494240
 13
6.548520
 23
1.863840
  0
POLYLINE
  8
0
  6
CONTINUOUS
 66
     1
 40
0.000000
 41
0.000000
  0
VERTEX
  8
0
  6
CONTINUOUS
 10
5.904360
 20
1.543080
  0
VERTEX
  8
0
  6
CONTINUOUS
 10
6.548080
 20
1.912680
  0
VERTEX
  8
0
  6
CONTINUOUS
 10
6.548520
 20
1.863840
  0
VERTEX
  8
0
  6
CONTINUOUS
 10
5.904360
 20
1.494240
  0
VERTEX
  8
0
  6
CONTINUOUS
 10
5.904360
 20
1.543080
  0
SEQEND
  8
0
  0
SOLID
  8
0
 62
    15
 10
5.904360
 20
1.494240
 11
6.548520
 21
1.863840
 12
5.899520
 22
1.447160
 13
6.543240
 23
1.816760
  0
POLYLINE
  8
0
  6
CONTINUOUS
 66
     1
 40
0.000000
 41
0.000000
  0
VERTEX
  8
0
  6
CONTINUOUS
 10
5.904360
 20
1.494240
  0
VERTEX
  8
0
  6
CONTINUOUS
 10
6.548520
 20
1.863840
  0
VERTEX
  8
0
  6
CONTINUOUS
 10
6.543240
 20
1.816760
  0
VERTEX
  8
0
  6
CONTINUOUS
 10
5.899520
 20
1.447160
  0
VERTEX
  8
0
  6
CONTINUOUS
 10
5.904360
 20
1.494240
  0
SEQEND
  8
0
  0
SOLID
  8
0
 62
    15
 10
5.899520
 20
1.447160
 11
6.543240
 21
1.816760
 12
5.888960
 22
1.402280
 13
6.533120
 23
1.771880
  0
POLYLINE
  8
0
  6
CONTINUOUS
 66
     1
 40
0.000000
 41
0.000000
  0
VERTEX
  8
0
  6
CONTINUOUS
 10
5.899520
 20
1.447160
  0
VERTEX
  8
0
  6
CONTINUOUS
 10
6.543240
 20
1.816760
  0
VERTEX
  8
0
  6
CONTINUOUS
 10
6.533120
 20
1.771880
  0
VERTEX
  8
0
  6
CONTINUOUS
 10
5.888960
 20
1.402280
  0
VERTEX
  8
0
  6
CONTINUOUS
 10
5.899520
 20
1.447160
  0
SEQEND
  8
0
  0
SOLID
  8
0
 62
    15
 10
5.888960
 20
1.402280
 11
6.533120
 21
1.771880
 12
5.872680
 22
1.359160
 13
6.516840
 23
1.728760
  0
POLYLINE
  8
0
  6
CONTINUOUS
 66
     1
 40
0.000000
 41
0.000000
  0
VERTEX
  8
0
  6
CONTINUOUS
 10
5.888960
 20
1.402280
  0
VERTEX
  8
0
  6
CONTINUOUS
 10
6.533120
 20
1.771880
  0
VERTEX
  8
0
  6
CONTINUOUS
 10
6.516840
 20
1.728760
  0
VERTEX
  8
0
  6
CONTINUOUS
 10
5.872680
 20
1.359160
  0
VERTEX
  8
0
  6
CONTINUOUS
 10
5.888960
 20
1.402280
  0
SEQEND
  8
0
  0
SOLID
  8
0
 62
    15
 10
5.872680
 20
1.359160
 11
6.516840
 21
1.728760
 12
5.850240
 22
1.319120
 13
6.494400
 23
1.688720
  0
POLYLINE
  8
0
  6
CONTINUOUS
 66
     1
 40
0.000000
 41
0.000000
  0
VERTEX
  8
0
  6
CONTINUOUS
 10
5.872680
 20
1.359160
  0
VERTEX
  8
0
  6
CONTINUOUS
 10
6.516840
 20
1.728760
  0
VERTEX
  8
0
  6
CONTINUOUS
 10
6.494400
 20
1.688720
  0
VERTEX
  8
0
  6
CONTINUOUS
 10
5.850240
 20
1.319120
  0
VERTEX
  8
0
  6
CONTINUOUS
 10
5.872680
 20
1.359160
  0
SEQEND
  8
0
  0
SOLID
  8
0
 62
    15
 10
5.850240
 20
1.319120
 11
6.494400
 21
1.688720
 12
5.821200
 22
1.281720
 13
6.465360
 23
1.651320
  0
POLYLINE
  8
0
  6
CONTINUOUS
 66
     1
 40
0.000000
 41
0.000000
  0
VERTEX
  8
0
  6
CONTINUOUS
 10
5.850240
 20
1.319120
  0
VERTEX
  8
0
  6
CONTINUOUS
 10
6.494400
 20
1.688720
  0
VERTEX
  8
0
  6
CONTINUOUS
 10
6.465360
 20
1.651320
  0
VERTEX
  8
0
  6
CONTINUOUS
 10
5.821200
 20
1.281720
  0
VERTEX
  8
0
  6
CONTINUOUS
 10
5.850240
 20
1.319120
  0
SEQEND
  8
0
  0
SOLID
  8
0
 62
    15
 10
5.632880
 20
1.164680
 11
6.276600
 21
1.534280
 12
5.632880
 22
1.012000
 13
6.276600
 23
1.381600
  0
POLYLINE
  8
0
  6
CONTINUOUS
 66
     1
 40
0.000000
 41
0.000000
  0
VERTEX
  8
0
  6
CONTINUOUS
 10
5.632880
 20
1.164680
  0
VERTEX
  8
0
  6
CONTINUOUS
 10
6.276600
 20
1.534280
  0
VERTEX
  8
0
  6
CONTINUOUS
 10
6.276600
 20
1.381600
  0
VERTEX
  8
0
  6
CONTINUOUS
 10
5.632880
 20
1.012000
  0
VERTEX
  8
0
  6
CONTINUOUS
 10
5.632880
 20
1.164680
  0
SEQEND
  8
0
  0
SOLID
  8
0
 62
    15
 10
5.785560
 20
1.246960
 11
6.429280
 21
1.616560
 12
5.742440
 22
1.216160
 13
6.386160
 23
1.585760
  0
POLYLINE
  8
0
  6
CONTINUOUS
 66
     1
 40
0.000000
 41
0.000000
  0
VERTEX
  8
0
  6
CONTINUOUS
 10
5.785560
 20
1.246960
  0
VERTEX
  8
0
  6
CONTINUOUS
 10
6.429280
 20
1.616560
  0
VERTEX
  8
0
  6
CONTINUOUS
 10
6.386160
 20
1.585760
  0
VERTEX
  8
0
  6
CONTINUOUS
 10
5.742440
 20
1.216160
  0
VERTEX
  8
0
  6
CONTINUOUS
 10
5.785560
 20
1.246960
  0
SEQEND
  8
0
  0
SOLID
  8
0
 62
    15
 10
5.821200
 20
1.281720
 11
6.465360
 21
1.651320
 12
5.785560
 22
1.246960
 13
6.429280
 23
1.616560
  0
POLYLINE
  8
0
  6
CONTINUOUS
 66
     1
 40
0.000000
 41
0.000000
  0
VERTEX
  8
0
  6
CONTINUOUS
 10
5.821200
 20
1.281720
  0
VERTEX
  8
0
  6
CONTINUOUS
 10
6.465360
 20
1.651320
  0
VERTEX
  8
0
  6
CONTINUOUS
 10
6.429280
 20
1.616560
  0
VERTEX
  8
0
  6
CONTINUOUS
 10
5.785560
 20
1.246960
  0
VERTEX
  8
0
  6
CONTINUOUS
 10
5.821200
 20
1.281720
  0
SEQEND
  8
0
  0
SOLID
  8
0
 62
    15
 10
5.084200
 20
2.994200
 11
5.728360
 21
3.363800
 12
5.326640
 22
2.994200
 13
5.970800
 23
3.363800
  0
POLYLINE
  8
0
  6
CONTINUOUS
 66
     1
 40
0.000000
 41
0.000000
  0
VERTEX
  8
0
  6
CONTINUOUS
 10
5.084200
 20
2.994200
  0
VERTEX
  8
0
  6
CONTINUOUS
 10
5.728360
 20
3.363800
  0
VERTEX
  8
0
  6
CONTINUOUS
 10
5.970800
 20
3.363800
  0
VERTEX
  8
0
  6
CONTINUOUS
 10
5.326640
 20
2.994200
  0
VERTEX
  8
0
  6
CONTINUOUS
 10
5.084200
 20
2.994200
  0
SEQEND
  8
0
  0
SOLID
  8
0
 62
    15
 10
5.326640
 20
2.994200
 11
5.970800
 21
3.363800
 12
5.326640
 22
2.537920
 13
5.970800
 23
2.907080
  0
POLYLINE
  8
0
  6
CONTINUOUS
 66
     1
 40
0.000000
 41
0.000000
  0
VERTEX
  8
0
  6
CONTINUOUS
 10
5.326640
 20
2.994200
  0
VERTEX
  8
0
  6
CONTINUOUS
 10
5.970800
 20
3.363800
  0
VERTEX
  8
0
  6
CONTINUOUS
 10
5.970800
 20
2.907080
  0
VERTEX
  8
0
  6
CONTINUOUS
 10
5.326640
 20
2.537920
  0
VERTEX
  8
0
  6
CONTINUOUS
 10
5.326640
 20
2.994200
  0
SEQEND
  8
0
  0
SOLID
  8
0
 62
    15
 10
5.326640
 20
2.537920
 11
5.970800
 21
2.907080
 12
5.327520
 22
2.535720
 13
5.971240
 23
2.905320
  0
POLYLINE
  8
0
  6
CONTINUOUS
 66
     1
 40
0.000000
 41
0.000000
  0
VERTEX
  8
0
  6
CONTINUOUS
 10
5.326640
 20
2.537920
  0
VERTEX
  8
0
  6
CONTINUOUS
 10
5.970800
 20
2.907080
  0
VERTEX
  8
0
  6
CONTINUOUS
 10
5.971240
 20
2.905320
  0
VERTEX
  8
0
  6
CONTINUOUS
 10
5.327520
 20
2.535720
  0
VERTEX
  8
0
  6
CONTINUOUS
 10
5.326640
 20
2.537920
  0
SEQEND
  8
0
  0
POLYLINE
  8
0
  6
CONTINUOUS
 66
     1
 40
0.000000
 41
0.000000
  0
VERTEX
  8
0
  6
CONTINUOUS
 10
5.327520
 20
2.535720
  0
VERTEX
  8
0
  6
CONTINUOUS
 10
5.349960
 20
2.513720
  0
VERTEX
  8
0
  6
CONTINUOUS
 10
5.375480
 20
2.488200
  0
VERTEX
  8
0
  6
CONTINUOUS
 10
5.403200
 20
2.458720
  0
VERTEX
  8
0
  6
CONTINUOUS
 10
5.432680
 20
2.425720
  0
VERTEX
  8
0
  6
CONTINUOUS
 10
5.496920
 20
2.350480
  0
VERTEX
  8
0
  6
CONTINUOUS
 10
5.564680
 20
2.265120
  0
VERTEX
  8
0
  6
CONTINUOUS
 10
5.633320
 20
2.170960
  0
VERTEX
  8
0
  6
CONTINUOUS
 10
5.699760
 20
2.070200
  0
VERTEX
  8
0
  6
CONTINUOUS
 10
5.761800
 20
1.965480
  0
VERTEX
  8
0
  6
CONTINUOUS
 10
5.815920
 20
1.858120
  0
VERTEX
  8
0
  6
CONTINUOUS
 10
5.859920
 20
1.750320
  0
VERTEX
  8
0
  6
CONTINUOUS
 10
5.890280
 20
1.644720
  0
VERTEX
  8
0
  6
CONTINUOUS
 10
5.899520
 20
1.593240
  0
VERTEX
  8
0
  6
CONTINUOUS
 10
5.904360
 20
1.543080
  0
VERTEX
  8
0
  6
CONTINUOUS
 10
5.904360
 20
1.494240
  0
VERTEX
  8
0
  6
CONTINUOUS
 10
5.899520
 20
1.447160
  0
VERTEX
  8
0
  6
CONTINUOUS
 10
5.888960
 20
1.402280
  0
VERTEX
  8
0
  6
CONTINUOUS
 10
5.872680
 20
1.359160
  0
VERTEX
  8
0
  6
CONTINUOUS
 10
5.850240
 20
1.319120
  0
VERTEX
  8
0
  6
CONTINUOUS
 10
5.821200
 20
1.281720
  0
VERTEX
  8
0
  6
CONTINUOUS
 10
5.785560
 20
1.246960
  0
VERTEX
  8
0
  6
CONTINUOUS
 10
5.742440
 20
1.216160
  0
VERTEX
  8
0
  6
CONTINUOUS
 10
5.691400
 20
1.188440
  0
VERTEX
  8
0
  6
CONTINUOUS
 10
5.632880
 20
1.164680
  0
VERTEX
  8
0
  6
CONTINUOUS
 10
5.632880
 20
1.012000
  0
VERTEX
  8
0
  6
CONTINUOUS
 10
5.084200
 20
1.012000
  0
VERTEX
  8
0
  6
CONTINUOUS
 10
5.084200
 20
2.994200
  0
VERTEX
  8
0
  6
CONTINUOUS
 10
5.326640
 20
2.994200
  0
VERTEX
  8
0
  6
CONTINUOUS
 10
5.326640
 20
2.537920
  0
VERTEX
  8
0
  6
CONTINUOUS
 10
5.327520
 20
2.535720
  0
SEQEND
  8
0
  0
TEXT
  8
0
 10
5.520240
 20
0.796840
 40
0.138124
  1
BA  989
 41
1.000000
  7
SN0
 71
     0
 72
     5
 11
6.110036
 21
0.796840
  0
TEXT
  8
0
 10
5.415080
 20
0.605440
 40
0.138124
  1
13/16" x 2"
 41
1.000000
  7
SN0
 71
     0
 72
     5
 11
6.214054
 21
0.605440
  0
POLYLINE
  8
0
  6
CONTINUOUS
 66
     1
 40
0.000000
 41
0.000000
  0
VERTEX
  8
0
  6
CONTINUOUS
 10
7.007000
 20
2.889480
  0
VERTEX
  8
0
  6
CONTINUOUS
 10
7.068600
 20
2.827440
  0
VERTEX
  8
0
  6
CONTINUOUS
 10
7.143840
 20
2.743400
  0
VERTEX
  8
0
  6
CONTINUOUS
 10
7.209840
 20
2.662440
  0
VERTEX
  8
0
  6
CONTINUOUS
 10
7.278480
 20
2.572680
  0
VERTEX
  8
0
  6
CONTINUOUS
 10
7.346680
 20
2.475000
  0
VERTEX
  8
0
  6
CONTINUOUS
 10
7.411360
 20
2.372040
  0
VERTEX
  8
0
  6
CONTINUOUS
 10
7.469440
 20
2.265560
  0
VERTEX
  8
0
  6
CONTINUOUS
 10
7.507720
 20
2.184600
  0
VERTEX
  8
0
  6
CONTINUOUS
 10
7.539400
 20
2.104080
  0
VERTEX
  8
0
  6
CONTINUOUS
 10
7.556560
 20
2.050840
  0
VERTEX
  8
0
  6
CONTINUOUS
 10
7.569760
 20
1.998480
  0
VERTEX
  8
0
  6
CONTINUOUS
 10
7.579000
 20
1.947000
  0
VERTEX
  8
0
  6
CONTINUOUS
 10
7.583840
 20
1.896400
  0
VERTEX
  8
0
  6
CONTINUOUS
 10
7.584280
 20
1.848000
  0
VERTEX
  8
0
  6
CONTINUOUS
 10
7.579000
 20
1.800920
  0
VERTEX
  8
0
  6
CONTINUOUS
 10
7.574600
 20
1.778040
  0
VERTEX
  8
0
  6
CONTINUOUS
 10
7.561400
 20
1.734040
  0
VERTEX
  8
0
  6
CONTINUOUS
 10
7.542040
 20
1.692240
  0
VERTEX
  8
0
  6
CONTINUOUS
 10
7.516080
 20
1.653520
  0
VERTEX
  8
0
  6
CONTINUOUS
 10
7.483960
 20
1.617440
  0
VERTEX
  8
0
  6
CONTINUOUS
 10
7.444360
 20
1.584440
  0
VERTEX
  8
0
  6
CONTINUOUS
 10
7.397280
 20
1.554960
  0
VERTEX
  8
0
  6
CONTINUOUS
 10
7.342720
 20
1.529440
  0
VERTEX
  8
0
  6
CONTINUOUS
 10
7.312360
 20
1.518000
  0
VERTEX
  8
0
  6
CONTINUOUS
 10
7.312360
 20
1.365320
  0
VERTEX
  8
0
  6
CONTINUOUS
 10
6.763680
 20
1.365320
  0
VERTEX
  8
0
  6
CONTINUOUS
 10
6.763680
 20
3.347520
  0
VERTEX
  8
0
  6
CONTINUOUS
 10
7.006120
 20
3.347520
  0
VERTEX
  8
0
  6
CONTINUOUS
 10
7.006120
 20
2.891240
  0
VERTEX
  8
0
  6
CONTINUOUS
 10
7.007000
 20
2.889480
  0
SEQEND
  8
0
  0
TEXT
  8
0
 10
6.878080
 20
1.045000
 40
0.138124
  1
BA  989
 41
1.000000
  7
SN0
 71
     0
 72
     5
 11
7.467876
 21
1.045000
  0
TEXT
  8
0
 10
6.772920
 20
0.853160
 40
0.138124
  1
13/16" x 2"
 41
1.000000
  7
SN0
 71
     0
 72
     5
 11
7.571894
 21
0.853160
  0
ENDSEC
  0
EOF
