  0
SECTION
  2
HEADER
  9
$ACADVER
  1
AC1006
  9
$EXTMIN
 10
3.358960
 20
0.843920
  9
$EXTMAX
 10
7.444360
 20
4.164600
  9
$LTSCALE
 40
0.044000
  9
$PDMODE
 70
    35
  9
$PDSIZE
 40
0.035200
  0
ENDSEC
  0
SECTION
  2
TABLES
  0
TABLE
  2
LTYPE
 70
     9
  0
LTYPE
  2
CONTINUOUS
 70
    64
  3
Solid line
 72
    65
 73
     0
 40
0.000000
  0
LTYPE
  2
DASHED
 70
    64
  3
__ __ __ __ __ __ __ __ __ __ __ __ __ __ __
 72
    65
 73
     2
 40
0.000330
 49
0.000220
 49
-0.000110
  0
LTYPE
  2
HIDDEN
 70
    64
  3
 _ _ _ _ _ _ _ _ _ _ _ _ _ _ _ _ _ _ _ _ _ _
 72
    65
 73
     2
 40
0.000165
 49
0.000110
 49
-0.000055
  0
LTYPE
  2
CENTER
 70
    64
  3
____ _ ____ _ ____ _ ____ _ ____ _ ____ _ ____
 72
    65
 73
     4
 40
0.000880
 49
0.000550
 49
-0.000110
 49
0.000110
 49
-0.000110
  0
LTYPE
  2
PHANTOM
 70
    64
  3
_____ _ _ _____ _ _ _____ _ _ _____ _ _ ____
 72
    65
 73
     6
 40
0.001100
 49
0.000550
 49
-0.000110
 49
0.000110
 49
-0.000110
 49
0.000110
 49
-0.000110
  0
LTYPE
  2
DOT
 70
    64
  3
...............................................
 72
    65
 73
     2
 40
0.000110
 49
0.000000
 49
-0.000110
  0
LTYPE
  2
DASHDOT
 70
    64
  3
__ . __ . __ . __ . __ . __ . __ . __ . __ . __
 72
    65
 73
     4
 40
0.000440
 49
0.000220
 49
-0.000110
 49
0.000000
 49
-0.000110
  0
LTYPE
  2
BORDER
 70
    64
  3
__ __ . __ __ . __ __ . __ __ . __ __ . __ __
 72
    65
 73
     6
 40
0.000770
 49
0.000220
 49
-0.000110
 49
0.000220
 49
-0.000110
 49
0.000000
 49
-0.000110
  0
LTYPE
  2
DIVIDE
 70
    64
  3
__ . . __ . . __ . . __ . . __ . . __ . . __
 72
    65
 73
     6
 40
0.000550
 49
0.000220
 49
-0.000110
 49
0.000000
 49
-0.000110
 49
0.000000
 49
-0.000110
  0
LTYPE
  2
DOTDOT
 70
    64
  3
 . .  . .  . .  . .  . .  . . 
 72
    65
 73
     5
 40
0.000242
 49
-0.000110
 49
0.000000
 49
-0.000110
 49
0.000000
 49
-0.000110
  0
ENDTAB
  0
TABLE
  2
STYLE
 70
     2
  0
STYLE
 70
     0
  2
SN0
 40
0.000000
 41
0.000440
 50
0.000000
 71
     0
 42
0.000000
  3
ROMAND
  0
STYLE
 70
    68
  2
SV0
 40
0.000000
 41
0.000440
 50
0.000000
 71
     0
 42
0.000000
  3
ROMAND
  0
ENDTAB
  0
TABLE
  2
LAYER
 70
     3
  0
LAYER
  2
FOREGROUND
 70
    64
 62
     7
  6
CONTINUOUS
  0
LAYER
  2
BACKGROUND
 70
    65
 62
    -7
  6
CONTINUOUS
  0
LAYER
  2
0
 70
    64
 62
     7
  6
CONTINUOUS
  0
ENDTAB
  0
ENDSEC
  0
SECTION
  2
ENTITIES
  0
POLYLINE
  8
FOREGROUND
  6
CONTINUOUS
 66
     1
 40
0.000000
 41
0.000000
  0
VERTEX
  8
FOREGROUND
  6
CONTINUOUS
 10
0.000000
 20
5.008520
  0
VERTEX
  8
FOREGROUND
  6
CONTINUOUS
 10
8.499920
 20
5.008520
  0
VERTEX
  8
FOREGROUND
  6
CONTINUOUS
 10
8.499920
 20
-5.991480
  0
VERTEX
  8
FOREGROUND
  6
CONTINUOUS
 10
0.000000
 20
-5.991480
  0
VERTEX
  8
FOREGROUND
  6
CONTINUOUS
 10
0.000000
 20
5.008520
  0
SEQEND
  8
0
  0
POLYLINE
  8
FOREGROUND
  6
CONTINUOUS
 66
     1
 40
0.000000
 41
0.000000
  0
VERTEX
  8
FOREGROUND
  6
CONTINUOUS
 10
0.000000
 20
5.008520
  0
VERTEX
  8
FOREGROUND
  6
CONTINUOUS
 10
8.499920
 20
5.008520
  0
VERTEX
  8
FOREGROUND
  6
CONTINUOUS
 10
8.499920
 20
-5.991480
  0
VERTEX
  8
FOREGROUND
  6
CONTINUOUS
 10
0.000000
 20
-5.991480
  0
VERTEX
  8
FOREGROUND
  6
CONTINUOUS
 10
0.000000
 20
5.008520
  0
SEQEND
  8
0
  0
SOLID
  8
0
 62
    15
 10
3.831960
 20
2.678280
 11
4.584360
 21
2.676520
 12
3.816120
 22
2.643520
 13
4.568520
 23
2.642200
  0
POLYLINE
  8
0
  6
CONTINUOUS
 66
     1
 40
0.000000
 41
0.000000
  0
VERTEX
  8
0
  6
CONTINUOUS
 10
3.831960
 20
2.678280
  0
VERTEX
  8
0
  6
CONTINUOUS
 10
4.584360
 20
2.676520
  0
VERTEX
  8
0
  6
CONTINUOUS
 10
4.568520
 20
2.642200
  0
VERTEX
  8
0
  6
CONTINUOUS
 10
3.816120
 20
2.643520
  0
VERTEX
  8
0
  6
CONTINUOUS
 10
3.831960
 20
2.678280
  0
SEQEND
  8
0
  0
SOLID
  8
0
 62
    15
 10
3.602720
 20
4.150080
 11
4.354680
 21
4.148760
 12
3.607560
 22
4.087160
 13
4.359960
 23
4.085840
  0
POLYLINE
  8
0
  6
CONTINUOUS
 66
     1
 40
0.000000
 41
0.000000
  0
VERTEX
  8
0
  6
CONTINUOUS
 10
3.602720
 20
4.150080
  0
VERTEX
  8
0
  6
CONTINUOUS
 10
4.354680
 20
4.148760
  0
VERTEX
  8
0
  6
CONTINUOUS
 10
4.359960
 20
4.085840
  0
VERTEX
  8
0
  6
CONTINUOUS
 10
3.607560
 20
4.087160
  0
VERTEX
  8
0
  6
CONTINUOUS
 10
3.602720
 20
4.150080
  0
SEQEND
  8
0
  0
SOLID
  8
0
 62
    15
 10
3.607560
 20
4.087160
 11
4.359960
 21
4.085840
 12
3.622080
 22
4.031720
 13
4.374480
 23
4.029960
  0
POLYLINE
  8
0
  6
CONTINUOUS
 66
     1
 40
0.000000
 41
0.000000
  0
VERTEX
  8
0
  6
CONTINUOUS
 10
3.607560
 20
4.087160
  0
VERTEX
  8
0
  6
CONTINUOUS
 10
4.359960
 20
4.085840
  0
VERTEX
  8
0
  6
CONTINUOUS
 10
4.374480
 20
4.029960
  0
VERTEX
  8
0
  6
CONTINUOUS
 10
3.622080
 20
4.031720
  0
VERTEX
  8
0
  6
CONTINUOUS
 10
3.607560
 20
4.087160
  0
SEQEND
  8
0
  0
SOLID
  8
0
 62
    15
 10
3.622080
 20
4.031720
 11
4.374480
 21
4.029960
 12
3.644960
 22
3.983320
 13
4.397360
 23
3.981560
  0
POLYLINE
  8
0
  6
CONTINUOUS
 66
     1
 40
0.000000
 41
0.000000
  0
VERTEX
  8
0
  6
CONTINUOUS
 10
3.622080
 20
4.031720
  0
VERTEX
  8
0
  6
CONTINUOUS
 10
4.374480
 20
4.029960
  0
VERTEX
  8
0
  6
CONTINUOUS
 10
4.397360
 20
3.981560
  0
VERTEX
  8
0
  6
CONTINUOUS
 10
3.644960
 20
3.983320
  0
VERTEX
  8
0
  6
CONTINUOUS
 10
3.622080
 20
4.031720
  0
SEQEND
  8
0
  0
SOLID
  8
0
 62
    15
 10
3.644960
 20
3.983320
 11
4.397360
 21
3.981560
 12
3.674880
 22
3.942840
 13
4.427280
 23
3.941080
  0
POLYLINE
  8
0
  6
CONTINUOUS
 66
     1
 40
0.000000
 41
0.000000
  0
VERTEX
  8
0
  6
CONTINUOUS
 10
3.644960
 20
3.983320
  0
VERTEX
  8
0
  6
CONTINUOUS
 10
4.397360
 20
3.981560
  0
VERTEX
  8
0
  6
CONTINUOUS
 10
4.427280
 20
3.941080
  0
VERTEX
  8
0
  6
CONTINUOUS
 10
3.674880
 20
3.942840
  0
VERTEX
  8
0
  6
CONTINUOUS
 10
3.644960
 20
3.983320
  0
SEQEND
  8
0
  0
SOLID
  8
0
 62
    15
 10
3.674880
 20
3.942840
 11
4.427280
 21
3.941080
 12
3.710960
 22
3.910720
 13
4.463360
 23
3.908960
  0
POLYLINE
  8
0
  6
CONTINUOUS
 66
     1
 40
0.000000
 41
0.000000
  0
VERTEX
  8
0
  6
CONTINUOUS
 10
3.674880
 20
3.942840
  0
VERTEX
  8
0
  6
CONTINUOUS
 10
4.427280
 20
3.941080
  0
VERTEX
  8
0
  6
CONTINUOUS
 10
4.463360
 20
3.908960
  0
VERTEX
  8
0
  6
CONTINUOUS
 10
3.710960
 20
3.910720
  0
VERTEX
  8
0
  6
CONTINUOUS
 10
3.674880
 20
3.942840
  0
SEQEND
  8
0
  0
SOLID
  8
0
 62
    15
 10
3.710960
 20
3.910720
 11
4.463360
 21
3.908960
 12
3.751880
 22
3.886960
 13
4.503840
 23
3.885640
  0
POLYLINE
  8
0
  6
CONTINUOUS
 66
     1
 40
0.000000
 41
0.000000
  0
VERTEX
  8
0
  6
CONTINUOUS
 10
3.710960
 20
3.910720
  0
VERTEX
  8
0
  6
CONTINUOUS
 10
4.463360
 20
3.908960
  0
VERTEX
  8
0
  6
CONTINUOUS
 10
4.503840
 20
3.885640
  0
VERTEX
  8
0
  6
CONTINUOUS
 10
3.751880
 20
3.886960
  0
VERTEX
  8
0
  6
CONTINUOUS
 10
3.710960
 20
3.910720
  0
SEQEND
  8
0
  0
SOLID
  8
0
 62
    15
 10
3.751880
 20
3.886960
 11
4.503840
 21
3.885640
 12
3.796320
 22
3.872880
 13
4.548280
 23
3.871120
  0
POLYLINE
  8
0
  6
CONTINUOUS
 66
     1
 40
0.000000
 41
0.000000
  0
VERTEX
  8
0
  6
CONTINUOUS
 10
3.751880
 20
3.886960
  0
VERTEX
  8
0
  6
CONTINUOUS
 10
4.503840
 20
3.885640
  0
VERTEX
  8
0
  6
CONTINUOUS
 10
4.548280
 20
3.871120
  0
VERTEX
  8
0
  6
CONTINUOUS
 10
3.796320
 20
3.872880
  0
VERTEX
  8
0
  6
CONTINUOUS
 10
3.751880
 20
3.886960
  0
SEQEND
  8
0
  0
SOLID
  8
0
 62
    15
 10
3.796320
 20
3.872880
 11
4.548280
 21
3.871120
 12
3.843400
 22
3.867600
 13
4.595360
 23
3.866280
  0
POLYLINE
  8
0
  6
CONTINUOUS
 66
     1
 40
0.000000
 41
0.000000
  0
VERTEX
  8
0
  6
CONTINUOUS
 10
3.796320
 20
3.872880
  0
VERTEX
  8
0
  6
CONTINUOUS
 10
4.548280
 20
3.871120
  0
VERTEX
  8
0
  6
CONTINUOUS
 10
4.595360
 20
3.866280
  0
VERTEX
  8
0
  6
CONTINUOUS
 10
3.843400
 20
3.867600
  0
VERTEX
  8
0
  6
CONTINUOUS
 10
3.796320
 20
3.872880
  0
SEQEND
  8
0
  0
SOLID
  8
0
 62
    15
 10
3.843400
 20
3.867600
 11
4.595360
 21
3.866280
 12
3.843400
 22
3.749680
 13
4.595360
 23
3.748360
  0
POLYLINE
  8
0
  6
CONTINUOUS
 66
     1
 40
0.000000
 41
0.000000
  0
VERTEX
  8
0
  6
CONTINUOUS
 10
3.843400
 20
3.867600
  0
VERTEX
  8
0
  6
CONTINUOUS
 10
4.595360
 20
3.866280
  0
VERTEX
  8
0
  6
CONTINUOUS
 10
4.595360
 20
3.748360
  0
VERTEX
  8
0
  6
CONTINUOUS
 10
3.843400
 20
3.749680
  0
VERTEX
  8
0
  6
CONTINUOUS
 10
3.843400
 20
3.867600
  0
SEQEND
  8
0
  0
SOLID
  8
0
 62
    15
 10
3.843400
 20
3.749680
 11
4.595360
 21
3.748360
 12
3.905000
 22
3.732520
 13
4.656960
 23
3.731200
  0
POLYLINE
  8
0
  6
CONTINUOUS
 66
     1
 40
0.000000
 41
0.000000
  0
VERTEX
  8
0
  6
CONTINUOUS
 10
3.843400
 20
3.749680
  0
VERTEX
  8
0
  6
CONTINUOUS
 10
4.595360
 20
3.748360
  0
VERTEX
  8
0
  6
CONTINUOUS
 10
4.656960
 20
3.731200
  0
VERTEX
  8
0
  6
CONTINUOUS
 10
3.905000
 20
3.732520
  0
VERTEX
  8
0
  6
CONTINUOUS
 10
3.843400
 20
3.749680
  0
SEQEND
  8
0
  0
SOLID
  8
0
 62
    15
 10
3.905000
 20
3.732520
 11
4.656960
 21
3.731200
 12
3.960880
 22
3.713160
 13
4.713280
 23
3.711400
  0
POLYLINE
  8
0
  6
CONTINUOUS
 66
     1
 40
0.000000
 41
0.000000
  0
VERTEX
  8
0
  6
CONTINUOUS
 10
3.905000
 20
3.732520
  0
VERTEX
  8
0
  6
CONTINUOUS
 10
4.656960
 20
3.731200
  0
VERTEX
  8
0
  6
CONTINUOUS
 10
4.713280
 20
3.711400
  0
VERTEX
  8
0
  6
CONTINUOUS
 10
3.960880
 20
3.713160
  0
VERTEX
  8
0
  6
CONTINUOUS
 10
3.905000
 20
3.732520
  0
SEQEND
  8
0
  0
SOLID
  8
0
 62
    15
 10
3.960880
 20
3.713160
 11
4.713280
 21
3.711400
 12
4.011480
 22
3.691160
 13
4.763440
 23
3.689400
  0
POLYLINE
  8
0
  6
CONTINUOUS
 66
     1
 40
0.000000
 41
0.000000
  0
VERTEX
  8
0
  6
CONTINUOUS
 10
3.960880
 20
3.713160
  0
VERTEX
  8
0
  6
CONTINUOUS
 10
4.713280
 20
3.711400
  0
VERTEX
  8
0
  6
CONTINUOUS
 10
4.763440
 20
3.689400
  0
VERTEX
  8
0
  6
CONTINUOUS
 10
4.011480
 20
3.691160
  0
VERTEX
  8
0
  6
CONTINUOUS
 10
3.960880
 20
3.713160
  0
SEQEND
  8
0
  0
SOLID
  8
0
 62
    15
 10
4.011480
 20
3.691160
 11
4.763440
 21
3.689400
 12
4.056800
 22
3.666960
 13
4.808760
 23
3.665200
  0
POLYLINE
  8
0
  6
CONTINUOUS
 66
     1
 40
0.000000
 41
0.000000
  0
VERTEX
  8
0
  6
CONTINUOUS
 10
4.011480
 20
3.691160
  0
VERTEX
  8
0
  6
CONTINUOUS
 10
4.763440
 20
3.689400
  0
VERTEX
  8
0
  6
CONTINUOUS
 10
4.808760
 20
3.665200
  0
VERTEX
  8
0
  6
CONTINUOUS
 10
4.056800
 20
3.666960
  0
VERTEX
  8
0
  6
CONTINUOUS
 10
4.011480
 20
3.691160
  0
SEQEND
  8
0
  0
SOLID
  8
0
 62
    15
 10
4.056800
 20
3.666960
 11
4.808760
 21
3.665200
 12
4.096840
 22
3.641000
 13
4.849240
 23
3.639240
  0
POLYLINE
  8
0
  6
CONTINUOUS
 66
     1
 40
0.000000
 41
0.000000
  0
VERTEX
  8
0
  6
CONTINUOUS
 10
4.056800
 20
3.666960
  0
VERTEX
  8
0
  6
CONTINUOUS
 10
4.808760
 20
3.665200
  0
VERTEX
  8
0
  6
CONTINUOUS
 10
4.849240
 20
3.639240
  0
VERTEX
  8
0
  6
CONTINUOUS
 10
4.096840
 20
3.641000
  0
VERTEX
  8
0
  6
CONTINUOUS
 10
4.056800
 20
3.666960
  0
SEQEND
  8
0
  0
SOLID
  8
0
 62
    15
 10
4.096840
 20
3.641000
 11
4.849240
 21
3.639240
 12
4.132040
 22
3.613280
 13
4.884440
 23
3.611520
  0
POLYLINE
  8
0
  6
CONTINUOUS
 66
     1
 40
0.000000
 41
0.000000
  0
VERTEX
  8
0
  6
CONTINUOUS
 10
4.096840
 20
3.641000
  0
VERTEX
  8
0
  6
CONTINUOUS
 10
4.849240
 20
3.639240
  0
VERTEX
  8
0
  6
CONTINUOUS
 10
4.884440
 20
3.611520
  0
VERTEX
  8
0
  6
CONTINUOUS
 10
4.132040
 20
3.613280
  0
VERTEX
  8
0
  6
CONTINUOUS
 10
4.096840
 20
3.641000
  0
SEQEND
  8
0
  0
SOLID
  8
0
 62
    15
 10
4.132040
 20
3.613280
 11
4.884440
 21
3.611520
 12
4.162840
 22
3.583800
 13
4.914800
 23
3.582480
  0
POLYLINE
  8
0
  6
CONTINUOUS
 66
     1
 40
0.000000
 41
0.000000
  0
VERTEX
  8
0
  6
CONTINUOUS
 10
4.132040
 20
3.613280
  0
VERTEX
  8
0
  6
CONTINUOUS
 10
4.884440
 20
3.611520
  0
VERTEX
  8
0
  6
CONTINUOUS
 10
4.914800
 20
3.582480
  0
VERTEX
  8
0
  6
CONTINUOUS
 10
4.162840
 20
3.583800
  0
VERTEX
  8
0
  6
CONTINUOUS
 10
4.132040
 20
3.613280
  0
SEQEND
  8
0
  0
SOLID
  8
0
 62
    15
 10
4.162840
 20
3.583800
 11
4.914800
 21
3.582480
 12
4.188800
 22
3.553000
 13
4.941200
 23
3.551680
  0
POLYLINE
  8
0
  6
CONTINUOUS
 66
     1
 40
0.000000
 41
0.000000
  0
VERTEX
  8
0
  6
CONTINUOUS
 10
4.162840
 20
3.583800
  0
VERTEX
  8
0
  6
CONTINUOUS
 10
4.914800
 20
3.582480
  0
VERTEX
  8
0
  6
CONTINUOUS
 10
4.941200
 20
3.551680
  0
VERTEX
  8
0
  6
CONTINUOUS
 10
4.188800
 20
3.553000
  0
VERTEX
  8
0
  6
CONTINUOUS
 10
4.162840
 20
3.583800
  0
SEQEND
  8
0
  0
SOLID
  8
0
 62
    15
 10
4.188800
 20
3.553000
 11
4.941200
 21
3.551680
 12
4.210800
 22
3.521320
 13
4.962760
 23
3.519560
  0
POLYLINE
  8
0
  6
CONTINUOUS
 66
     1
 40
0.000000
 41
0.000000
  0
VERTEX
  8
0
  6
CONTINUOUS
 10
4.188800
 20
3.553000
  0
VERTEX
  8
0
  6
CONTINUOUS
 10
4.941200
 20
3.551680
  0
VERTEX
  8
0
  6
CONTINUOUS
 10
4.962760
 20
3.519560
  0
VERTEX
  8
0
  6
CONTINUOUS
 10
4.210800
 20
3.521320
  0
VERTEX
  8
0
  6
CONTINUOUS
 10
4.188800
 20
3.553000
  0
SEQEND
  8
0
  0
SOLID
  8
0
 62
    15
 10
4.210800
 20
3.521320
 11
4.962760
 21
3.519560
 12
4.228400
 22
3.488760
 13
4.980360
 23
3.487000
  0
POLYLINE
  8
0
  6
CONTINUOUS
 66
     1
 40
0.000000
 41
0.000000
  0
VERTEX
  8
0
  6
CONTINUOUS
 10
4.210800
 20
3.521320
  0
VERTEX
  8
0
  6
CONTINUOUS
 10
4.962760
 20
3.519560
  0
VERTEX
  8
0
  6
CONTINUOUS
 10
4.980360
 20
3.487000
  0
VERTEX
  8
0
  6
CONTINUOUS
 10
4.228400
 20
3.488760
  0
VERTEX
  8
0
  6
CONTINUOUS
 10
4.210800
 20
3.521320
  0
SEQEND
  8
0
  0
SOLID
  8
0
 62
    15
 10
4.228400
 20
3.488760
 11
4.980360
 21
3.487000
 12
4.251720
 22
3.421000
 13
5.003680
 23
3.419240
  0
POLYLINE
  8
0
  6
CONTINUOUS
 66
     1
 40
0.000000
 41
0.000000
  0
VERTEX
  8
0
  6
CONTINUOUS
 10
4.228400
 20
3.488760
  0
VERTEX
  8
0
  6
CONTINUOUS
 10
4.980360
 20
3.487000
  0
VERTEX
  8
0
  6
CONTINUOUS
 10
5.003680
 20
3.419240
  0
VERTEX
  8
0
  6
CONTINUOUS
 10
4.251720
 20
3.421000
  0
VERTEX
  8
0
  6
CONTINUOUS
 10
4.228400
 20
3.488760
  0
SEQEND
  8
0
  0
SOLID
  8
0
 62
    15
 10
4.251720
 20
3.421000
 11
5.003680
 21
3.419240
 12
4.260960
 22
3.351480
 13
5.012920
 23
3.349720
  0
POLYLINE
  8
0
  6
CONTINUOUS
 66
     1
 40
0.000000
 41
0.000000
  0
VERTEX
  8
0
  6
CONTINUOUS
 10
4.251720
 20
3.421000
  0
VERTEX
  8
0
  6
CONTINUOUS
 10
5.003680
 20
3.419240
  0
VERTEX
  8
0
  6
CONTINUOUS
 10
5.012920
 20
3.349720
  0
VERTEX
  8
0
  6
CONTINUOUS
 10
4.260960
 20
3.351480
  0
VERTEX
  8
0
  6
CONTINUOUS
 10
4.251720
 20
3.421000
  0
SEQEND
  8
0
  0
SOLID
  8
0
 62
    15
 10
4.260960
 20
3.351480
 11
5.012920
 21
3.349720
 12
4.257000
 22
3.281960
 13
5.009400
 23
3.280200
  0
POLYLINE
  8
0
  6
CONTINUOUS
 66
     1
 40
0.000000
 41
0.000000
  0
VERTEX
  8
0
  6
CONTINUOUS
 10
4.260960
 20
3.351480
  0
VERTEX
  8
0
  6
CONTINUOUS
 10
5.012920
 20
3.349720
  0
VERTEX
  8
0
  6
CONTINUOUS
 10
5.009400
 20
3.280200
  0
VERTEX
  8
0
  6
CONTINUOUS
 10
4.257000
 20
3.281960
  0
VERTEX
  8
0
  6
CONTINUOUS
 10
4.260960
 20
3.351480
  0
SEQEND
  8
0
  0
SOLID
  8
0
 62
    15
 10
4.257000
 20
3.281960
 11
5.009400
 21
3.280200
 12
4.242040
 22
3.213760
 13
4.994000
 23
3.212000
  0
POLYLINE
  8
0
  6
CONTINUOUS
 66
     1
 40
0.000000
 41
0.000000
  0
VERTEX
  8
0
  6
CONTINUOUS
 10
4.257000
 20
3.281960
  0
VERTEX
  8
0
  6
CONTINUOUS
 10
5.009400
 20
3.280200
  0
VERTEX
  8
0
  6
CONTINUOUS
 10
4.994000
 20
3.212000
  0
VERTEX
  8
0
  6
CONTINUOUS
 10
4.242040
 20
3.213760
  0
VERTEX
  8
0
  6
CONTINUOUS
 10
4.257000
 20
3.281960
  0
SEQEND
  8
0
  0
SOLID
  8
0
 62
    15
 10
4.242040
 20
3.213760
 11
4.994000
 21
3.212000
 12
4.216960
 22
3.148200
 13
4.969360
 23
3.146440
  0
POLYLINE
  8
0
  6
CONTINUOUS
 66
     1
 40
0.000000
 41
0.000000
  0
VERTEX
  8
0
  6
CONTINUOUS
 10
4.242040
 20
3.213760
  0
VERTEX
  8
0
  6
CONTINUOUS
 10
4.994000
 20
3.212000
  0
VERTEX
  8
0
  6
CONTINUOUS
 10
4.969360
 20
3.146440
  0
VERTEX
  8
0
  6
CONTINUOUS
 10
4.216960
 20
3.148200
  0
VERTEX
  8
0
  6
CONTINUOUS
 10
4.242040
 20
3.213760
  0
SEQEND
  8
0
  0
SOLID
  8
0
 62
    15
 10
4.216960
 20
3.148200
 11
4.969360
 21
3.146440
 12
4.183520
 22
3.087480
 13
4.935920
 23
3.085720
  0
POLYLINE
  8
0
  6
CONTINUOUS
 66
     1
 40
0.000000
 41
0.000000
  0
VERTEX
  8
0
  6
CONTINUOUS
 10
4.216960
 20
3.148200
  0
VERTEX
  8
0
  6
CONTINUOUS
 10
4.969360
 20
3.146440
  0
VERTEX
  8
0
  6
CONTINUOUS
 10
4.935920
 20
3.085720
  0
VERTEX
  8
0
  6
CONTINUOUS
 10
4.183520
 20
3.087480
  0
VERTEX
  8
0
  6
CONTINUOUS
 10
4.216960
 20
3.148200
  0
SEQEND
  8
0
  0
SOLID
  8
0
 62
    15
 10
4.183520
 20
3.087480
 11
4.935920
 21
3.085720
 12
4.143040
 22
3.032040
 13
4.895440
 23
3.030720
  0
POLYLINE
  8
0
  6
CONTINUOUS
 66
     1
 40
0.000000
 41
0.000000
  0
VERTEX
  8
0
  6
CONTINUOUS
 10
4.183520
 20
3.087480
  0
VERTEX
  8
0
  6
CONTINUOUS
 10
4.935920
 20
3.085720
  0
VERTEX
  8
0
  6
CONTINUOUS
 10
4.895440
 20
3.030720
  0
VERTEX
  8
0
  6
CONTINUOUS
 10
4.143040
 20
3.032040
  0
VERTEX
  8
0
  6
CONTINUOUS
 10
4.183520
 20
3.087480
  0
SEQEND
  8
0
  0
SOLID
  8
0
 62
    15
 10
4.143040
 20
3.032040
 11
4.895440
 21
3.030720
 12
4.097280
 22
2.984520
 13
4.849240
 23
2.982760
  0
POLYLINE
  8
0
  6
CONTINUOUS
 66
     1
 40
0.000000
 41
0.000000
  0
VERTEX
  8
0
  6
CONTINUOUS
 10
4.143040
 20
3.032040
  0
VERTEX
  8
0
  6
CONTINUOUS
 10
4.895440
 20
3.030720
  0
VERTEX
  8
0
  6
CONTINUOUS
 10
4.849240
 20
2.982760
  0
VERTEX
  8
0
  6
CONTINUOUS
 10
4.097280
 20
2.984520
  0
VERTEX
  8
0
  6
CONTINUOUS
 10
4.143040
 20
3.032040
  0
SEQEND
  8
0
  0
SOLID
  8
0
 62
    15
 10
4.097280
 20
2.984520
 11
4.849240
 21
2.982760
 12
4.047120
 22
2.945800
 13
4.799520
 23
2.944040
  0
POLYLINE
  8
0
  6
CONTINUOUS
 66
     1
 40
0.000000
 41
0.000000
  0
VERTEX
  8
0
  6
CONTINUOUS
 10
4.097280
 20
2.984520
  0
VERTEX
  8
0
  6
CONTINUOUS
 10
4.849240
 20
2.982760
  0
VERTEX
  8
0
  6
CONTINUOUS
 10
4.799520
 20
2.944040
  0
VERTEX
  8
0
  6
CONTINUOUS
 10
4.047120
 20
2.945800
  0
VERTEX
  8
0
  6
CONTINUOUS
 10
4.097280
 20
2.984520
  0
SEQEND
  8
0
  0
SOLID
  8
0
 62
    15
 10
4.047120
 20
2.945800
 11
4.799520
 21
2.944040
 12
3.994760
 22
2.917200
 13
4.747160
 23
2.915880
  0
POLYLINE
  8
0
  6
CONTINUOUS
 66
     1
 40
0.000000
 41
0.000000
  0
VERTEX
  8
0
  6
CONTINUOUS
 10
4.047120
 20
2.945800
  0
VERTEX
  8
0
  6
CONTINUOUS
 10
4.799520
 20
2.944040
  0
VERTEX
  8
0
  6
CONTINUOUS
 10
4.747160
 20
2.915880
  0
VERTEX
  8
0
  6
CONTINUOUS
 10
3.994760
 20
2.917200
  0
VERTEX
  8
0
  6
CONTINUOUS
 10
4.047120
 20
2.945800
  0
SEQEND
  8
0
  0
SOLID
  8
0
 62
    15
 10
3.994760
 20
2.917200
 11
4.747160
 21
2.915880
 12
3.941520
 22
2.900920
 13
4.693920
 23
2.899600
  0
POLYLINE
  8
0
  6
CONTINUOUS
 66
     1
 40
0.000000
 41
0.000000
  0
VERTEX
  8
0
  6
CONTINUOUS
 10
3.994760
 20
2.917200
  0
VERTEX
  8
0
  6
CONTINUOUS
 10
4.747160
 20
2.915880
  0
VERTEX
  8
0
  6
CONTINUOUS
 10
4.693920
 20
2.899600
  0
VERTEX
  8
0
  6
CONTINUOUS
 10
3.941520
 20
2.900920
  0
VERTEX
  8
0
  6
CONTINUOUS
 10
3.994760
 20
2.917200
  0
SEQEND
  8
0
  0
SOLID
  8
0
 62
    15
 10
3.941520
 20
2.900920
 11
4.693920
 21
2.899600
 12
3.941520
 22
2.763640
 13
4.693920
 23
2.761880
  0
POLYLINE
  8
0
  6
CONTINUOUS
 66
     1
 40
0.000000
 41
0.000000
  0
VERTEX
  8
0
  6
CONTINUOUS
 10
3.941520
 20
2.900920
  0
VERTEX
  8
0
  6
CONTINUOUS
 10
4.693920
 20
2.899600
  0
VERTEX
  8
0
  6
CONTINUOUS
 10
4.693920
 20
2.761880
  0
VERTEX
  8
0
  6
CONTINUOUS
 10
3.941520
 20
2.763640
  0
VERTEX
  8
0
  6
CONTINUOUS
 10
3.941520
 20
2.900920
  0
SEQEND
  8
0
  0
SOLID
  8
0
 62
    15
 10
3.941520
 20
2.763640
 11
4.693920
 21
2.761880
 12
3.906320
 22
2.751320
 13
4.658720
 23
2.749560
  0
POLYLINE
  8
0
  6
CONTINUOUS
 66
     1
 40
0.000000
 41
0.000000
  0
VERTEX
  8
0
  6
CONTINUOUS
 10
3.941520
 20
2.763640
  0
VERTEX
  8
0
  6
CONTINUOUS
 10
4.693920
 20
2.761880
  0
VERTEX
  8
0
  6
CONTINUOUS
 10
4.658720
 20
2.749560
  0
VERTEX
  8
0
  6
CONTINUOUS
 10
3.906320
 20
2.751320
  0
VERTEX
  8
0
  6
CONTINUOUS
 10
3.941520
 20
2.763640
  0
SEQEND
  8
0
  0
SOLID
  8
0
 62
    15
 10
3.906320
 20
2.751320
 11
4.658720
 21
2.749560
 12
3.876400
 22
2.732840
 13
4.628800
 23
2.731080
  0
POLYLINE
  8
0
  6
CONTINUOUS
 66
     1
 40
0.000000
 41
0.000000
  0
VERTEX
  8
0
  6
CONTINUOUS
 10
3.906320
 20
2.751320
  0
VERTEX
  8
0
  6
CONTINUOUS
 10
4.658720
 20
2.749560
  0
VERTEX
  8
0
  6
CONTINUOUS
 10
4.628800
 20
2.731080
  0
VERTEX
  8
0
  6
CONTINUOUS
 10
3.876400
 20
2.732840
  0
VERTEX
  8
0
  6
CONTINUOUS
 10
3.906320
 20
2.751320
  0
SEQEND
  8
0
  0
SOLID
  8
0
 62
    15
 10
3.876400
 20
2.732840
 11
4.628800
 21
2.731080
 12
3.851760
 22
2.708200
 13
4.604160
 23
2.706440
  0
POLYLINE
  8
0
  6
CONTINUOUS
 66
     1
 40
0.000000
 41
0.000000
  0
VERTEX
  8
0
  6
CONTINUOUS
 10
3.876400
 20
2.732840
  0
VERTEX
  8
0
  6
CONTINUOUS
 10
4.628800
 20
2.731080
  0
VERTEX
  8
0
  6
CONTINUOUS
 10
4.604160
 20
2.706440
  0
VERTEX
  8
0
  6
CONTINUOUS
 10
3.851760
 20
2.708200
  0
VERTEX
  8
0
  6
CONTINUOUS
 10
3.876400
 20
2.732840
  0
SEQEND
  8
0
  0
SOLID
  8
0
 62
    15
 10
3.851760
 20
2.708200
 11
4.604160
 21
2.706440
 12
3.831960
 22
2.678280
 13
4.584360
 23
2.676520
  0
POLYLINE
  8
0
  6
CONTINUOUS
 66
     1
 40
0.000000
 41
0.000000
  0
VERTEX
  8
0
  6
CONTINUOUS
 10
3.851760
 20
2.708200
  0
VERTEX
  8
0
  6
CONTINUOUS
 10
4.604160
 20
2.706440
  0
VERTEX
  8
0
  6
CONTINUOUS
 10
4.584360
 20
2.676520
  0
VERTEX
  8
0
  6
CONTINUOUS
 10
3.831960
 20
2.678280
  0
VERTEX
  8
0
  6
CONTINUOUS
 10
3.851760
 20
2.708200
  0
SEQEND
  8
0
  0
SOLID
  8
0
 62
    15
 10
3.536280
 20
1.336720
 11
4.288680
 21
1.334960
 12
3.359400
 22
1.336720
 13
4.111800
 23
1.334960
  0
POLYLINE
  8
0
  6
CONTINUOUS
 66
     1
 40
0.000000
 41
0.000000
  0
VERTEX
  8
0
  6
CONTINUOUS
 10
3.536280
 20
1.336720
  0
VERTEX
  8
0
  6
CONTINUOUS
 10
4.288680
 20
1.334960
  0
VERTEX
  8
0
  6
CONTINUOUS
 10
4.111800
 20
1.334960
  0
VERTEX
  8
0
  6
CONTINUOUS
 10
3.359400
 20
1.336720
  0
VERTEX
  8
0
  6
CONTINUOUS
 10
3.536280
 20
1.336720
  0
SEQEND
  8
0
  0
SOLID
  8
0
 62
    15
 10
3.816120
 20
2.643520
 11
4.568520
 21
2.642200
 12
3.803800
 22
2.604800
 13
4.556200
 23
2.603040
  0
POLYLINE
  8
0
  6
CONTINUOUS
 66
     1
 40
0.000000
 41
0.000000
  0
VERTEX
  8
0
  6
CONTINUOUS
 10
3.816120
 20
2.643520
  0
VERTEX
  8
0
  6
CONTINUOUS
 10
4.568520
 20
2.642200
  0
VERTEX
  8
0
  6
CONTINUOUS
 10
4.556200
 20
2.603040
  0
VERTEX
  8
0
  6
CONTINUOUS
 10
3.803800
 20
2.604800
  0
VERTEX
  8
0
  6
CONTINUOUS
 10
3.816120
 20
2.643520
  0
SEQEND
  8
0
  0
SOLID
  8
0
 62
    15
 10
3.803800
 20
2.604800
 11
4.556200
 21
2.603040
 12
3.788840
 22
2.515920
 13
4.540800
 23
2.514160
  0
POLYLINE
  8
0
  6
CONTINUOUS
 66
     1
 40
0.000000
 41
0.000000
  0
VERTEX
  8
0
  6
CONTINUOUS
 10
3.803800
 20
2.604800
  0
VERTEX
  8
0
  6
CONTINUOUS
 10
4.556200
 20
2.603040
  0
VERTEX
  8
0
  6
CONTINUOUS
 10
4.540800
 20
2.514160
  0
VERTEX
  8
0
  6
CONTINUOUS
 10
3.788840
 20
2.515920
  0
VERTEX
  8
0
  6
CONTINUOUS
 10
3.803800
 20
2.604800
  0
SEQEND
  8
0
  0
SOLID
  8
0
 62
    15
 10
3.788840
 20
2.515920
 11
4.540800
 21
2.514160
 12
3.782240
 22
2.416480
 13
4.534640
 23
2.415160
  0
POLYLINE
  8
0
  6
CONTINUOUS
 66
     1
 40
0.000000
 41
0.000000
  0
VERTEX
  8
0
  6
CONTINUOUS
 10
3.788840
 20
2.515920
  0
VERTEX
  8
0
  6
CONTINUOUS
 10
4.540800
 20
2.514160
  0
VERTEX
  8
0
  6
CONTINUOUS
 10
4.534640
 20
2.415160
  0
VERTEX
  8
0
  6
CONTINUOUS
 10
3.782240
 20
2.416480
  0
VERTEX
  8
0
  6
CONTINUOUS
 10
3.788840
 20
2.515920
  0
SEQEND
  8
0
  0
SOLID
  8
0
 62
    15
 10
3.782240
 20
2.416480
 11
4.534640
 21
2.415160
 12
3.781360
 22
2.310880
 13
4.533320
 23
2.309560
  0
POLYLINE
  8
0
  6
CONTINUOUS
 66
     1
 40
0.000000
 41
0.000000
  0
VERTEX
  8
0
  6
CONTINUOUS
 10
3.782240
 20
2.416480
  0
VERTEX
  8
0
  6
CONTINUOUS
 10
4.534640
 20
2.415160
  0
VERTEX
  8
0
  6
CONTINUOUS
 10
4.533320
 20
2.309560
  0
VERTEX
  8
0
  6
CONTINUOUS
 10
3.781360
 20
2.310880
  0
VERTEX
  8
0
  6
CONTINUOUS
 10
3.782240
 20
2.416480
  0
SEQEND
  8
0
  0
SOLID
  8
0
 62
    15
 10
3.781360
 20
2.310880
 11
4.533320
 21
2.309560
 12
3.781360
 22
2.257200
 13
4.533760
 23
2.255440
  0
POLYLINE
  8
0
  6
CONTINUOUS
 66
     1
 40
0.000000
 41
0.000000
  0
VERTEX
  8
0
  6
CONTINUOUS
 10
3.781360
 20
2.310880
  0
VERTEX
  8
0
  6
CONTINUOUS
 10
4.533320
 20
2.309560
  0
VERTEX
  8
0
  6
CONTINUOUS
 10
4.533760
 20
2.255440
  0
VERTEX
  8
0
  6
CONTINUOUS
 10
3.781360
 20
2.257200
  0
VERTEX
  8
0
  6
CONTINUOUS
 10
3.781360
 20
2.310880
  0
SEQEND
  8
0
  0
SOLID
  8
0
 62
    15
 10
3.781360
 20
2.257200
 11
4.533760
 21
2.255440
 12
3.781360
 22
2.203080
 13
4.533760
 23
2.201760
  0
POLYLINE
  8
0
  6
CONTINUOUS
 66
     1
 40
0.000000
 41
0.000000
  0
VERTEX
  8
0
  6
CONTINUOUS
 10
3.781360
 20
2.257200
  0
VERTEX
  8
0
  6
CONTINUOUS
 10
4.533760
 20
2.255440
  0
VERTEX
  8
0
  6
CONTINUOUS
 10
4.533760
 20
2.201760
  0
VERTEX
  8
0
  6
CONTINUOUS
 10
3.781360
 20
2.203080
  0
VERTEX
  8
0
  6
CONTINUOUS
 10
3.781360
 20
2.257200
  0
SEQEND
  8
0
  0
SOLID
  8
0
 62
    15
 10
3.781360
 20
2.203080
 11
4.533760
 21
2.201760
 12
3.779600
 22
2.097920
 13
4.531560
 23
2.096160
  0
POLYLINE
  8
0
  6
CONTINUOUS
 66
     1
 40
0.000000
 41
0.000000
  0
VERTEX
  8
0
  6
CONTINUOUS
 10
3.781360
 20
2.203080
  0
VERTEX
  8
0
  6
CONTINUOUS
 10
4.533760
 20
2.201760
  0
VERTEX
  8
0
  6
CONTINUOUS
 10
4.531560
 20
2.096160
  0
VERTEX
  8
0
  6
CONTINUOUS
 10
3.779600
 20
2.097920
  0
VERTEX
  8
0
  6
CONTINUOUS
 10
3.781360
 20
2.203080
  0
SEQEND
  8
0
  0
SOLID
  8
0
 62
    15
 10
3.779600
 20
2.097920
 11
4.531560
 21
2.096160
 12
3.776520
 22
2.049080
 13
4.528920
 23
2.047320
  0
POLYLINE
  8
0
  6
CONTINUOUS
 66
     1
 40
0.000000
 41
0.000000
  0
VERTEX
  8
0
  6
CONTINUOUS
 10
3.779600
 20
2.097920
  0
VERTEX
  8
0
  6
CONTINUOUS
 10
4.531560
 20
2.096160
  0
VERTEX
  8
0
  6
CONTINUOUS
 10
4.528920
 20
2.047320
  0
VERTEX
  8
0
  6
CONTINUOUS
 10
3.776520
 20
2.049080
  0
VERTEX
  8
0
  6
CONTINUOUS
 10
3.779600
 20
2.097920
  0
SEQEND
  8
0
  0
SOLID
  8
0
 62
    15
 10
3.776520
 20
2.049080
 11
4.528920
 21
2.047320
 12
3.772120
 22
2.005520
 13
4.524520
 23
2.003760
  0
POLYLINE
  8
0
  6
CONTINUOUS
 66
     1
 40
0.000000
 41
0.000000
  0
VERTEX
  8
0
  6
CONTINUOUS
 10
3.776520
 20
2.049080
  0
VERTEX
  8
0
  6
CONTINUOUS
 10
4.528920
 20
2.047320
  0
VERTEX
  8
0
  6
CONTINUOUS
 10
4.524520
 20
2.003760
  0
VERTEX
  8
0
  6
CONTINUOUS
 10
3.772120
 20
2.005520
  0
VERTEX
  8
0
  6
CONTINUOUS
 10
3.776520
 20
2.049080
  0
SEQEND
  8
0
  0
SOLID
  8
0
 62
    15
 10
3.772120
 20
2.005520
 11
4.524520
 21
2.003760
 12
3.766400
 22
1.966360
 13
4.518800
 23
1.964600
  0
POLYLINE
  8
0
  6
CONTINUOUS
 66
     1
 40
0.000000
 41
0.000000
  0
VERTEX
  8
0
  6
CONTINUOUS
 10
3.772120
 20
2.005520
  0
VERTEX
  8
0
  6
CONTINUOUS
 10
4.524520
 20
2.003760
  0
VERTEX
  8
0
  6
CONTINUOUS
 10
4.518800
 20
1.964600
  0
VERTEX
  8
0
  6
CONTINUOUS
 10
3.766400
 20
1.966360
  0
VERTEX
  8
0
  6
CONTINUOUS
 10
3.772120
 20
2.005520
  0
SEQEND
  8
0
  0
SOLID
  8
0
 62
    15
 10
3.766400
 20
1.966360
 11
4.518800
 21
1.964600
 12
3.759800
 22
1.932040
 13
4.511760
 23
1.930280
  0
POLYLINE
  8
0
  6
CONTINUOUS
 66
     1
 40
0.000000
 41
0.000000
  0
VERTEX
  8
0
  6
CONTINUOUS
 10
3.766400
 20
1.966360
  0
VERTEX
  8
0
  6
CONTINUOUS
 10
4.518800
 20
1.964600
  0
VERTEX
  8
0
  6
CONTINUOUS
 10
4.511760
 20
1.930280
  0
VERTEX
  8
0
  6
CONTINUOUS
 10
3.759800
 20
1.932040
  0
VERTEX
  8
0
  6
CONTINUOUS
 10
3.766400
 20
1.966360
  0
SEQEND
  8
0
  0
SOLID
  8
0
 62
    15
 10
3.759800
 20
1.932040
 11
4.511760
 21
1.930280
 12
3.741760
 22
1.874840
 13
4.493720
 23
1.873080
  0
POLYLINE
  8
0
  6
CONTINUOUS
 66
     1
 40
0.000000
 41
0.000000
  0
VERTEX
  8
0
  6
CONTINUOUS
 10
3.759800
 20
1.932040
  0
VERTEX
  8
0
  6
CONTINUOUS
 10
4.511760
 20
1.930280
  0
VERTEX
  8
0
  6
CONTINUOUS
 10
4.493720
 20
1.873080
  0
VERTEX
  8
0
  6
CONTINUOUS
 10
3.741760
 20
1.874840
  0
VERTEX
  8
0
  6
CONTINUOUS
 10
3.759800
 20
1.932040
  0
SEQEND
  8
0
  0
SOLID
  8
0
 62
    15
 10
3.741760
 20
1.874840
 11
4.493720
 21
1.873080
 12
3.718440
 22
1.831280
 13
4.470400
 23
1.829960
  0
POLYLINE
  8
0
  6
CONTINUOUS
 66
     1
 40
0.000000
 41
0.000000
  0
VERTEX
  8
0
  6
CONTINUOUS
 10
3.741760
 20
1.874840
  0
VERTEX
  8
0
  6
CONTINUOUS
 10
4.493720
 20
1.873080
  0
VERTEX
  8
0
  6
CONTINUOUS
 10
4.470400
 20
1.829960
  0
VERTEX
  8
0
  6
CONTINUOUS
 10
3.718440
 20
1.831280
  0
VERTEX
  8
0
  6
CONTINUOUS
 10
3.741760
 20
1.874840
  0
SEQEND
  8
0
  0
SOLID
  8
0
 62
    15
 10
3.718440
 20
1.831280
 11
4.470400
 21
1.829960
 12
3.689840
 22
1.799600
 13
4.441800
 23
1.797840
  0
POLYLINE
  8
0
  6
CONTINUOUS
 66
     1
 40
0.000000
 41
0.000000
  0
VERTEX
  8
0
  6
CONTINUOUS
 10
3.718440
 20
1.831280
  0
VERTEX
  8
0
  6
CONTINUOUS
 10
4.470400
 20
1.829960
  0
VERTEX
  8
0
  6
CONTINUOUS
 10
4.441800
 20
1.797840
  0
VERTEX
  8
0
  6
CONTINUOUS
 10
3.689840
 20
1.799600
  0
VERTEX
  8
0
  6
CONTINUOUS
 10
3.718440
 20
1.831280
  0
SEQEND
  8
0
  0
SOLID
  8
0
 62
    15
 10
3.689840
 20
1.799600
 11
4.441800
 21
1.797840
 12
3.655520
 22
1.776280
 13
4.407480
 23
1.774520
  0
POLYLINE
  8
0
  6
CONTINUOUS
 66
     1
 40
0.000000
 41
0.000000
  0
VERTEX
  8
0
  6
CONTINUOUS
 10
3.689840
 20
1.799600
  0
VERTEX
  8
0
  6
CONTINUOUS
 10
4.441800
 20
1.797840
  0
VERTEX
  8
0
  6
CONTINUOUS
 10
4.407480
 20
1.774520
  0
VERTEX
  8
0
  6
CONTINUOUS
 10
3.655520
 20
1.776280
  0
VERTEX
  8
0
  6
CONTINUOUS
 10
3.689840
 20
1.799600
  0
SEQEND
  8
0
  0
SOLID
  8
0
 62
    15
 10
3.655520
 20
1.776280
 11
4.407480
 21
1.774520
 12
3.615920
 22
1.758680
 13
4.367880
 23
1.757360
  0
POLYLINE
  8
0
  6
CONTINUOUS
 66
     1
 40
0.000000
 41
0.000000
  0
VERTEX
  8
0
  6
CONTINUOUS
 10
3.655520
 20
1.776280
  0
VERTEX
  8
0
  6
CONTINUOUS
 10
4.407480
 20
1.774520
  0
VERTEX
  8
0
  6
CONTINUOUS
 10
4.367880
 20
1.757360
  0
VERTEX
  8
0
  6
CONTINUOUS
 10
3.615920
 20
1.758680
  0
VERTEX
  8
0
  6
CONTINUOUS
 10
3.655520
 20
1.776280
  0
SEQEND
  8
0
  0
SOLID
  8
0
 62
    15
 10
3.615920
 20
1.758680
 11
4.367880
 21
1.757360
 12
3.570600
 22
1.745040
 13
4.323000
 23
1.743280
  0
POLYLINE
  8
0
  6
CONTINUOUS
 66
     1
 40
0.000000
 41
0.000000
  0
VERTEX
  8
0
  6
CONTINUOUS
 10
3.615920
 20
1.758680
  0
VERTEX
  8
0
  6
CONTINUOUS
 10
4.367880
 20
1.757360
  0
VERTEX
  8
0
  6
CONTINUOUS
 10
4.323000
 20
1.743280
  0
VERTEX
  8
0
  6
CONTINUOUS
 10
3.570600
 20
1.745040
  0
VERTEX
  8
0
  6
CONTINUOUS
 10
3.615920
 20
1.758680
  0
SEQEND
  8
0
  0
SOLID
  8
0
 62
    15
 10
3.570600
 20
1.745040
 11
4.323000
 21
1.743280
 12
3.570600
 22
1.676400
 13
4.323000
 23
1.674640
  0
POLYLINE
  8
0
  6
CONTINUOUS
 66
     1
 40
0.000000
 41
0.000000
  0
VERTEX
  8
0
  6
CONTINUOUS
 10
3.570600
 20
1.745040
  0
VERTEX
  8
0
  6
CONTINUOUS
 10
4.323000
 20
1.743280
  0
VERTEX
  8
0
  6
CONTINUOUS
 10
4.323000
 20
1.674640
  0
VERTEX
  8
0
  6
CONTINUOUS
 10
3.570600
 20
1.676400
  0
VERTEX
  8
0
  6
CONTINUOUS
 10
3.570600
 20
1.745040
  0
SEQEND
  8
0
  0
SOLID
  8
0
 62
    15
 10
3.570600
 20
1.676400
 11
4.323000
 21
1.674640
 12
3.628240
 22
1.657480
 13
4.380200
 23
1.656160
  0
POLYLINE
  8
0
  6
CONTINUOUS
 66
     1
 40
0.000000
 41
0.000000
  0
VERTEX
  8
0
  6
CONTINUOUS
 10
3.570600
 20
1.676400
  0
VERTEX
  8
0
  6
CONTINUOUS
 10
4.323000
 20
1.674640
  0
VERTEX
  8
0
  6
CONTINUOUS
 10
4.380200
 20
1.656160
  0
VERTEX
  8
0
  6
CONTINUOUS
 10
3.628240
 20
1.657480
  0
VERTEX
  8
0
  6
CONTINUOUS
 10
3.570600
 20
1.676400
  0
SEQEND
  8
0
  0
SOLID
  8
0
 62
    15
 10
3.628240
 20
1.657480
 11
4.380200
 21
1.656160
 12
3.673560
 22
1.635920
 13
4.425960
 23
1.634160
  0
POLYLINE
  8
0
  6
CONTINUOUS
 66
     1
 40
0.000000
 41
0.000000
  0
VERTEX
  8
0
  6
CONTINUOUS
 10
3.628240
 20
1.657480
  0
VERTEX
  8
0
  6
CONTINUOUS
 10
4.380200
 20
1.656160
  0
VERTEX
  8
0
  6
CONTINUOUS
 10
4.425960
 20
1.634160
  0
VERTEX
  8
0
  6
CONTINUOUS
 10
3.673560
 20
1.635920
  0
VERTEX
  8
0
  6
CONTINUOUS
 10
3.628240
 20
1.657480
  0
SEQEND
  8
0
  0
SOLID
  8
0
 62
    15
 10
3.673560
 20
1.635920
 11
4.425960
 21
1.634160
 12
3.708320
 22
1.611280
 13
4.460720
 23
1.609960
  0
POLYLINE
  8
0
  6
CONTINUOUS
 66
     1
 40
0.000000
 41
0.000000
  0
VERTEX
  8
0
  6
CONTINUOUS
 10
3.673560
 20
1.635920
  0
VERTEX
  8
0
  6
CONTINUOUS
 10
4.425960
 20
1.634160
  0
VERTEX
  8
0
  6
CONTINUOUS
 10
4.460720
 20
1.609960
  0
VERTEX
  8
0
  6
CONTINUOUS
 10
3.708320
 20
1.611280
  0
VERTEX
  8
0
  6
CONTINUOUS
 10
3.673560
 20
1.635920
  0
SEQEND
  8
0
  0
SOLID
  8
0
 62
    15
 10
3.708320
 20
1.611280
 11
4.460720
 21
1.609960
 12
3.732960
 22
1.584880
 13
4.485360
 23
1.583560
  0
POLYLINE
  8
0
  6
CONTINUOUS
 66
     1
 40
0.000000
 41
0.000000
  0
VERTEX
  8
0
  6
CONTINUOUS
 10
3.708320
 20
1.611280
  0
VERTEX
  8
0
  6
CONTINUOUS
 10
4.460720
 20
1.609960
  0
VERTEX
  8
0
  6
CONTINUOUS
 10
4.485360
 20
1.583560
  0
VERTEX
  8
0
  6
CONTINUOUS
 10
3.732960
 20
1.584880
  0
VERTEX
  8
0
  6
CONTINUOUS
 10
3.708320
 20
1.611280
  0
SEQEND
  8
0
  0
SOLID
  8
0
 62
    15
 10
3.732960
 20
1.584880
 11
4.485360
 21
1.583560
 12
3.748360
 22
1.557600
 13
4.500760
 23
1.555840
  0
POLYLINE
  8
0
  6
CONTINUOUS
 66
     1
 40
0.000000
 41
0.000000
  0
VERTEX
  8
0
  6
CONTINUOUS
 10
3.732960
 20
1.584880
  0
VERTEX
  8
0
  6
CONTINUOUS
 10
4.485360
 20
1.583560
  0
VERTEX
  8
0
  6
CONTINUOUS
 10
4.500760
 20
1.555840
  0
VERTEX
  8
0
  6
CONTINUOUS
 10
3.748360
 20
1.557600
  0
VERTEX
  8
0
  6
CONTINUOUS
 10
3.732960
 20
1.584880
  0
SEQEND
  8
0
  0
SOLID
  8
0
 62
    15
 10
3.748360
 20
1.557600
 11
4.500760
 21
1.555840
 12
3.755400
 22
1.529000
 13
4.507360
 23
1.527680
  0
POLYLINE
  8
0
  6
CONTINUOUS
 66
     1
 40
0.000000
 41
0.000000
  0
VERTEX
  8
0
  6
CONTINUOUS
 10
3.748360
 20
1.557600
  0
VERTEX
  8
0
  6
CONTINUOUS
 10
4.500760
 20
1.555840
  0
VERTEX
  8
0
  6
CONTINUOUS
 10
4.507360
 20
1.527680
  0
VERTEX
  8
0
  6
CONTINUOUS
 10
3.755400
 20
1.529000
  0
VERTEX
  8
0
  6
CONTINUOUS
 10
3.748360
 20
1.557600
  0
SEQEND
  8
0
  0
SOLID
  8
0
 62
    15
 10
3.755400
 20
1.529000
 11
4.507360
 21
1.527680
 12
3.754520
 22
1.500840
 13
4.506480
 23
1.499080
  0
POLYLINE
  8
0
  6
CONTINUOUS
 66
     1
 40
0.000000
 41
0.000000
  0
VERTEX
  8
0
  6
CONTINUOUS
 10
3.755400
 20
1.529000
  0
VERTEX
  8
0
  6
CONTINUOUS
 10
4.507360
 20
1.527680
  0
VERTEX
  8
0
  6
CONTINUOUS
 10
4.506480
 20
1.499080
  0
VERTEX
  8
0
  6
CONTINUOUS
 10
3.754520
 20
1.500840
  0
VERTEX
  8
0
  6
CONTINUOUS
 10
3.755400
 20
1.529000
  0
SEQEND
  8
0
  0
SOLID
  8
0
 62
    15
 10
3.754520
 20
1.500840
 11
4.506480
 21
1.499080
 12
3.747040
 22
1.472680
 13
4.499000
 23
1.471360
  0
POLYLINE
  8
0
  6
CONTINUOUS
 66
     1
 40
0.000000
 41
0.000000
  0
VERTEX
  8
0
  6
CONTINUOUS
 10
3.754520
 20
1.500840
  0
VERTEX
  8
0
  6
CONTINUOUS
 10
4.506480
 20
1.499080
  0
VERTEX
  8
0
  6
CONTINUOUS
 10
4.499000
 20
1.471360
  0
VERTEX
  8
0
  6
CONTINUOUS
 10
3.747040
 20
1.472680
  0
VERTEX
  8
0
  6
CONTINUOUS
 10
3.754520
 20
1.500840
  0
SEQEND
  8
0
  0
SOLID
  8
0
 62
    15
 10
3.747040
 20
1.472680
 11
4.499000
 21
1.471360
 12
3.732960
 22
1.445840
 13
4.485360
 23
1.444520
  0
POLYLINE
  8
0
  6
CONTINUOUS
 66
     1
 40
0.000000
 41
0.000000
  0
VERTEX
  8
0
  6
CONTINUOUS
 10
3.747040
 20
1.472680
  0
VERTEX
  8
0
  6
CONTINUOUS
 10
4.499000
 20
1.471360
  0
VERTEX
  8
0
  6
CONTINUOUS
 10
4.485360
 20
1.444520
  0
VERTEX
  8
0
  6
CONTINUOUS
 10
3.732960
 20
1.445840
  0
VERTEX
  8
0
  6
CONTINUOUS
 10
3.747040
 20
1.472680
  0
SEQEND
  8
0
  0
SOLID
  8
0
 62
    15
 10
3.732960
 20
1.445840
 11
4.485360
 21
1.444520
 12
3.714040
 22
1.420760
 13
4.466440
 23
1.419000
  0
POLYLINE
  8
0
  6
CONTINUOUS
 66
     1
 40
0.000000
 41
0.000000
  0
VERTEX
  8
0
  6
CONTINUOUS
 10
3.732960
 20
1.445840
  0
VERTEX
  8
0
  6
CONTINUOUS
 10
4.485360
 20
1.444520
  0
VERTEX
  8
0
  6
CONTINUOUS
 10
4.466440
 20
1.419000
  0
VERTEX
  8
0
  6
CONTINUOUS
 10
3.714040
 20
1.420760
  0
VERTEX
  8
0
  6
CONTINUOUS
 10
3.732960
 20
1.445840
  0
SEQEND
  8
0
  0
SOLID
  8
0
 62
    15
 10
3.714040
 20
1.420760
 11
4.466440
 21
1.419000
 12
3.690720
 22
1.397880
 13
4.443120
 23
1.396120
  0
POLYLINE
  8
0
  6
CONTINUOUS
 66
     1
 40
0.000000
 41
0.000000
  0
VERTEX
  8
0
  6
CONTINUOUS
 10
3.714040
 20
1.420760
  0
VERTEX
  8
0
  6
CONTINUOUS
 10
4.466440
 20
1.419000
  0
VERTEX
  8
0
  6
CONTINUOUS
 10
4.443120
 20
1.396120
  0
VERTEX
  8
0
  6
CONTINUOUS
 10
3.690720
 20
1.397880
  0
VERTEX
  8
0
  6
CONTINUOUS
 10
3.714040
 20
1.420760
  0
SEQEND
  8
0
  0
SOLID
  8
0
 62
    15
 10
3.690720
 20
1.397880
 11
4.443120
 21
1.396120
 12
3.663880
 22
1.377640
 13
4.416280
 23
1.375880
  0
POLYLINE
  8
0
  6
CONTINUOUS
 66
     1
 40
0.000000
 41
0.000000
  0
VERTEX
  8
0
  6
CONTINUOUS
 10
3.690720
 20
1.397880
  0
VERTEX
  8
0
  6
CONTINUOUS
 10
4.443120
 20
1.396120
  0
VERTEX
  8
0
  6
CONTINUOUS
 10
4.416280
 20
1.375880
  0
VERTEX
  8
0
  6
CONTINUOUS
 10
3.663880
 20
1.377640
  0
VERTEX
  8
0
  6
CONTINUOUS
 10
3.690720
 20
1.397880
  0
SEQEND
  8
0
  0
SOLID
  8
0
 62
    15
 10
3.663880
 20
1.377640
 11
4.416280
 21
1.375880
 12
3.633960
 22
1.360920
 13
4.386360
 23
1.359160
  0
POLYLINE
  8
0
  6
CONTINUOUS
 66
     1
 40
0.000000
 41
0.000000
  0
VERTEX
  8
0
  6
CONTINUOUS
 10
3.663880
 20
1.377640
  0
VERTEX
  8
0
  6
CONTINUOUS
 10
4.416280
 20
1.375880
  0
VERTEX
  8
0
  6
CONTINUOUS
 10
4.386360
 20
1.359160
  0
VERTEX
  8
0
  6
CONTINUOUS
 10
3.633960
 20
1.360920
  0
VERTEX
  8
0
  6
CONTINUOUS
 10
3.663880
 20
1.377640
  0
SEQEND
  8
0
  0
SOLID
  8
0
 62
    15
 10
3.633960
 20
1.360920
 11
4.386360
 21
1.359160
 12
3.602280
 22
1.348160
 13
4.354680
 23
1.346840
  0
POLYLINE
  8
0
  6
CONTINUOUS
 66
     1
 40
0.000000
 41
0.000000
  0
VERTEX
  8
0
  6
CONTINUOUS
 10
3.633960
 20
1.360920
  0
VERTEX
  8
0
  6
CONTINUOUS
 10
4.386360
 20
1.359160
  0
VERTEX
  8
0
  6
CONTINUOUS
 10
4.354680
 20
1.346840
  0
VERTEX
  8
0
  6
CONTINUOUS
 10
3.602280
 20
1.348160
  0
VERTEX
  8
0
  6
CONTINUOUS
 10
3.633960
 20
1.360920
  0
SEQEND
  8
0
  0
SOLID
  8
0
 62
    15
 10
3.536280
 20
1.337160
 11
4.288680
 21
1.335840
 12
3.536280
 22
1.336720
 13
4.288680
 23
1.334960
  0
POLYLINE
  8
0
  6
CONTINUOUS
 66
     1
 40
0.000000
 41
0.000000
  0
VERTEX
  8
0
  6
CONTINUOUS
 10
3.536280
 20
1.337160
  0
VERTEX
  8
0
  6
CONTINUOUS
 10
4.288680
 20
1.335840
  0
VERTEX
  8
0
  6
CONTINUOUS
 10
4.288680
 20
1.334960
  0
VERTEX
  8
0
  6
CONTINUOUS
 10
3.536280
 20
1.336720
  0
VERTEX
  8
0
  6
CONTINUOUS
 10
3.536280
 20
1.337160
  0
SEQEND
  8
0
  0
SOLID
  8
0
 62
    15
 10
3.569280
 20
1.340240
 11
4.321680
 21
1.338480
 12
3.536280
 22
1.337160
 13
4.288680
 23
1.335840
  0
POLYLINE
  8
0
  6
CONTINUOUS
 66
     1
 40
0.000000
 41
0.000000
  0
VERTEX
  8
0
  6
CONTINUOUS
 10
3.569280
 20
1.340240
  0
VERTEX
  8
0
  6
CONTINUOUS
 10
4.321680
 20
1.338480
  0
VERTEX
  8
0
  6
CONTINUOUS
 10
4.288680
 20
1.335840
  0
VERTEX
  8
0
  6
CONTINUOUS
 10
3.536280
 20
1.337160
  0
VERTEX
  8
0
  6
CONTINUOUS
 10
3.569280
 20
1.340240
  0
SEQEND
  8
0
  0
SOLID
  8
0
 62
    15
 10
3.602280
 20
1.348160
 11
4.354680
 21
1.346840
 12
3.569280
 22
1.340240
 13
4.321680
 23
1.338480
  0
POLYLINE
  8
0
  6
CONTINUOUS
 66
     1
 40
0.000000
 41
0.000000
  0
VERTEX
  8
0
  6
CONTINUOUS
 10
3.602280
 20
1.348160
  0
VERTEX
  8
0
  6
CONTINUOUS
 10
4.354680
 20
1.346840
  0
VERTEX
  8
0
  6
CONTINUOUS
 10
4.321680
 20
1.338480
  0
VERTEX
  8
0
  6
CONTINUOUS
 10
3.569280
 20
1.340240
  0
VERTEX
  8
0
  6
CONTINUOUS
 10
3.602280
 20
1.348160
  0
SEQEND
  8
0
  0
POLYLINE
  8
0
  6
CONTINUOUS
 66
     1
 40
0.000000
 41
0.000000
  0
VERTEX
  8
0
  6
CONTINUOUS
 10
3.536280
 20
1.336720
  0
VERTEX
  8
0
  6
CONTINUOUS
 10
3.359400
 20
1.336720
  0
VERTEX
  8
0
  6
CONTINUOUS
 10
3.359400
 20
4.150080
  0
VERTEX
  8
0
  6
CONTINUOUS
 10
3.602720
 20
4.150080
  0
VERTEX
  8
0
  6
CONTINUOUS
 10
3.607560
 20
4.087160
  0
VERTEX
  8
0
  6
CONTINUOUS
 10
3.622080
 20
4.031720
  0
VERTEX
  8
0
  6
CONTINUOUS
 10
3.644960
 20
3.983320
  0
VERTEX
  8
0
  6
CONTINUOUS
 10
3.674880
 20
3.942840
  0
VERTEX
  8
0
  6
CONTINUOUS
 10
3.710960
 20
3.910720
  0
VERTEX
  8
0
  6
CONTINUOUS
 10
3.751880
 20
3.886960
  0
VERTEX
  8
0
  6
CONTINUOUS
 10
3.796320
 20
3.872880
  0
VERTEX
  8
0
  6
CONTINUOUS
 10
3.843400
 20
3.867600
  0
VERTEX
  8
0
  6
CONTINUOUS
 10
3.843400
 20
3.749680
  0
VERTEX
  8
0
  6
CONTINUOUS
 10
3.905000
 20
3.732520
  0
VERTEX
  8
0
  6
CONTINUOUS
 10
3.960880
 20
3.713160
  0
VERTEX
  8
0
  6
CONTINUOUS
 10
4.011480
 20
3.691160
  0
VERTEX
  8
0
  6
CONTINUOUS
 10
4.056800
 20
3.666960
  0
VERTEX
  8
0
  6
CONTINUOUS
 10
4.096840
 20
3.641000
  0
VERTEX
  8
0
  6
CONTINUOUS
 10
4.132040
 20
3.613280
  0
VERTEX
  8
0
  6
CONTINUOUS
 10
4.162840
 20
3.583800
  0
VERTEX
  8
0
  6
CONTINUOUS
 10
4.188800
 20
3.553000
  0
VERTEX
  8
0
  6
CONTINUOUS
 10
4.210800
 20
3.521320
  0
VERTEX
  8
0
  6
CONTINUOUS
 10
4.228400
 20
3.488760
  0
VERTEX
  8
0
  6
CONTINUOUS
 10
4.251720
 20
3.421000
  0
VERTEX
  8
0
  6
CONTINUOUS
 10
4.260960
 20
3.351480
  0
VERTEX
  8
0
  6
CONTINUOUS
 10
4.257000
 20
3.281960
  0
VERTEX
  8
0
  6
CONTINUOUS
 10
4.242040
 20
3.213760
  0
VERTEX
  8
0
  6
CONTINUOUS
 10
4.216960
 20
3.148200
  0
VERTEX
  8
0
  6
CONTINUOUS
 10
4.183520
 20
3.087480
  0
VERTEX
  8
0
  6
CONTINUOUS
 10
4.143040
 20
3.032040
  0
VERTEX
  8
0
  6
CONTINUOUS
 10
4.097280
 20
2.984520
  0
VERTEX
  8
0
  6
CONTINUOUS
 10
4.047120
 20
2.945800
  0
VERTEX
  8
0
  6
CONTINUOUS
 10
3.994760
 20
2.917200
  0
VERTEX
  8
0
  6
CONTINUOUS
 10
3.941520
 20
2.900920
  0
VERTEX
  8
0
  6
CONTINUOUS
 10
3.941520
 20
2.763640
  0
VERTEX
  8
0
  6
CONTINUOUS
 10
3.906320
 20
2.751320
  0
VERTEX
  8
0
  6
CONTINUOUS
 10
3.876400
 20
2.732840
  0
VERTEX
  8
0
  6
CONTINUOUS
 10
3.851760
 20
2.708200
  0
VERTEX
  8
0
  6
CONTINUOUS
 10
3.831960
 20
2.678280
  0
VERTEX
  8
0
  6
CONTINUOUS
 10
3.816120
 20
2.643520
  0
VERTEX
  8
0
  6
CONTINUOUS
 10
3.803800
 20
2.604800
  0
VERTEX
  8
0
  6
CONTINUOUS
 10
3.788840
 20
2.515920
  0
VERTEX
  8
0
  6
CONTINUOUS
 10
3.782240
 20
2.416480
  0
VERTEX
  8
0
  6
CONTINUOUS
 10
3.781360
 20
2.203080
  0
VERTEX
  8
0
  6
CONTINUOUS
 10
3.779600
 20
2.097920
  0
VERTEX
  8
0
  6
CONTINUOUS
 10
3.776520
 20
2.049080
  0
VERTEX
  8
0
  6
CONTINUOUS
 10
3.772120
 20
2.005520
  0
VERTEX
  8
0
  6
CONTINUOUS
 10
3.766400
 20
1.966360
  0
VERTEX
  8
0
  6
CONTINUOUS
 10
3.759800
 20
1.932040
  0
VERTEX
  8
0
  6
CONTINUOUS
 10
3.741760
 20
1.874840
  0
VERTEX
  8
0
  6
CONTINUOUS
 10
3.718440
 20
1.831280
  0
VERTEX
  8
0
  6
CONTINUOUS
 10
3.689840
 20
1.799600
  0
VERTEX
  8
0
  6
CONTINUOUS
 10
3.655520
 20
1.776280
  0
VERTEX
  8
0
  6
CONTINUOUS
 10
3.615920
 20
1.758680
  0
VERTEX
  8
0
  6
CONTINUOUS
 10
3.570600
 20
1.745040
  0
VERTEX
  8
0
  6
CONTINUOUS
 10
3.570600
 20
1.676400
  0
VERTEX
  8
0
  6
CONTINUOUS
 10
3.628240
 20
1.657480
  0
VERTEX
  8
0
  6
CONTINUOUS
 10
3.673560
 20
1.635920
  0
VERTEX
  8
0
  6
CONTINUOUS
 10
3.708320
 20
1.611280
  0
VERTEX
  8
0
  6
CONTINUOUS
 10
3.732960
 20
1.584880
  0
VERTEX
  8
0
  6
CONTINUOUS
 10
3.748360
 20
1.557600
  0
VERTEX
  8
0
  6
CONTINUOUS
 10
3.755400
 20
1.529000
  0
VERTEX
  8
0
  6
CONTINUOUS
 10
3.754520
 20
1.500840
  0
VERTEX
  8
0
  6
CONTINUOUS
 10
3.747040
 20
1.472680
  0
VERTEX
  8
0
  6
CONTINUOUS
 10
3.732960
 20
1.445840
  0
VERTEX
  8
0
  6
CONTINUOUS
 10
3.714040
 20
1.420760
  0
VERTEX
  8
0
  6
CONTINUOUS
 10
3.690720
 20
1.397880
  0
VERTEX
  8
0
  6
CONTINUOUS
 10
3.663880
 20
1.377640
  0
VERTEX
  8
0
  6
CONTINUOUS
 10
3.633960
 20
1.360920
  0
VERTEX
  8
0
  6
CONTINUOUS
 10
3.602280
 20
1.348160
  0
VERTEX
  8
0
  6
CONTINUOUS
 10
3.569280
 20
1.340240
  0
VERTEX
  8
0
  6
CONTINUOUS
 10
3.536280
 20
1.336720
  0
SEQEND
  8
0
  0
TEXT
  8
0
 10
3.890920
 20
1.083280
 40
0.138194
  1
BA  987
 41
1.000000
  7
SN0
 71
     0
 72
     5
 11
4.480647
 21
1.083280
  0
TEXT
  8
0
 10
3.642760
 20
0.891880
 40
0.138194
  1
7/8" x 2-13/16"
 41
1.000000
  7
SN0
 71
     0
 72
     5
 11
4.726208
 21
0.891880
  0
POLYLINE
  8
0
  6
CONTINUOUS
 66
     1
 40
0.014080
 41
0.014080
  0
VERTEX
  8
0
  6
CONTINUOUS
 10
5.742880
 20
1.343760
  0
VERTEX
  8
0
  6
CONTINUOUS
 10
5.776320
 20
1.346400
  0
VERTEX
  8
0
  6
CONTINUOUS
 10
5.808880
 20
1.354760
  0
VERTEX
  8
0
  6
CONTINUOUS
 10
5.840560
 20
1.367080
  0
VERTEX
  8
0
  6
CONTINUOUS
 10
5.870480
 20
1.383800
  0
VERTEX
  8
0
  6
CONTINUOUS
 10
5.897320
 20
1.404040
  0
VERTEX
  8
0
  6
CONTINUOUS
 10
5.920640
 20
1.426920
  0
VERTEX
  8
0
  6
CONTINUOUS
 10
5.939560
 20
1.452440
  0
VERTEX
  8
0
  6
CONTINUOUS
 10
5.953640
 20
1.479280
  0
VERTEX
  8
0
  6
CONTINUOUS
 10
5.961120
 20
1.507000
  0
VERTEX
  8
0
  6
CONTINUOUS
 10
5.962440
 20
1.521520
  0
VERTEX
  8
0
  6
CONTINUOUS
 10
5.962000
 20
1.535600
  0
VERTEX
  8
0
  6
CONTINUOUS
 10
5.959360
 20
1.549680
  0
VERTEX
  8
0
  6
CONTINUOUS
 10
5.954960
 20
1.563760
  0
VERTEX
  8
0
  6
CONTINUOUS
 10
5.948360
 20
1.577840
  0
VERTEX
  8
0
  6
CONTINUOUS
 10
5.928560
 20
1.605120
  0
VERTEX
  8
0
  6
CONTINUOUS
 10
5.899080
 20
1.630200
  0
VERTEX
  8
0
  6
CONTINUOUS
 10
5.859040
 20
1.653520
  0
VERTEX
  8
0
  6
CONTINUOUS
 10
5.807560
 20
1.674200
  0
VERTEX
  8
0
  6
CONTINUOUS
 10
5.777200
 20
1.683000
  0
VERTEX
  8
0
  6
CONTINUOUS
 10
5.777200
 20
1.751640
  0
VERTEX
  8
0
  6
CONTINUOUS
 10
5.822520
 20
1.765280
  0
VERTEX
  8
0
  6
CONTINUOUS
 10
5.862120
 20
1.782880
  0
VERTEX
  8
0
  6
CONTINUOUS
 10
5.879720
 20
1.793440
  0
VERTEX
  8
0
  6
CONTINUOUS
 10
5.903920
 20
1.813240
  0
VERTEX
  8
0
  6
CONTINUOUS
 10
5.925040
 20
1.838320
  0
VERTEX
  8
0
  6
CONTINUOUS
 10
5.943080
 20
1.869560
  0
VERTEX
  8
0
  6
CONTINUOUS
 10
5.958040
 20
1.908280
  0
VERTEX
  8
0
  6
CONTINUOUS
 10
5.969920
 20
1.955360
  0
VERTEX
  8
0
  6
CONTINUOUS
 10
5.978720
 20
2.012120
  0
VERTEX
  8
0
  6
CONTINUOUS
 10
5.985760
 20
2.104520
  0
VERTEX
  8
0
  6
CONTINUOUS
 10
5.987960
 20
2.209680
  0
VERTEX
  8
0
  6
CONTINUOUS
 10
5.987960
 20
2.370720
  0
VERTEX
  8
0
  6
CONTINUOUS
 10
5.988840
 20
2.423080
  0
VERTEX
  8
0
  6
CONTINUOUS
 10
5.992800
 20
2.498320
  0
VERTEX
  8
0
  6
CONTINUOUS
 10
5.998080
 20
2.545840
  0
VERTEX
  8
0
  6
CONTINUOUS
 10
6.005560
 20
2.590280
  0
VERTEX
  8
0
  6
CONTINUOUS
 10
6.016120
 20
2.631200
  0
VERTEX
  8
0
  6
CONTINUOUS
 10
6.030200
 20
2.668160
  0
VERTEX
  8
0
  6
CONTINUOUS
 10
6.047800
 20
2.700280
  0
VERTEX
  8
0
  6
CONTINUOUS
 10
6.070240
 20
2.727560
  0
VERTEX
  8
0
  6
CONTINUOUS
 10
6.083000
 20
2.739000
  0
VERTEX
  8
0
  6
CONTINUOUS
 10
6.097520
 20
2.749120
  0
VERTEX
  8
0
  6
CONTINUOUS
 10
6.112920
 20
2.757480
  0
VERTEX
  8
0
  6
CONTINUOUS
 10
6.129640
 20
2.764520
  0
VERTEX
  8
0
  6
CONTINUOUS
 10
6.148120
 20
2.769800
  0
VERTEX
  8
0
  6
CONTINUOUS
 10
6.148120
 20
2.907520
  0
VERTEX
  8
0
  6
CONTINUOUS
 10
6.188160
 20
2.918520
  0
VERTEX
  8
0
  6
CONTINUOUS
 10
6.227760
 20
2.936560
  0
VERTEX
  8
0
  6
CONTINUOUS
 10
6.266480
 20
2.961200
  0
VERTEX
  8
0
  6
CONTINUOUS
 10
6.303880
 20
2.991120
  0
VERTEX
  8
0
  6
CONTINUOUS
 10
6.349640
 20
3.038640
  0
VERTEX
  8
0
  6
CONTINUOUS
 10
6.390120
 20
3.093640
  0
VERTEX
  8
0
  6
CONTINUOUS
 10
6.407720
 20
3.123560
  0
VERTEX
  8
0
  6
CONTINUOUS
 10
6.423560
 20
3.154800
  0
VERTEX
  8
0
  6
CONTINUOUS
 10
6.442920
 20
3.203640
  0
VERTEX
  8
0
  6
CONTINUOUS
 10
6.453040
 20
3.237080
  0
VERTEX
  8
0
  6
CONTINUOUS
 10
6.460960
 20
3.270960
  0
VERTEX
  8
0
  6
CONTINUOUS
 10
6.467120
 20
3.322880
  0
VERTEX
  8
0
  6
CONTINUOUS
 10
6.467120
 20
3.358080
  0
VERTEX
  8
0
  6
CONTINUOUS
 10
6.464480
 20
3.392840
  0
VERTEX
  8
0
  6
CONTINUOUS
 10
6.458320
 20
3.427160
  0
VERTEX
  8
0
  6
CONTINUOUS
 10
6.442040
 20
3.478200
  0
VERTEX
  8
0
  6
CONTINUOUS
 10
6.426200
 20
3.511640
  0
VERTEX
  8
0
  6
CONTINUOUS
 10
6.406840
 20
3.543760
  0
VERTEX
  8
0
  6
CONTINUOUS
 10
6.382640
 20
3.575000
  0
VERTEX
  8
0
  6
CONTINUOUS
 10
6.354480
 20
3.605360
  0
VERTEX
  8
0
  6
CONTINUOUS
 10
6.303440
 20
3.647160
  0
VERTEX
  8
0
  6
CONTINUOUS
 10
6.263400
 20
3.673560
  0
VERTEX
  8
0
  6
CONTINUOUS
 10
6.193440
 20
3.708760
  0
VERTEX
  8
0
  6
CONTINUOUS
 10
6.140200
 20
3.729440
  0
VERTEX
  8
0
  6
CONTINUOUS
 10
6.081680
 20
3.747920
  0
VERTEX
  8
0
  6
CONTINUOUS
 10
6.050000
 20
3.756280
  0
VERTEX
  8
0
  6
CONTINUOUS
 10
6.050000
 20
3.874200
  0
VERTEX
  8
0
  6
CONTINUOUS
 10
6.014360
 20
3.876840
  0
VERTEX
  8
0
  6
CONTINUOUS
 10
5.980040
 20
3.885200
  0
VERTEX
  8
0
  6
CONTINUOUS
 10
5.947920
 20
3.898400
  0
VERTEX
  8
0
  6
CONTINUOUS
 10
5.917560
 20
3.916880
  0
VERTEX
  8
0
  6
CONTINUOUS
 10
5.890280
 20
3.940200
  0
VERTEX
  8
0
  6
CONTINUOUS
 10
5.865640
 20
3.968360
  0
VERTEX
  8
0
  6
CONTINUOUS
 10
5.845400
 20
4.000920
  0
VERTEX
  8
0
  6
CONTINUOUS
 10
5.829120
 20
4.037880
  0
VERTEX
  8
0
  6
CONTINUOUS
 10
5.820760
 20
4.064720
  0
VERTEX
  8
0
  6
CONTINUOUS
 10
5.812400
 20
4.108720
  0
VERTEX
  8
0
  6
CONTINUOUS
 10
5.809760
 20
4.140400
  0
VERTEX
  8
0
  6
CONTINUOUS
 10
5.809320
 20
4.156680
  0
VERTEX
  8
0
  6
CONTINUOUS
 10
5.566000
 20
4.156680
  0
VERTEX
  8
0
  6
CONTINUOUS
 10
5.566000
 20
1.343320
  0
VERTEX
  8
0
  6
CONTINUOUS
 10
5.742880
 20
1.343760
  0
SEQEND
  8
0
  0
TEXT
  8
0
 10
6.491760
 20
1.517120
 40
0.138194
  1
BA  987
 41
1.000000
  7
SN0
 71
     0
 72
     5
 11
7.081487
 21
1.517120
  0
TEXT
  8
0
 10
6.243600
 20
1.325720
 40
0.138194
  1
7/8" x 2-13/16"
 41
1.000000
  7
SN0
 71
     0
 72
     5
 11
7.327048
 21
1.325720
  0
ENDSEC
  0
EOF
