  0
SECTION
  2
HEADER
  9
$ACADVER
  1
AC1006
  9
$EXTMIN
 10
2.946680
 20
0.506880
  9
$EXTMAX
 10
7.216440
 20
2.364560
  9
$LTSCALE
 40
0.044000
  9
$PDMODE
 70
    35
  9
$PDSIZE
 40
0.035200
  0
ENDSEC
  0
SECTION
  2
TABLES
  0
TABLE
  2
LTYPE
 70
     9
  0
LTYPE
  2
CONTINUOUS
 70
    64
  3
Solid line
 72
    65
 73
     0
 40
0.000000
  0
LTYPE
  2
DASHED
 70
    64
  3
__ __ __ __ __ __ __ __ __ __ __ __ __ __ __
 72
    65
 73
     2
 40
0.000330
 49
0.000220
 49
-0.000110
  0
LTYPE
  2
HIDDEN
 70
    64
  3
 _ _ _ _ _ _ _ _ _ _ _ _ _ _ _ _ _ _ _ _ _ _
 72
    65
 73
     2
 40
0.000165
 49
0.000110
 49
-0.000055
  0
LTYPE
  2
CENTER
 70
    64
  3
____ _ ____ _ ____ _ ____ _ ____ _ ____ _ ____
 72
    65
 73
     4
 40
0.000880
 49
0.000550
 49
-0.000110
 49
0.000110
 49
-0.000110
  0
LTYPE
  2
PHANTOM
 70
    64
  3
_____ _ _ _____ _ _ _____ _ _ _____ _ _ ____
 72
    65
 73
     6
 40
0.001100
 49
0.000550
 49
-0.000110
 49
0.000110
 49
-0.000110
 49
0.000110
 49
-0.000110
  0
LTYPE
  2
DOT
 70
    64
  3
...............................................
 72
    65
 73
     2
 40
0.000110
 49
0.000000
 49
-0.000110
  0
LTYPE
  2
DASHDOT
 70
    64
  3
__ . __ . __ . __ . __ . __ . __ . __ . __ . __
 72
    65
 73
     4
 40
0.000440
 49
0.000220
 49
-0.000110
 49
0.000000
 49
-0.000110
  0
LTYPE
  2
BORDER
 70
    64
  3
__ __ . __ __ . __ __ . __ __ . __ __ . __ __
 72
    65
 73
     6
 40
0.000770
 49
0.000220
 49
-0.000110
 49
0.000220
 49
-0.000110
 49
0.000000
 49
-0.000110
  0
LTYPE
  2
DIVIDE
 70
    64
  3
__ . . __ . . __ . . __ . . __ . . __ . . __
 72
    65
 73
     6
 40
0.000550
 49
0.000220
 49
-0.000110
 49
0.000000
 49
-0.000110
 49
0.000000
 49
-0.000110
  0
LTYPE
  2
DOTDOT
 70
    64
  3
 . .  . .  . .  . .  . .  . . 
 72
    65
 73
     5
 40
0.000242
 49
-0.000110
 49
0.000000
 49
-0.000110
 49
0.000000
 49
-0.000110
  0
ENDTAB
  0
TABLE
  2
STYLE
 70
     2
  0
STYLE
 70
     0
  2
SN0
 40
0.000000
 41
0.000440
 50
0.000000
 71
     0
 42
0.000000
  3
ROMAND
  0
STYLE
 70
    68
  2
SV0
 40
0.000000
 41
0.000440
 50
0.000000
 71
     0
 42
0.000000
  3
ROMAND
  0
ENDTAB
  0
TABLE
  2
LAYER
 70
     3
  0
LAYER
  2
FOREGROUND
 70
    64
 62
     7
  6
CONTINUOUS
  0
LAYER
  2
BACKGROUND
 70
    65
 62
    -7
  6
CONTINUOUS
  0
LAYER
  2
0
 70
    64
 62
     7
  6
CONTINUOUS
  0
ENDTAB
  0
ENDSEC
  0
SECTION
  2
ENTITIES
  0
POLYLINE
  8
FOREGROUND
  6
CONTINUOUS
 66
     1
 40
0.000000
 41
0.000000
  0
VERTEX
  8
FOREGROUND
  6
CONTINUOUS
 10
0.000000
 20
2.871440
  0
VERTEX
  8
FOREGROUND
  6
CONTINUOUS
 10
8.499920
 20
2.871440
  0
VERTEX
  8
FOREGROUND
  6
CONTINUOUS
 10
8.499920
 20
-8.128560
  0
VERTEX
  8
FOREGROUND
  6
CONTINUOUS
 10
0.000000
 20
-8.128560
  0
VERTEX
  8
FOREGROUND
  6
CONTINUOUS
 10
0.000000
 20
2.871440
  0
SEQEND
  8
0
  0
POLYLINE
  8
FOREGROUND
  6
CONTINUOUS
 66
     1
 40
0.000000
 41
0.000000
  0
VERTEX
  8
FOREGROUND
  6
CONTINUOUS
 10
0.000000
 20
2.871440
  0
VERTEX
  8
FOREGROUND
  6
CONTINUOUS
 10
8.499920
 20
2.871440
  0
VERTEX
  8
FOREGROUND
  6
CONTINUOUS
 10
8.499920
 20
-8.128560
  0
VERTEX
  8
FOREGROUND
  6
CONTINUOUS
 10
0.000000
 20
-8.128560
  0
VERTEX
  8
FOREGROUND
  6
CONTINUOUS
 10
0.000000
 20
2.871440
  0
SEQEND
  8
0
  0
SOLID
  8
0
 62
    15
 10
4.107400
 20
1.547480
 11
4.754200
 21
1.926760
 12
4.147000
 22
1.532080
 13
4.793800
 23
1.911800
  0
POLYLINE
  8
0
  6
CONTINUOUS
 66
     1
 40
0.000000
 41
0.000000
  0
VERTEX
  8
0
  6
CONTINUOUS
 10
4.107400
 20
1.547480
  0
VERTEX
  8
0
  6
CONTINUOUS
 10
4.754200
 20
1.926760
  0
VERTEX
  8
0
  6
CONTINUOUS
 10
4.793800
 20
1.911800
  0
VERTEX
  8
0
  6
CONTINUOUS
 10
4.147000
 20
1.532080
  0
VERTEX
  8
0
  6
CONTINUOUS
 10
4.107400
 20
1.547480
  0
SEQEND
  8
0
  0
SOLID
  8
0
 62
    15
 10
3.715360
 20
1.984400
 11
4.362600
 21
2.363680
 12
3.715360
 22
1.896840
 13
4.362600
 23
2.276560
  0
POLYLINE
  8
0
  6
CONTINUOUS
 66
     1
 40
0.000000
 41
0.000000
  0
VERTEX
  8
0
  6
CONTINUOUS
 10
3.715360
 20
1.984400
  0
VERTEX
  8
0
  6
CONTINUOUS
 10
4.362600
 20
2.363680
  0
VERTEX
  8
0
  6
CONTINUOUS
 10
4.362600
 20
2.276560
  0
VERTEX
  8
0
  6
CONTINUOUS
 10
3.715360
 20
1.896840
  0
VERTEX
  8
0
  6
CONTINUOUS
 10
3.715360
 20
1.984400
  0
SEQEND
  8
0
  0
SOLID
  8
0
 62
    15
 10
3.715360
 20
1.896840
 11
4.362600
 21
2.276560
 12
3.795000
 22
1.894200
 13
4.442240
 23
2.273920
  0
POLYLINE
  8
0
  6
CONTINUOUS
 66
     1
 40
0.000000
 41
0.000000
  0
VERTEX
  8
0
  6
CONTINUOUS
 10
3.715360
 20
1.896840
  0
VERTEX
  8
0
  6
CONTINUOUS
 10
4.362600
 20
2.276560
  0
VERTEX
  8
0
  6
CONTINUOUS
 10
4.442240
 20
2.273920
  0
VERTEX
  8
0
  6
CONTINUOUS
 10
3.795000
 20
1.894200
  0
VERTEX
  8
0
  6
CONTINUOUS
 10
3.715360
 20
1.896840
  0
SEQEND
  8
0
  0
SOLID
  8
0
 62
    15
 10
3.795000
 20
1.894200
 11
4.442240
 21
2.273920
 12
3.797640
 22
1.847560
 13
4.444880
 23
2.227280
  0
POLYLINE
  8
0
  6
CONTINUOUS
 66
     1
 40
0.000000
 41
0.000000
  0
VERTEX
  8
0
  6
CONTINUOUS
 10
3.795000
 20
1.894200
  0
VERTEX
  8
0
  6
CONTINUOUS
 10
4.442240
 20
2.273920
  0
VERTEX
  8
0
  6
CONTINUOUS
 10
4.444880
 20
2.227280
  0
VERTEX
  8
0
  6
CONTINUOUS
 10
3.797640
 20
1.847560
  0
VERTEX
  8
0
  6
CONTINUOUS
 10
3.795000
 20
1.894200
  0
SEQEND
  8
0
  0
SOLID
  8
0
 62
    15
 10
3.797640
 20
1.847560
 11
4.444880
 21
2.227280
 12
3.806000
 22
1.809280
 13
4.453240
 23
2.189000
  0
POLYLINE
  8
0
  6
CONTINUOUS
 66
     1
 40
0.000000
 41
0.000000
  0
VERTEX
  8
0
  6
CONTINUOUS
 10
3.797640
 20
1.847560
  0
VERTEX
  8
0
  6
CONTINUOUS
 10
4.444880
 20
2.227280
  0
VERTEX
  8
0
  6
CONTINUOUS
 10
4.453240
 20
2.189000
  0
VERTEX
  8
0
  6
CONTINUOUS
 10
3.806000
 20
1.809280
  0
VERTEX
  8
0
  6
CONTINUOUS
 10
3.797640
 20
1.847560
  0
SEQEND
  8
0
  0
SOLID
  8
0
 62
    15
 10
3.806000
 20
1.809280
 11
4.453240
 21
2.189000
 12
3.819640
 22
1.778480
 13
4.466880
 23
2.158200
  0
POLYLINE
  8
0
  6
CONTINUOUS
 66
     1
 40
0.000000
 41
0.000000
  0
VERTEX
  8
0
  6
CONTINUOUS
 10
3.806000
 20
1.809280
  0
VERTEX
  8
0
  6
CONTINUOUS
 10
4.453240
 20
2.189000
  0
VERTEX
  8
0
  6
CONTINUOUS
 10
4.466880
 20
2.158200
  0
VERTEX
  8
0
  6
CONTINUOUS
 10
3.819640
 20
1.778480
  0
VERTEX
  8
0
  6
CONTINUOUS
 10
3.806000
 20
1.809280
  0
SEQEND
  8
0
  0
SOLID
  8
0
 62
    15
 10
3.819640
 20
1.778480
 11
4.466880
 21
2.158200
 12
3.838560
 22
1.754720
 13
4.485800
 23
2.134440
  0
POLYLINE
  8
0
  6
CONTINUOUS
 66
     1
 40
0.000000
 41
0.000000
  0
VERTEX
  8
0
  6
CONTINUOUS
 10
3.819640
 20
1.778480
  0
VERTEX
  8
0
  6
CONTINUOUS
 10
4.466880
 20
2.158200
  0
VERTEX
  8
0
  6
CONTINUOUS
 10
4.485800
 20
2.134440
  0
VERTEX
  8
0
  6
CONTINUOUS
 10
3.838560
 20
1.754720
  0
VERTEX
  8
0
  6
CONTINUOUS
 10
3.819640
 20
1.778480
  0
SEQEND
  8
0
  0
SOLID
  8
0
 62
    15
 10
3.838560
 20
1.754720
 11
4.485800
 21
2.134440
 12
3.861880
 22
1.737560
 13
4.509120
 23
2.116840
  0
POLYLINE
  8
0
  6
CONTINUOUS
 66
     1
 40
0.000000
 41
0.000000
  0
VERTEX
  8
0
  6
CONTINUOUS
 10
3.838560
 20
1.754720
  0
VERTEX
  8
0
  6
CONTINUOUS
 10
4.485800
 20
2.134440
  0
VERTEX
  8
0
  6
CONTINUOUS
 10
4.509120
 20
2.116840
  0
VERTEX
  8
0
  6
CONTINUOUS
 10
3.861880
 20
1.737560
  0
VERTEX
  8
0
  6
CONTINUOUS
 10
3.838560
 20
1.754720
  0
SEQEND
  8
0
  0
SOLID
  8
0
 62
    15
 10
3.861880
 20
1.737560
 11
4.509120
 21
2.116840
 12
3.890040
 22
1.725680
 13
4.537280
 23
2.105400
  0
POLYLINE
  8
0
  6
CONTINUOUS
 66
     1
 40
0.000000
 41
0.000000
  0
VERTEX
  8
0
  6
CONTINUOUS
 10
3.861880
 20
1.737560
  0
VERTEX
  8
0
  6
CONTINUOUS
 10
4.509120
 20
2.116840
  0
VERTEX
  8
0
  6
CONTINUOUS
 10
4.537280
 20
2.105400
  0
VERTEX
  8
0
  6
CONTINUOUS
 10
3.890040
 20
1.725680
  0
VERTEX
  8
0
  6
CONTINUOUS
 10
3.861880
 20
1.737560
  0
SEQEND
  8
0
  0
SOLID
  8
0
 62
    15
 10
3.890040
 20
1.725680
 11
4.537280
 21
2.105400
 12
3.922600
 22
1.719080
 13
4.569840
 23
2.098800
  0
POLYLINE
  8
0
  6
CONTINUOUS
 66
     1
 40
0.000000
 41
0.000000
  0
VERTEX
  8
0
  6
CONTINUOUS
 10
3.890040
 20
1.725680
  0
VERTEX
  8
0
  6
CONTINUOUS
 10
4.537280
 20
2.105400
  0
VERTEX
  8
0
  6
CONTINUOUS
 10
4.569840
 20
2.098800
  0
VERTEX
  8
0
  6
CONTINUOUS
 10
3.922600
 20
1.719080
  0
VERTEX
  8
0
  6
CONTINUOUS
 10
3.890040
 20
1.725680
  0
SEQEND
  8
0
  0
SOLID
  8
0
 62
    15
 10
3.922600
 20
1.719080
 11
4.569840
 21
2.098800
 12
3.959120
 22
1.717320
 13
4.606360
 23
2.096600
  0
POLYLINE
  8
0
  6
CONTINUOUS
 66
     1
 40
0.000000
 41
0.000000
  0
VERTEX
  8
0
  6
CONTINUOUS
 10
3.922600
 20
1.719080
  0
VERTEX
  8
0
  6
CONTINUOUS
 10
4.569840
 20
2.098800
  0
VERTEX
  8
0
  6
CONTINUOUS
 10
4.606360
 20
2.096600
  0
VERTEX
  8
0
  6
CONTINUOUS
 10
3.959120
 20
1.717320
  0
VERTEX
  8
0
  6
CONTINUOUS
 10
3.922600
 20
1.719080
  0
SEQEND
  8
0
  0
SOLID
  8
0
 62
    15
 10
3.959120
 20
1.717320
 11
4.606360
 21
2.096600
 12
3.986840
 22
1.717760
 13
4.634080
 23
2.097040
  0
POLYLINE
  8
0
  6
CONTINUOUS
 66
     1
 40
0.000000
 41
0.000000
  0
VERTEX
  8
0
  6
CONTINUOUS
 10
3.959120
 20
1.717320
  0
VERTEX
  8
0
  6
CONTINUOUS
 10
4.606360
 20
2.096600
  0
VERTEX
  8
0
  6
CONTINUOUS
 10
4.634080
 20
2.097040
  0
VERTEX
  8
0
  6
CONTINUOUS
 10
3.986840
 20
1.717760
  0
VERTEX
  8
0
  6
CONTINUOUS
 10
3.959120
 20
1.717320
  0
SEQEND
  8
0
  0
SOLID
  8
0
 62
    15
 10
3.986840
 20
1.717760
 11
4.634080
 21
2.097040
 12
4.000480
 22
1.711160
 13
4.647720
 23
2.090440
  0
POLYLINE
  8
0
  6
CONTINUOUS
 66
     1
 40
0.000000
 41
0.000000
  0
VERTEX
  8
0
  6
CONTINUOUS
 10
3.986840
 20
1.717760
  0
VERTEX
  8
0
  6
CONTINUOUS
 10
4.634080
 20
2.097040
  0
VERTEX
  8
0
  6
CONTINUOUS
 10
4.647720
 20
2.090440
  0
VERTEX
  8
0
  6
CONTINUOUS
 10
4.000480
 20
1.711160
  0
VERTEX
  8
0
  6
CONTINUOUS
 10
3.986840
 20
1.717760
  0
SEQEND
  8
0
  0
SOLID
  8
0
 62
    15
 10
4.000480
 20
1.711160
 11
4.647720
 21
2.090440
 12
4.006200
 22
1.691360
 13
4.653440
 23
2.071080
  0
POLYLINE
  8
0
  6
CONTINUOUS
 66
     1
 40
0.000000
 41
0.000000
  0
VERTEX
  8
0
  6
CONTINUOUS
 10
4.000480
 20
1.711160
  0
VERTEX
  8
0
  6
CONTINUOUS
 10
4.647720
 20
2.090440
  0
VERTEX
  8
0
  6
CONTINUOUS
 10
4.653440
 20
2.071080
  0
VERTEX
  8
0
  6
CONTINUOUS
 10
4.006200
 20
1.691360
  0
VERTEX
  8
0
  6
CONTINUOUS
 10
4.000480
 20
1.711160
  0
SEQEND
  8
0
  0
SOLID
  8
0
 62
    15
 10
4.006200
 20
1.691360
 11
4.653440
 21
2.071080
 12
4.008400
 22
1.675080
 13
4.655200
 23
2.054800
  0
POLYLINE
  8
0
  6
CONTINUOUS
 66
     1
 40
0.000000
 41
0.000000
  0
VERTEX
  8
0
  6
CONTINUOUS
 10
4.006200
 20
1.691360
  0
VERTEX
  8
0
  6
CONTINUOUS
 10
4.653440
 20
2.071080
  0
VERTEX
  8
0
  6
CONTINUOUS
 10
4.655200
 20
2.054800
  0
VERTEX
  8
0
  6
CONTINUOUS
 10
4.008400
 20
1.675080
  0
VERTEX
  8
0
  6
CONTINUOUS
 10
4.006200
 20
1.691360
  0
SEQEND
  8
0
  0
SOLID
  8
0
 62
    15
 10
4.008400
 20
1.675080
 11
4.655200
 21
2.054800
 12
4.010600
 22
1.653080
 13
4.657840
 23
2.032360
  0
POLYLINE
  8
0
  6
CONTINUOUS
 66
     1
 40
0.000000
 41
0.000000
  0
VERTEX
  8
0
  6
CONTINUOUS
 10
4.008400
 20
1.675080
  0
VERTEX
  8
0
  6
CONTINUOUS
 10
4.655200
 20
2.054800
  0
VERTEX
  8
0
  6
CONTINUOUS
 10
4.657840
 20
2.032360
  0
VERTEX
  8
0
  6
CONTINUOUS
 10
4.010600
 20
1.653080
  0
VERTEX
  8
0
  6
CONTINUOUS
 10
4.008400
 20
1.675080
  0
SEQEND
  8
0
  0
SOLID
  8
0
 62
    15
 10
4.010600
 20
1.653080
 11
4.657840
 21
2.032360
 12
4.020280
 22
1.626240
 13
4.667080
 23
2.005520
  0
POLYLINE
  8
0
  6
CONTINUOUS
 66
     1
 40
0.000000
 41
0.000000
  0
VERTEX
  8
0
  6
CONTINUOUS
 10
4.010600
 20
1.653080
  0
VERTEX
  8
0
  6
CONTINUOUS
 10
4.657840
 20
2.032360
  0
VERTEX
  8
0
  6
CONTINUOUS
 10
4.667080
 20
2.005520
  0
VERTEX
  8
0
  6
CONTINUOUS
 10
4.020280
 20
1.626240
  0
VERTEX
  8
0
  6
CONTINUOUS
 10
4.010600
 20
1.653080
  0
SEQEND
  8
0
  0
SOLID
  8
0
 62
    15
 10
4.020280
 20
1.626240
 11
4.667080
 21
2.005520
 12
4.041400
 22
1.597200
 13
4.688200
 23
1.976920
  0
POLYLINE
  8
0
  6
CONTINUOUS
 66
     1
 40
0.000000
 41
0.000000
  0
VERTEX
  8
0
  6
CONTINUOUS
 10
4.020280
 20
1.626240
  0
VERTEX
  8
0
  6
CONTINUOUS
 10
4.667080
 20
2.005520
  0
VERTEX
  8
0
  6
CONTINUOUS
 10
4.688200
 20
1.976920
  0
VERTEX
  8
0
  6
CONTINUOUS
 10
4.041400
 20
1.597200
  0
VERTEX
  8
0
  6
CONTINUOUS
 10
4.020280
 20
1.626240
  0
SEQEND
  8
0
  0
SOLID
  8
0
 62
    15
 10
4.041400
 20
1.597200
 11
4.688200
 21
1.976920
 12
4.071320
 22
1.570360
 13
4.718120
 23
1.949640
  0
POLYLINE
  8
0
  6
CONTINUOUS
 66
     1
 40
0.000000
 41
0.000000
  0
VERTEX
  8
0
  6
CONTINUOUS
 10
4.041400
 20
1.597200
  0
VERTEX
  8
0
  6
CONTINUOUS
 10
4.688200
 20
1.976920
  0
VERTEX
  8
0
  6
CONTINUOUS
 10
4.718120
 20
1.949640
  0
VERTEX
  8
0
  6
CONTINUOUS
 10
4.071320
 20
1.570360
  0
VERTEX
  8
0
  6
CONTINUOUS
 10
4.041400
 20
1.597200
  0
SEQEND
  8
0
  0
SOLID
  8
0
 62
    15
 10
4.071320
 20
1.570360
 11
4.718120
 21
1.949640
 12
4.107400
 22
1.547480
 13
4.754200
 23
1.926760
  0
POLYLINE
  8
0
  6
CONTINUOUS
 66
     1
 40
0.000000
 41
0.000000
  0
VERTEX
  8
0
  6
CONTINUOUS
 10
4.071320
 20
1.570360
  0
VERTEX
  8
0
  6
CONTINUOUS
 10
4.718120
 20
1.949640
  0
VERTEX
  8
0
  6
CONTINUOUS
 10
4.754200
 20
1.926760
  0
VERTEX
  8
0
  6
CONTINUOUS
 10
4.107400
 20
1.547480
  0
VERTEX
  8
0
  6
CONTINUOUS
 10
4.071320
 20
1.570360
  0
SEQEND
  8
0
  0
SOLID
  8
0
 62
    15
 10
2.947560
 20
1.984400
 11
3.594360
 21
2.363680
 12
3.715360
 22
1.984400
 13
4.362600
 23
2.363680
  0
POLYLINE
  8
0
  6
CONTINUOUS
 66
     1
 40
0.000000
 41
0.000000
  0
VERTEX
  8
0
  6
CONTINUOUS
 10
2.947560
 20
1.984400
  0
VERTEX
  8
0
  6
CONTINUOUS
 10
3.594360
 20
2.363680
  0
VERTEX
  8
0
  6
CONTINUOUS
 10
4.362600
 20
2.363680
  0
VERTEX
  8
0
  6
CONTINUOUS
 10
3.715360
 20
1.984400
  0
VERTEX
  8
0
  6
CONTINUOUS
 10
2.947560
 20
1.984400
  0
SEQEND
  8
0
  0
SOLID
  8
0
 62
    15
 10
4.147000
 20
1.532080
 11
4.793800
 21
1.911800
 12
4.187040
 22
1.527680
 13
4.834280
 23
1.907400
  0
POLYLINE
  8
0
  6
CONTINUOUS
 66
     1
 40
0.000000
 41
0.000000
  0
VERTEX
  8
0
  6
CONTINUOUS
 10
4.147000
 20
1.532080
  0
VERTEX
  8
0
  6
CONTINUOUS
 10
4.793800
 20
1.911800
  0
VERTEX
  8
0
  6
CONTINUOUS
 10
4.834280
 20
1.907400
  0
VERTEX
  8
0
  6
CONTINUOUS
 10
4.187040
 20
1.527680
  0
VERTEX
  8
0
  6
CONTINUOUS
 10
4.147000
 20
1.532080
  0
SEQEND
  8
0
  0
SOLID
  8
0
 62
    15
 10
4.187040
 20
1.527680
 11
4.834280
 21
1.907400
 12
4.225760
 22
1.536920
 13
4.873000
 23
1.916640
  0
POLYLINE
  8
0
  6
CONTINUOUS
 66
     1
 40
0.000000
 41
0.000000
  0
VERTEX
  8
0
  6
CONTINUOUS
 10
4.187040
 20
1.527680
  0
VERTEX
  8
0
  6
CONTINUOUS
 10
4.834280
 20
1.907400
  0
VERTEX
  8
0
  6
CONTINUOUS
 10
4.873000
 20
1.916640
  0
VERTEX
  8
0
  6
CONTINUOUS
 10
4.225760
 20
1.536920
  0
VERTEX
  8
0
  6
CONTINUOUS
 10
4.187040
 20
1.527680
  0
SEQEND
  8
0
  0
SOLID
  8
0
 62
    15
 10
4.259640
 20
1.562880
 11
4.906880
 21
1.942600
 12
4.313760
 22
1.503920
 13
4.961000
 23
1.883640
  0
POLYLINE
  8
0
  6
CONTINUOUS
 66
     1
 40
0.000000
 41
0.000000
  0
VERTEX
  8
0
  6
CONTINUOUS
 10
4.259640
 20
1.562880
  0
VERTEX
  8
0
  6
CONTINUOUS
 10
4.906880
 20
1.942600
  0
VERTEX
  8
0
  6
CONTINUOUS
 10
4.961000
 20
1.883640
  0
VERTEX
  8
0
  6
CONTINUOUS
 10
4.313760
 20
1.503920
  0
VERTEX
  8
0
  6
CONTINUOUS
 10
4.259640
 20
1.562880
  0
SEQEND
  8
0
  0
SOLID
  8
0
 62
    15
 10
4.367000
 20
1.571240
 11
5.014240
 21
1.950960
 12
4.400440
 22
1.584440
 13
5.047680
 23
1.964160
  0
POLYLINE
  8
0
  6
CONTINUOUS
 66
     1
 40
0.000000
 41
0.000000
  0
VERTEX
  8
0
  6
CONTINUOUS
 10
4.367000
 20
1.571240
  0
VERTEX
  8
0
  6
CONTINUOUS
 10
5.014240
 20
1.950960
  0
VERTEX
  8
0
  6
CONTINUOUS
 10
5.047680
 20
1.964160
  0
VERTEX
  8
0
  6
CONTINUOUS
 10
4.400440
 20
1.584440
  0
VERTEX
  8
0
  6
CONTINUOUS
 10
4.367000
 20
1.571240
  0
SEQEND
  8
0
  0
SOLID
  8
0
 62
    15
 10
4.400440
 20
1.584440
 11
5.047680
 21
1.964160
 12
4.434320
 22
1.584880
 13
5.081560
 23
1.964600
  0
POLYLINE
  8
0
  6
CONTINUOUS
 66
     1
 40
0.000000
 41
0.000000
  0
VERTEX
  8
0
  6
CONTINUOUS
 10
4.400440
 20
1.584440
  0
VERTEX
  8
0
  6
CONTINUOUS
 10
5.047680
 20
1.964160
  0
VERTEX
  8
0
  6
CONTINUOUS
 10
5.081560
 20
1.964600
  0
VERTEX
  8
0
  6
CONTINUOUS
 10
4.434320
 20
1.584880
  0
VERTEX
  8
0
  6
CONTINUOUS
 10
4.400440
 20
1.584440
  0
SEQEND
  8
0
  0
SOLID
  8
0
 62
    15
 10
4.434320
 20
1.584880
 11
5.081560
 21
1.964600
 12
4.466000
 22
1.573440
 13
5.113240
 23
1.952720
  0
POLYLINE
  8
0
  6
CONTINUOUS
 66
     1
 40
0.000000
 41
0.000000
  0
VERTEX
  8
0
  6
CONTINUOUS
 10
4.434320
 20
1.584880
  0
VERTEX
  8
0
  6
CONTINUOUS
 10
5.081560
 20
1.964600
  0
VERTEX
  8
0
  6
CONTINUOUS
 10
5.113240
 20
1.952720
  0
VERTEX
  8
0
  6
CONTINUOUS
 10
4.466000
 20
1.573440
  0
VERTEX
  8
0
  6
CONTINUOUS
 10
4.434320
 20
1.584880
  0
SEQEND
  8
0
  0
SOLID
  8
0
 62
    15
 10
4.466000
 20
1.573440
 11
5.113240
 21
1.952720
 12
4.491960
 22
1.550120
 13
5.139200
 23
1.929840
  0
POLYLINE
  8
0
  6
CONTINUOUS
 66
     1
 40
0.000000
 41
0.000000
  0
VERTEX
  8
0
  6
CONTINUOUS
 10
4.466000
 20
1.573440
  0
VERTEX
  8
0
  6
CONTINUOUS
 10
5.113240
 20
1.952720
  0
VERTEX
  8
0
  6
CONTINUOUS
 10
5.139200
 20
1.929840
  0
VERTEX
  8
0
  6
CONTINUOUS
 10
4.491960
 20
1.550120
  0
VERTEX
  8
0
  6
CONTINUOUS
 10
4.466000
 20
1.573440
  0
SEQEND
  8
0
  0
SOLID
  8
0
 62
    15
 10
4.491960
 20
1.550120
 11
5.139200
 21
1.929840
 12
4.510000
 22
1.516680
 13
5.157240
 23
1.896400
  0
POLYLINE
  8
0
  6
CONTINUOUS
 66
     1
 40
0.000000
 41
0.000000
  0
VERTEX
  8
0
  6
CONTINUOUS
 10
4.491960
 20
1.550120
  0
VERTEX
  8
0
  6
CONTINUOUS
 10
5.139200
 20
1.929840
  0
VERTEX
  8
0
  6
CONTINUOUS
 10
5.157240
 20
1.896400
  0
VERTEX
  8
0
  6
CONTINUOUS
 10
4.510000
 20
1.516680
  0
VERTEX
  8
0
  6
CONTINUOUS
 10
4.491960
 20
1.550120
  0
SEQEND
  8
0
  0
SOLID
  8
0
 62
    15
 10
4.510000
 20
1.516680
 11
5.157240
 21
1.896400
 12
4.516600
 22
1.473120
 13
5.163840
 23
1.852840
  0
POLYLINE
  8
0
  6
CONTINUOUS
 66
     1
 40
0.000000
 41
0.000000
  0
VERTEX
  8
0
  6
CONTINUOUS
 10
4.510000
 20
1.516680
  0
VERTEX
  8
0
  6
CONTINUOUS
 10
5.157240
 20
1.896400
  0
VERTEX
  8
0
  6
CONTINUOUS
 10
5.163840
 20
1.852840
  0
VERTEX
  8
0
  6
CONTINUOUS
 10
4.516600
 20
1.473120
  0
VERTEX
  8
0
  6
CONTINUOUS
 10
4.510000
 20
1.516680
  0
SEQEND
  8
0
  0
SOLID
  8
0
 62
    15
 10
4.516600
 20
1.473120
 11
5.163840
 21
1.852840
 12
4.516600
 22
1.306360
 13
5.163840
 23
1.685640
  0
POLYLINE
  8
0
  6
CONTINUOUS
 66
     1
 40
0.000000
 41
0.000000
  0
VERTEX
  8
0
  6
CONTINUOUS
 10
4.516600
 20
1.473120
  0
VERTEX
  8
0
  6
CONTINUOUS
 10
5.163840
 20
1.852840
  0
VERTEX
  8
0
  6
CONTINUOUS
 10
5.163840
 20
1.685640
  0
VERTEX
  8
0
  6
CONTINUOUS
 10
4.516600
 20
1.306360
  0
VERTEX
  8
0
  6
CONTINUOUS
 10
4.516600
 20
1.473120
  0
SEQEND
  8
0
  0
SOLID
  8
0
 62
    15
 10
4.516600
 20
1.306360
 11
5.163840
 21
1.685640
 12
4.542560
 22
1.304160
 13
5.189800
 23
1.683440
  0
POLYLINE
  8
0
  6
CONTINUOUS
 66
     1
 40
0.000000
 41
0.000000
  0
VERTEX
  8
0
  6
CONTINUOUS
 10
4.516600
 20
1.306360
  0
VERTEX
  8
0
  6
CONTINUOUS
 10
5.163840
 20
1.685640
  0
VERTEX
  8
0
  6
CONTINUOUS
 10
5.189800
 20
1.683440
  0
VERTEX
  8
0
  6
CONTINUOUS
 10
4.542560
 20
1.304160
  0
VERTEX
  8
0
  6
CONTINUOUS
 10
4.516600
 20
1.306360
  0
SEQEND
  8
0
  0
SOLID
  8
0
 62
    15
 10
4.542560
 20
1.304160
 11
5.189800
 21
1.683440
 12
4.565440
 22
1.298000
 13
5.212680
 23
1.677280
  0
POLYLINE
  8
0
  6
CONTINUOUS
 66
     1
 40
0.000000
 41
0.000000
  0
VERTEX
  8
0
  6
CONTINUOUS
 10
4.542560
 20
1.304160
  0
VERTEX
  8
0
  6
CONTINUOUS
 10
5.189800
 20
1.683440
  0
VERTEX
  8
0
  6
CONTINUOUS
 10
5.212680
 20
1.677280
  0
VERTEX
  8
0
  6
CONTINUOUS
 10
4.565440
 20
1.298000
  0
VERTEX
  8
0
  6
CONTINUOUS
 10
4.542560
 20
1.304160
  0
SEQEND
  8
0
  0
SOLID
  8
0
 62
    15
 10
4.565440
 20
1.298000
 11
5.212680
 21
1.677280
 12
4.600200
 22
1.275560
 13
5.247440
 23
1.655280
  0
POLYLINE
  8
0
  6
CONTINUOUS
 66
     1
 40
0.000000
 41
0.000000
  0
VERTEX
  8
0
  6
CONTINUOUS
 10
4.565440
 20
1.298000
  0
VERTEX
  8
0
  6
CONTINUOUS
 10
5.212680
 20
1.677280
  0
VERTEX
  8
0
  6
CONTINUOUS
 10
5.247440
 20
1.655280
  0
VERTEX
  8
0
  6
CONTINUOUS
 10
4.600200
 20
1.275560
  0
VERTEX
  8
0
  6
CONTINUOUS
 10
4.565440
 20
1.298000
  0
SEQEND
  8
0
  0
SOLID
  8
0
 62
    15
 10
4.600200
 20
1.275560
 11
5.247440
 21
1.655280
 12
4.621320
 22
1.244320
 13
5.268560
 23
1.624040
  0
POLYLINE
  8
0
  6
CONTINUOUS
 66
     1
 40
0.000000
 41
0.000000
  0
VERTEX
  8
0
  6
CONTINUOUS
 10
4.600200
 20
1.275560
  0
VERTEX
  8
0
  6
CONTINUOUS
 10
5.247440
 20
1.655280
  0
VERTEX
  8
0
  6
CONTINUOUS
 10
5.268560
 20
1.624040
  0
VERTEX
  8
0
  6
CONTINUOUS
 10
4.621320
 20
1.244320
  0
VERTEX
  8
0
  6
CONTINUOUS
 10
4.600200
 20
1.275560
  0
SEQEND
  8
0
  0
SOLID
  8
0
 62
    15
 10
4.621320
 20
1.244320
 11
5.268560
 21
1.624040
 12
4.628360
 22
1.208680
 13
5.275600
 23
1.588400
  0
POLYLINE
  8
0
  6
CONTINUOUS
 66
     1
 40
0.000000
 41
0.000000
  0
VERTEX
  8
0
  6
CONTINUOUS
 10
4.621320
 20
1.244320
  0
VERTEX
  8
0
  6
CONTINUOUS
 10
5.268560
 20
1.624040
  0
VERTEX
  8
0
  6
CONTINUOUS
 10
5.275600
 20
1.588400
  0
VERTEX
  8
0
  6
CONTINUOUS
 10
4.628360
 20
1.208680
  0
VERTEX
  8
0
  6
CONTINUOUS
 10
4.621320
 20
1.244320
  0
SEQEND
  8
0
  0
SOLID
  8
0
 62
    15
 10
4.628360
 20
1.208680
 11
5.275600
 21
1.588400
 12
4.621320
 22
1.173040
 13
5.268560
 23
1.552320
  0
POLYLINE
  8
0
  6
CONTINUOUS
 66
     1
 40
0.000000
 41
0.000000
  0
VERTEX
  8
0
  6
CONTINUOUS
 10
4.628360
 20
1.208680
  0
VERTEX
  8
0
  6
CONTINUOUS
 10
5.275600
 20
1.588400
  0
VERTEX
  8
0
  6
CONTINUOUS
 10
5.268560
 20
1.552320
  0
VERTEX
  8
0
  6
CONTINUOUS
 10
4.621320
 20
1.173040
  0
VERTEX
  8
0
  6
CONTINUOUS
 10
4.628360
 20
1.208680
  0
SEQEND
  8
0
  0
SOLID
  8
0
 62
    15
 10
4.516600
 20
1.111000
 11
5.163840
 21
1.490720
 12
4.516600
 22
0.941600
 13
5.163840
 23
1.321320
  0
POLYLINE
  8
0
  6
CONTINUOUS
 66
     1
 40
0.000000
 41
0.000000
  0
VERTEX
  8
0
  6
CONTINUOUS
 10
4.516600
 20
1.111000
  0
VERTEX
  8
0
  6
CONTINUOUS
 10
5.163840
 20
1.490720
  0
VERTEX
  8
0
  6
CONTINUOUS
 10
5.163840
 20
1.321320
  0
VERTEX
  8
0
  6
CONTINUOUS
 10
4.516600
 20
0.941600
  0
VERTEX
  8
0
  6
CONTINUOUS
 10
4.516600
 20
1.111000
  0
SEQEND
  8
0
  0
SOLID
  8
0
 62
    15
 10
4.600200
 20
1.141800
 11
5.247440
 21
1.521080
 12
4.565440
 22
1.119360
 13
5.212680
 23
1.499080
  0
POLYLINE
  8
0
  6
CONTINUOUS
 66
     1
 40
0.000000
 41
0.000000
  0
VERTEX
  8
0
  6
CONTINUOUS
 10
4.600200
 20
1.141800
  0
VERTEX
  8
0
  6
CONTINUOUS
 10
5.247440
 20
1.521080
  0
VERTEX
  8
0
  6
CONTINUOUS
 10
5.212680
 20
1.499080
  0
VERTEX
  8
0
  6
CONTINUOUS
 10
4.565440
 20
1.119360
  0
VERTEX
  8
0
  6
CONTINUOUS
 10
4.600200
 20
1.141800
  0
SEQEND
  8
0
  0
SOLID
  8
0
 62
    15
 10
4.621320
 20
1.173040
 11
5.268560
 21
1.552320
 12
4.600200
 22
1.141800
 13
5.247440
 23
1.521080
  0
POLYLINE
  8
0
  6
CONTINUOUS
 66
     1
 40
0.000000
 41
0.000000
  0
VERTEX
  8
0
  6
CONTINUOUS
 10
4.621320
 20
1.173040
  0
VERTEX
  8
0
  6
CONTINUOUS
 10
5.268560
 20
1.552320
  0
VERTEX
  8
0
  6
CONTINUOUS
 10
5.247440
 20
1.521080
  0
VERTEX
  8
0
  6
CONTINUOUS
 10
4.600200
 20
1.141800
  0
VERTEX
  8
0
  6
CONTINUOUS
 10
4.621320
 20
1.173040
  0
SEQEND
  8
0
  0
POLYLINE
  8
0
  6
CONTINUOUS
 66
     1
 40
0.000000
 41
0.000000
  0
VERTEX
  8
0
  6
CONTINUOUS
 10
4.175160
 20
1.211320
  0
VERTEX
  8
0
  6
CONTINUOUS
 10
3.186040
 20
1.211320
  0
VERTEX
  8
0
  6
CONTINUOUS
 10
3.186040
 20
1.481040
  0
VERTEX
  8
0
  6
CONTINUOUS
 10
2.947560
 20
1.481040
  0
VERTEX
  8
0
  6
CONTINUOUS
 10
2.947560
 20
1.984400
  0
VERTEX
  8
0
  6
CONTINUOUS
 10
3.715360
 20
1.984400
  0
VERTEX
  8
0
  6
CONTINUOUS
 10
3.715360
 20
1.896840
  0
VERTEX
  8
0
  6
CONTINUOUS
 10
3.795000
 20
1.894200
  0
VERTEX
  8
0
  6
CONTINUOUS
 10
3.797640
 20
1.847560
  0
VERTEX
  8
0
  6
CONTINUOUS
 10
3.806000
 20
1.809280
  0
VERTEX
  8
0
  6
CONTINUOUS
 10
3.819640
 20
1.778480
  0
VERTEX
  8
0
  6
CONTINUOUS
 10
3.838560
 20
1.754720
  0
VERTEX
  8
0
  6
CONTINUOUS
 10
3.861880
 20
1.737560
  0
VERTEX
  8
0
  6
CONTINUOUS
 10
3.890040
 20
1.725680
  0
VERTEX
  8
0
  6
CONTINUOUS
 10
3.922600
 20
1.719080
  0
VERTEX
  8
0
  6
CONTINUOUS
 10
3.959120
 20
1.717320
  0
VERTEX
  8
0
  6
CONTINUOUS
 10
3.986840
 20
1.717760
  0
VERTEX
  8
0
  6
CONTINUOUS
 10
4.000480
 20
1.711160
  0
VERTEX
  8
0
  6
CONTINUOUS
 10
4.006200
 20
1.691360
  0
VERTEX
  8
0
  6
CONTINUOUS
 10
4.010600
 20
1.653080
  0
VERTEX
  8
0
  6
CONTINUOUS
 10
4.020280
 20
1.626240
  0
VERTEX
  8
0
  6
CONTINUOUS
 10
4.041400
 20
1.597200
  0
VERTEX
  8
0
  6
CONTINUOUS
 10
4.071320
 20
1.570360
  0
VERTEX
  8
0
  6
CONTINUOUS
 10
4.107400
 20
1.547480
  0
VERTEX
  8
0
  6
CONTINUOUS
 10
4.147000
 20
1.532080
  0
VERTEX
  8
0
  6
CONTINUOUS
 10
4.187040
 20
1.527680
  0
VERTEX
  8
0
  6
CONTINUOUS
 10
4.225760
 20
1.536920
  0
VERTEX
  8
0
  6
CONTINUOUS
 10
4.243360
 20
1.547480
  0
VERTEX
  8
0
  6
CONTINUOUS
 10
4.259640
 20
1.562880
  0
VERTEX
  8
0
  6
CONTINUOUS
 10
4.313760
 20
1.503920
  0
VERTEX
  8
0
  6
CONTINUOUS
 10
4.337080
 20
1.544840
  0
VERTEX
  8
0
  6
CONTINUOUS
 10
4.367000
 20
1.571240
  0
VERTEX
  8
0
  6
CONTINUOUS
 10
4.400440
 20
1.584440
  0
VERTEX
  8
0
  6
CONTINUOUS
 10
4.434320
 20
1.584880
  0
VERTEX
  8
0
  6
CONTINUOUS
 10
4.466000
 20
1.573440
  0
VERTEX
  8
0
  6
CONTINUOUS
 10
4.491960
 20
1.550120
  0
VERTEX
  8
0
  6
CONTINUOUS
 10
4.510000
 20
1.516680
  0
VERTEX
  8
0
  6
CONTINUOUS
 10
4.516600
 20
1.473120
  0
VERTEX
  8
0
  6
CONTINUOUS
 10
4.516600
 20
1.306360
  0
VERTEX
  8
0
  6
CONTINUOUS
 10
4.542560
 20
1.304160
  0
VERTEX
  8
0
  6
CONTINUOUS
 10
4.565440
 20
1.298000
  0
VERTEX
  8
0
  6
CONTINUOUS
 10
4.600200
 20
1.275560
  0
VERTEX
  8
0
  6
CONTINUOUS
 10
4.621320
 20
1.244320
  0
VERTEX
  8
0
  6
CONTINUOUS
 10
4.628360
 20
1.208680
  0
VERTEX
  8
0
  6
CONTINUOUS
 10
4.621320
 20
1.173040
  0
VERTEX
  8
0
  6
CONTINUOUS
 10
4.600200
 20
1.141800
  0
VERTEX
  8
0
  6
CONTINUOUS
 10
4.565440
 20
1.119360
  0
VERTEX
  8
0
  6
CONTINUOUS
 10
4.542560
 20
1.113200
  0
VERTEX
  8
0
  6
CONTINUOUS
 10
4.516600
 20
1.111000
  0
VERTEX
  8
0
  6
CONTINUOUS
 10
4.516600
 20
0.941600
  0
VERTEX
  8
0
  6
CONTINUOUS
 10
4.175160
 20
0.941600
  0
VERTEX
  8
0
  6
CONTINUOUS
 10
4.175160
 20
1.211320
  0
SEQEND
  8
0
  0
TEXT
  8
0
 10
3.815680
 20
0.744920
 40
0.138167
  1
BA  986
 41
1.000000
  7
SN0
 71
     0
 72
     5
 11
4.405761
 21
0.744920
  0
TEXT
  8
0
 10
3.447840
 20
0.553080
 40
0.138167
  1
1-1/16" x 1-11/16"
 41
1.000000
  7
SN0
 71
     0
 72
     5
 11
4.772320
 21
0.553080
  0
POLYLINE
  8
0
  6
CONTINUOUS
 66
     1
 40
0.014080
 41
0.014080
  0
VERTEX
  8
0
  6
CONTINUOUS
 10
6.756200
 20
1.575200
  0
VERTEX
  8
0
  6
CONTINUOUS
 10
5.767080
 20
1.575200
  0
VERTEX
  8
0
  6
CONTINUOUS
 10
5.767080
 20
1.844480
  0
VERTEX
  8
0
  6
CONTINUOUS
 10
5.528600
 20
1.844480
  0
VERTEX
  8
0
  6
CONTINUOUS
 10
5.528600
 20
2.347840
  0
VERTEX
  8
0
  6
CONTINUOUS
 10
6.296400
 20
2.347840
  0
VERTEX
  8
0
  6
CONTINUOUS
 10
6.296400
 20
2.260720
  0
VERTEX
  8
0
  6
CONTINUOUS
 10
6.376040
 20
2.258080
  0
VERTEX
  8
0
  6
CONTINUOUS
 10
6.377800
 20
2.222440
  0
VERTEX
  8
0
  6
CONTINUOUS
 10
6.382200
 20
2.191200
  0
VERTEX
  8
0
  6
CONTINUOUS
 10
6.393640
 20
2.156880
  0
VERTEX
  8
0
  6
CONTINUOUS
 10
6.409480
 20
2.129600
  0
VERTEX
  8
0
  6
CONTINUOUS
 10
6.431040
 20
2.108920
  0
VERTEX
  8
0
  6
CONTINUOUS
 10
6.456560
 20
2.094400
  0
VERTEX
  8
0
  6
CONTINUOUS
 10
6.486920
 20
2.085600
  0
VERTEX
  8
0
  6
CONTINUOUS
 10
6.521240
 20
2.081200
  0
VERTEX
  8
0
  6
CONTINUOUS
 10
6.567880
 20
2.081200
  0
VERTEX
  8
0
  6
CONTINUOUS
 10
6.575800
 20
2.079440
  0
VERTEX
  8
0
  6
CONTINUOUS
 10
6.583280
 20
2.071080
  0
VERTEX
  8
0
  6
CONTINUOUS
 10
6.588120
 20
2.047320
  0
VERTEX
  8
0
  6
CONTINUOUS
 10
6.592960
 20
2.010360
  0
VERTEX
  8
0
  6
CONTINUOUS
 10
6.597360
 20
1.996720
  0
VERTEX
  8
0
  6
CONTINUOUS
 10
6.610560
 20
1.975600
  0
VERTEX
  8
0
  6
CONTINUOUS
 10
6.622000
 20
1.961080
  0
VERTEX
  8
0
  6
CONTINUOUS
 10
6.651920
 20
1.933800
  0
VERTEX
  8
0
  6
CONTINUOUS
 10
6.688000
 20
1.910920
  0
VERTEX
  8
0
  6
CONTINUOUS
 10
6.727600
 20
1.895960
  0
VERTEX
  8
0
  6
CONTINUOUS
 10
6.757960
 20
1.891120
  0
VERTEX
  8
0
  6
CONTINUOUS
 10
6.778200
 20
1.892440
  0
VERTEX
  8
0
  6
CONTINUOUS
 10
6.797560
 20
1.896840
  0
VERTEX
  8
0
  6
CONTINUOUS
 10
6.815600
 20
1.905640
  0
VERTEX
  8
0
  6
CONTINUOUS
 10
6.832760
 20
1.918400
  0
VERTEX
  8
0
  6
CONTINUOUS
 10
6.840680
 20
1.926760
  0
VERTEX
  8
0
  6
CONTINUOUS
 10
6.894800
 20
1.867800
  0
VERTEX
  8
0
  6
CONTINUOUS
 10
6.905360
 20
1.890240
  0
VERTEX
  8
0
  6
CONTINUOUS
 10
6.925160
 20
1.916640
  0
VERTEX
  8
0
  6
CONTINUOUS
 10
6.948040
 20
1.935120
  0
VERTEX
  8
0
  6
CONTINUOUS
 10
6.964320
 20
1.943480
  0
VERTEX
  8
0
  6
CONTINUOUS
 10
6.989840
 20
1.949640
  0
VERTEX
  8
0
  6
CONTINUOUS
 10
7.007000
 20
1.949640
  0
VERTEX
  8
0
  6
CONTINUOUS
 10
7.023720
 20
1.947000
  0
VERTEX
  8
0
  6
CONTINUOUS
 10
7.039560
 20
1.941280
  0
VERTEX
  8
0
  6
CONTINUOUS
 10
7.054080
 20
1.932480
  0
VERTEX
  8
0
  6
CONTINUOUS
 10
7.067280
 20
1.921040
  0
VERTEX
  8
0
  6
CONTINUOUS
 10
7.083120
 20
1.898600
  0
VERTEX
  8
0
  6
CONTINUOUS
 10
7.091040
 20
1.880560
  0
VERTEX
  8
0
  6
CONTINUOUS
 10
7.095880
 20
1.859880
  0
VERTEX
  8
0
  6
CONTINUOUS
 10
7.097640
 20
1.837000
  0
VERTEX
  8
0
  6
CONTINUOUS
 10
7.097640
 20
1.670240
  0
VERTEX
  8
0
  6
CONTINUOUS
 10
7.111280
 20
1.669800
  0
VERTEX
  8
0
  6
CONTINUOUS
 10
7.135480
 20
1.665400
  0
VERTEX
  8
0
  6
CONTINUOUS
 10
7.156600
 20
1.657480
  0
VERTEX
  8
0
  6
CONTINUOUS
 10
7.173760
 20
1.646480
  0
VERTEX
  8
0
  6
CONTINUOUS
 10
7.187840
 20
1.632400
  0
VERTEX
  8
0
  6
CONTINUOUS
 10
7.198400
 20
1.617000
  0
VERTEX
  8
0
  6
CONTINUOUS
 10
7.205440
 20
1.599840
  0
VERTEX
  8
0
  6
CONTINUOUS
 10
7.208960
 20
1.581800
  0
VERTEX
  8
0
  6
CONTINUOUS
 10
7.208960
 20
1.563320
  0
VERTEX
  8
0
  6
CONTINUOUS
 10
7.205440
 20
1.545280
  0
VERTEX
  8
0
  6
CONTINUOUS
 10
7.198400
 20
1.528120
  0
VERTEX
  8
0
  6
CONTINUOUS
 10
7.181240
 20
1.505240
  0
VERTEX
  8
0
  6
CONTINUOUS
 10
7.165400
 20
1.492920
  0
VERTEX
  8
0
  6
CONTINUOUS
 10
7.146480
 20
1.483240
  0
VERTEX
  8
0
  6
CONTINUOUS
 10
7.123600
 20
1.477080
  0
VERTEX
  8
0
  6
CONTINUOUS
 10
7.111280
 20
1.475320
  0
VERTEX
  8
0
  6
CONTINUOUS
 10
7.097640
 20
1.474880
  0
VERTEX
  8
0
  6
CONTINUOUS
 10
7.097640
 20
1.305480
  0
VERTEX
  8
0
  6
CONTINUOUS
 10
6.756200
 20
1.305480
  0
VERTEX
  8
0
  6
CONTINUOUS
 10
6.756200
 20
1.575200
  0
SEQEND
  8
0
  0
TEXT
  8
0
 10
6.005560
 20
1.007600
 40
0.138167
  1
BA  986
 41
1.000000
  7
SN0
 71
     0
 72
     5
 11
6.595641
 21
1.007600
  0
TEXT
  8
0
 10
5.637280
 20
0.816200
 40
0.138167
  1
1-1/16" x 1-11/16"
 41
1.000000
  7
SN0
 71
     0
 72
     5
 11
6.961760
 21
0.816200
  0
ENDSEC
  0
EOF
