  0
SECTION
  2
HEADER
  9
$ACADVER
  1
AC1006
  9
$EXTMIN
 10
2.957680
 20
0.788480
  9
$EXTMAX
 10
6.314880
 20
4.018080
  9
$LTSCALE
 40
0.044000
  9
$PDMODE
 70
    35
  9
$PDSIZE
 40
0.035200
  0
ENDSEC
  0
SECTION
  2
TABLES
  0
TABLE
  2
LTYPE
 70
     9
  0
LTYPE
  2
CONTINUOUS
 70
    64
  3
Solid line
 72
    65
 73
     0
 40
0.000000
  0
LTYPE
  2
DASHED
 70
    64
  3
__ __ __ __ __ __ __ __ __ __ __ __ __ __ __
 72
    65
 73
     2
 40
0.000330
 49
0.000220
 49
-0.000110
  0
LTYPE
  2
HIDDEN
 70
    64
  3
 _ _ _ _ _ _ _ _ _ _ _ _ _ _ _ _ _ _ _ _ _ _
 72
    65
 73
     2
 40
0.000165
 49
0.000110
 49
-0.000055
  0
LTYPE
  2
CENTER
 70
    64
  3
____ _ ____ _ ____ _ ____ _ ____ _ ____ _ ____
 72
    65
 73
     4
 40
0.000880
 49
0.000550
 49
-0.000110
 49
0.000110
 49
-0.000110
  0
LTYPE
  2
PHANTOM
 70
    64
  3
_____ _ _ _____ _ _ _____ _ _ _____ _ _ ____
 72
    65
 73
     6
 40
0.001100
 49
0.000550
 49
-0.000110
 49
0.000110
 49
-0.000110
 49
0.000110
 49
-0.000110
  0
LTYPE
  2
DOT
 70
    64
  3
...............................................
 72
    65
 73
     2
 40
0.000110
 49
0.000000
 49
-0.000110
  0
LTYPE
  2
DASHDOT
 70
    64
  3
__ . __ . __ . __ . __ . __ . __ . __ . __ . __
 72
    65
 73
     4
 40
0.000440
 49
0.000220
 49
-0.000110
 49
0.000000
 49
-0.000110
  0
LTYPE
  2
BORDER
 70
    64
  3
__ __ . __ __ . __ __ . __ __ . __ __ . __ __
 72
    65
 73
     6
 40
0.000770
 49
0.000220
 49
-0.000110
 49
0.000220
 49
-0.000110
 49
0.000000
 49
-0.000110
  0
LTYPE
  2
DIVIDE
 70
    64
  3
__ . . __ . . __ . . __ . . __ . . __ . . __
 72
    65
 73
     6
 40
0.000550
 49
0.000220
 49
-0.000110
 49
0.000000
 49
-0.000110
 49
0.000000
 49
-0.000110
  0
LTYPE
  2
DOTDOT
 70
    64
  3
 . .  . .  . .  . .  . .  . . 
 72
    65
 73
     5
 40
0.000242
 49
-0.000110
 49
0.000000
 49
-0.000110
 49
0.000000
 49
-0.000110
  0
ENDTAB
  0
TABLE
  2
STYLE
 70
     2
  0
STYLE
 70
     0
  2
SN0
 40
0.000000
 41
0.000440
 50
0.000000
 71
     0
 42
0.000000
  3
ROMAND
  0
STYLE
 70
    68
  2
SV0
 40
0.000000
 41
0.000440
 50
0.000000
 71
     0
 42
0.000000
  3
ROMAND
  0
ENDTAB
  0
TABLE
  2
LAYER
 70
     3
  0
LAYER
  2
FOREGROUND
 70
    64
 62
     7
  6
CONTINUOUS
  0
LAYER
  2
BACKGROUND
 70
    65
 62
    -7
  6
CONTINUOUS
  0
LAYER
  2
0
 70
    64
 62
     7
  6
CONTINUOUS
  0
ENDTAB
  0
ENDSEC
  0
SECTION
  2
ENTITIES
  0
POLYLINE
  8
FOREGROUND
  6
CONTINUOUS
 66
     1
 40
0.000000
 41
0.000000
  0
VERTEX
  8
FOREGROUND
  6
CONTINUOUS
 10
0.000000
 20
4.806560
  0
VERTEX
  8
FOREGROUND
  6
CONTINUOUS
 10
8.499920
 20
4.806560
  0
VERTEX
  8
FOREGROUND
  6
CONTINUOUS
 10
8.499920
 20
-6.193440
  0
VERTEX
  8
FOREGROUND
  6
CONTINUOUS
 10
0.000000
 20
-6.193440
  0
VERTEX
  8
FOREGROUND
  6
CONTINUOUS
 10
0.000000
 20
4.806560
  0
SEQEND
  8
0
  0
POLYLINE
  8
FOREGROUND
  6
CONTINUOUS
 66
     1
 40
0.000000
 41
0.000000
  0
VERTEX
  8
FOREGROUND
  6
CONTINUOUS
 10
0.000000
 20
4.806560
  0
VERTEX
  8
FOREGROUND
  6
CONTINUOUS
 10
8.499920
 20
4.806560
  0
VERTEX
  8
FOREGROUND
  6
CONTINUOUS
 10
8.499920
 20
-6.193440
  0
VERTEX
  8
FOREGROUND
  6
CONTINUOUS
 10
0.000000
 20
-6.193440
  0
VERTEX
  8
FOREGROUND
  6
CONTINUOUS
 10
0.000000
 20
4.806560
  0
SEQEND
  8
0
  0
SOLID
  8
0
 62
    15
 10
4.620880
 20
1.887160
 11
4.626160
 21
2.633400
 12
4.630560
 22
1.865160
 13
4.636280
 23
2.611400
  0
POLYLINE
  8
0
  6
CONTINUOUS
 66
     1
 40
0.000000
 41
0.000000
  0
VERTEX
  8
0
  6
CONTINUOUS
 10
4.620880
 20
1.887160
  0
VERTEX
  8
0
  6
CONTINUOUS
 10
4.626160
 20
2.633400
  0
VERTEX
  8
0
  6
CONTINUOUS
 10
4.636280
 20
2.611400
  0
VERTEX
  8
0
  6
CONTINUOUS
 10
4.630560
 20
1.865160
  0
VERTEX
  8
0
  6
CONTINUOUS
 10
4.620880
 20
1.887160
  0
SEQEND
  8
0
  0
SOLID
  8
0
 62
    15
 10
3.850440
 20
2.016520
 11
3.856160
 21
2.762760
 12
3.878600
 22
2.040280
 13
3.884320
 23
2.786520
  0
POLYLINE
  8
0
  6
CONTINUOUS
 66
     1
 40
0.000000
 41
0.000000
  0
VERTEX
  8
0
  6
CONTINUOUS
 10
3.850440
 20
2.016520
  0
VERTEX
  8
0
  6
CONTINUOUS
 10
3.856160
 20
2.762760
  0
VERTEX
  8
0
  6
CONTINUOUS
 10
3.884320
 20
2.786520
  0
VERTEX
  8
0
  6
CONTINUOUS
 10
3.878600
 20
2.040280
  0
VERTEX
  8
0
  6
CONTINUOUS
 10
3.850440
 20
2.016520
  0
SEQEND
  8
0
  0
SOLID
  8
0
 62
    15
 10
3.878600
 20
2.040280
 11
3.884320
 21
2.786520
 12
3.913360
 22
2.058320
 13
3.918640
 23
2.804560
  0
POLYLINE
  8
0
  6
CONTINUOUS
 66
     1
 40
0.000000
 41
0.000000
  0
VERTEX
  8
0
  6
CONTINUOUS
 10
3.878600
 20
2.040280
  0
VERTEX
  8
0
  6
CONTINUOUS
 10
3.884320
 20
2.786520
  0
VERTEX
  8
0
  6
CONTINUOUS
 10
3.918640
 20
2.804560
  0
VERTEX
  8
0
  6
CONTINUOUS
 10
3.913360
 20
2.058320
  0
VERTEX
  8
0
  6
CONTINUOUS
 10
3.878600
 20
2.040280
  0
SEQEND
  8
0
  0
SOLID
  8
0
 62
    15
 10
3.913360
 20
2.058320
 11
3.918640
 21
2.804560
 12
3.954720
 22
2.069320
 13
3.960440
 23
2.815560
  0
POLYLINE
  8
0
  6
CONTINUOUS
 66
     1
 40
0.000000
 41
0.000000
  0
VERTEX
  8
0
  6
CONTINUOUS
 10
3.913360
 20
2.058320
  0
VERTEX
  8
0
  6
CONTINUOUS
 10
3.918640
 20
2.804560
  0
VERTEX
  8
0
  6
CONTINUOUS
 10
3.960440
 20
2.815560
  0
VERTEX
  8
0
  6
CONTINUOUS
 10
3.954720
 20
2.069320
  0
VERTEX
  8
0
  6
CONTINUOUS
 10
3.913360
 20
2.058320
  0
SEQEND
  8
0
  0
SOLID
  8
0
 62
    15
 10
3.954720
 20
2.069320
 11
3.960440
 21
2.815560
 12
4.004000
 22
2.070640
 13
4.009720
 23
2.816880
  0
POLYLINE
  8
0
  6
CONTINUOUS
 66
     1
 40
0.000000
 41
0.000000
  0
VERTEX
  8
0
  6
CONTINUOUS
 10
3.954720
 20
2.069320
  0
VERTEX
  8
0
  6
CONTINUOUS
 10
3.960440
 20
2.815560
  0
VERTEX
  8
0
  6
CONTINUOUS
 10
4.009720
 20
2.816880
  0
VERTEX
  8
0
  6
CONTINUOUS
 10
4.004000
 20
2.070640
  0
VERTEX
  8
0
  6
CONTINUOUS
 10
3.954720
 20
2.069320
  0
SEQEND
  8
0
  0
SOLID
  8
0
 62
    15
 10
4.004000
 20
2.070640
 11
4.009720
 21
2.816880
 12
4.031720
 22
2.067120
 13
4.037440
 23
2.813360
  0
POLYLINE
  8
0
  6
CONTINUOUS
 66
     1
 40
0.000000
 41
0.000000
  0
VERTEX
  8
0
  6
CONTINUOUS
 10
4.004000
 20
2.070640
  0
VERTEX
  8
0
  6
CONTINUOUS
 10
4.009720
 20
2.816880
  0
VERTEX
  8
0
  6
CONTINUOUS
 10
4.037440
 20
2.813360
  0
VERTEX
  8
0
  6
CONTINUOUS
 10
4.031720
 20
2.067120
  0
VERTEX
  8
0
  6
CONTINUOUS
 10
4.004000
 20
2.070640
  0
SEQEND
  8
0
  0
SOLID
  8
0
 62
    15
 10
4.031720
 20
2.067120
 11
4.037440
 21
2.813360
 12
4.061640
 22
2.060520
 13
4.067360
 23
2.806760
  0
POLYLINE
  8
0
  6
CONTINUOUS
 66
     1
 40
0.000000
 41
0.000000
  0
VERTEX
  8
0
  6
CONTINUOUS
 10
4.031720
 20
2.067120
  0
VERTEX
  8
0
  6
CONTINUOUS
 10
4.037440
 20
2.813360
  0
VERTEX
  8
0
  6
CONTINUOUS
 10
4.067360
 20
2.806760
  0
VERTEX
  8
0
  6
CONTINUOUS
 10
4.061640
 20
2.060520
  0
VERTEX
  8
0
  6
CONTINUOUS
 10
4.031720
 20
2.067120
  0
SEQEND
  8
0
  0
SOLID
  8
0
 62
    15
 10
4.061640
 20
2.060520
 11
4.067360
 21
2.806760
 12
4.094200
 22
2.050840
 13
4.099920
 23
2.797080
  0
POLYLINE
  8
0
  6
CONTINUOUS
 66
     1
 40
0.000000
 41
0.000000
  0
VERTEX
  8
0
  6
CONTINUOUS
 10
4.061640
 20
2.060520
  0
VERTEX
  8
0
  6
CONTINUOUS
 10
4.067360
 20
2.806760
  0
VERTEX
  8
0
  6
CONTINUOUS
 10
4.099920
 20
2.797080
  0
VERTEX
  8
0
  6
CONTINUOUS
 10
4.094200
 20
2.050840
  0
VERTEX
  8
0
  6
CONTINUOUS
 10
4.061640
 20
2.060520
  0
SEQEND
  8
0
  0
SOLID
  8
0
 62
    15
 10
4.094200
 20
2.050840
 11
4.099920
 21
2.797080
 12
4.128960
 22
2.037200
 13
4.134680
 23
2.783440
  0
POLYLINE
  8
0
  6
CONTINUOUS
 66
     1
 40
0.000000
 41
0.000000
  0
VERTEX
  8
0
  6
CONTINUOUS
 10
4.094200
 20
2.050840
  0
VERTEX
  8
0
  6
CONTINUOUS
 10
4.099920
 20
2.797080
  0
VERTEX
  8
0
  6
CONTINUOUS
 10
4.134680
 20
2.783440
  0
VERTEX
  8
0
  6
CONTINUOUS
 10
4.128960
 20
2.037200
  0
VERTEX
  8
0
  6
CONTINUOUS
 10
4.094200
 20
2.050840
  0
SEQEND
  8
0
  0
SOLID
  8
0
 62
    15
 10
4.128960
 20
2.037200
 11
4.134680
 21
2.783440
 12
4.166360
 22
2.019600
 13
4.172080
 23
2.765840
  0
POLYLINE
  8
0
  6
CONTINUOUS
 66
     1
 40
0.000000
 41
0.000000
  0
VERTEX
  8
0
  6
CONTINUOUS
 10
4.128960
 20
2.037200
  0
VERTEX
  8
0
  6
CONTINUOUS
 10
4.134680
 20
2.783440
  0
VERTEX
  8
0
  6
CONTINUOUS
 10
4.172080
 20
2.765840
  0
VERTEX
  8
0
  6
CONTINUOUS
 10
4.166360
 20
2.019600
  0
VERTEX
  8
0
  6
CONTINUOUS
 10
4.128960
 20
2.037200
  0
SEQEND
  8
0
  0
SOLID
  8
0
 62
    15
 10
4.166360
 20
2.019600
 11
4.172080
 21
2.765840
 12
4.206400
 22
1.998040
 13
4.211680
 23
2.743840
  0
POLYLINE
  8
0
  6
CONTINUOUS
 66
     1
 40
0.000000
 41
0.000000
  0
VERTEX
  8
0
  6
CONTINUOUS
 10
4.166360
 20
2.019600
  0
VERTEX
  8
0
  6
CONTINUOUS
 10
4.172080
 20
2.765840
  0
VERTEX
  8
0
  6
CONTINUOUS
 10
4.211680
 20
2.743840
  0
VERTEX
  8
0
  6
CONTINUOUS
 10
4.206400
 20
1.998040
  0
VERTEX
  8
0
  6
CONTINUOUS
 10
4.166360
 20
2.019600
  0
SEQEND
  8
0
  0
SOLID
  8
0
 62
    15
 10
4.206400
 20
1.998040
 11
4.211680
 21
2.743840
 12
4.246440
 22
1.976040
 13
4.251720
 23
2.722280
  0
POLYLINE
  8
0
  6
CONTINUOUS
 66
     1
 40
0.000000
 41
0.000000
  0
VERTEX
  8
0
  6
CONTINUOUS
 10
4.206400
 20
1.998040
  0
VERTEX
  8
0
  6
CONTINUOUS
 10
4.211680
 20
2.743840
  0
VERTEX
  8
0
  6
CONTINUOUS
 10
4.251720
 20
2.722280
  0
VERTEX
  8
0
  6
CONTINUOUS
 10
4.246440
 20
1.976040
  0
VERTEX
  8
0
  6
CONTINUOUS
 10
4.206400
 20
1.998040
  0
SEQEND
  8
0
  0
SOLID
  8
0
 62
    15
 10
4.246440
 20
1.976040
 11
4.251720
 21
2.722280
 12
4.283400
 22
1.957560
 13
4.289120
 23
2.703800
  0
POLYLINE
  8
0
  6
CONTINUOUS
 66
     1
 40
0.000000
 41
0.000000
  0
VERTEX
  8
0
  6
CONTINUOUS
 10
4.246440
 20
1.976040
  0
VERTEX
  8
0
  6
CONTINUOUS
 10
4.251720
 20
2.722280
  0
VERTEX
  8
0
  6
CONTINUOUS
 10
4.289120
 20
2.703800
  0
VERTEX
  8
0
  6
CONTINUOUS
 10
4.283400
 20
1.957560
  0
VERTEX
  8
0
  6
CONTINUOUS
 10
4.246440
 20
1.976040
  0
SEQEND
  8
0
  0
SOLID
  8
0
 62
    15
 10
4.283400
 20
1.957560
 11
4.289120
 21
2.703800
 12
4.318160
 22
1.942600
 13
4.323440
 23
2.688840
  0
POLYLINE
  8
0
  6
CONTINUOUS
 66
     1
 40
0.000000
 41
0.000000
  0
VERTEX
  8
0
  6
CONTINUOUS
 10
4.283400
 20
1.957560
  0
VERTEX
  8
0
  6
CONTINUOUS
 10
4.289120
 20
2.703800
  0
VERTEX
  8
0
  6
CONTINUOUS
 10
4.323440
 20
2.688840
  0
VERTEX
  8
0
  6
CONTINUOUS
 10
4.318160
 20
1.942600
  0
VERTEX
  8
0
  6
CONTINUOUS
 10
4.283400
 20
1.957560
  0
SEQEND
  8
0
  0
SOLID
  8
0
 62
    15
 10
4.318160
 20
1.942600
 11
4.323440
 21
2.688840
 12
4.350280
 22
1.930720
 13
4.355560
 23
2.676960
  0
POLYLINE
  8
0
  6
CONTINUOUS
 66
     1
 40
0.000000
 41
0.000000
  0
VERTEX
  8
0
  6
CONTINUOUS
 10
4.318160
 20
1.942600
  0
VERTEX
  8
0
  6
CONTINUOUS
 10
4.323440
 20
2.688840
  0
VERTEX
  8
0
  6
CONTINUOUS
 10
4.355560
 20
2.676960
  0
VERTEX
  8
0
  6
CONTINUOUS
 10
4.350280
 20
1.930720
  0
VERTEX
  8
0
  6
CONTINUOUS
 10
4.318160
 20
1.942600
  0
SEQEND
  8
0
  0
SOLID
  8
0
 62
    15
 10
4.350280
 20
1.930720
 11
4.355560
 21
2.676960
 12
4.407040
 22
1.914440
 13
4.412760
 23
2.660680
  0
POLYLINE
  8
0
  6
CONTINUOUS
 66
     1
 40
0.000000
 41
0.000000
  0
VERTEX
  8
0
  6
CONTINUOUS
 10
4.350280
 20
1.930720
  0
VERTEX
  8
0
  6
CONTINUOUS
 10
4.355560
 20
2.676960
  0
VERTEX
  8
0
  6
CONTINUOUS
 10
4.412760
 20
2.660680
  0
VERTEX
  8
0
  6
CONTINUOUS
 10
4.407040
 20
1.914440
  0
VERTEX
  8
0
  6
CONTINUOUS
 10
4.350280
 20
1.930720
  0
SEQEND
  8
0
  0
SOLID
  8
0
 62
    15
 10
4.407040
 20
1.914440
 11
4.412760
 21
2.660680
 12
4.455440
 22
1.906520
 13
4.461160
 23
2.652760
  0
POLYLINE
  8
0
  6
CONTINUOUS
 66
     1
 40
0.000000
 41
0.000000
  0
VERTEX
  8
0
  6
CONTINUOUS
 10
4.407040
 20
1.914440
  0
VERTEX
  8
0
  6
CONTINUOUS
 10
4.412760
 20
2.660680
  0
VERTEX
  8
0
  6
CONTINUOUS
 10
4.461160
 20
2.652760
  0
VERTEX
  8
0
  6
CONTINUOUS
 10
4.455440
 20
1.906520
  0
VERTEX
  8
0
  6
CONTINUOUS
 10
4.407040
 20
1.914440
  0
SEQEND
  8
0
  0
SOLID
  8
0
 62
    15
 10
4.455440
 20
1.906520
 11
4.461160
 21
2.652760
 12
4.495480
 22
1.904320
 13
4.501200
 23
2.650560
  0
POLYLINE
  8
0
  6
CONTINUOUS
 66
     1
 40
0.000000
 41
0.000000
  0
VERTEX
  8
0
  6
CONTINUOUS
 10
4.455440
 20
1.906520
  0
VERTEX
  8
0
  6
CONTINUOUS
 10
4.461160
 20
2.652760
  0
VERTEX
  8
0
  6
CONTINUOUS
 10
4.501200
 20
2.650560
  0
VERTEX
  8
0
  6
CONTINUOUS
 10
4.495480
 20
1.904320
  0
VERTEX
  8
0
  6
CONTINUOUS
 10
4.455440
 20
1.906520
  0
SEQEND
  8
0
  0
SOLID
  8
0
 62
    15
 10
4.495480
 20
1.904320
 11
4.501200
 21
2.650560
 12
4.528040
 22
1.905640
 13
4.533760
 23
2.651880
  0
POLYLINE
  8
0
  6
CONTINUOUS
 66
     1
 40
0.000000
 41
0.000000
  0
VERTEX
  8
0
  6
CONTINUOUS
 10
4.495480
 20
1.904320
  0
VERTEX
  8
0
  6
CONTINUOUS
 10
4.501200
 20
2.650560
  0
VERTEX
  8
0
  6
CONTINUOUS
 10
4.533760
 20
2.651880
  0
VERTEX
  8
0
  6
CONTINUOUS
 10
4.528040
 20
1.905640
  0
VERTEX
  8
0
  6
CONTINUOUS
 10
4.495480
 20
1.904320
  0
SEQEND
  8
0
  0
SOLID
  8
0
 62
    15
 10
4.528040
 20
1.905640
 11
4.533760
 21
2.651880
 12
4.554440
 22
1.907400
 13
4.560160
 23
2.653640
  0
POLYLINE
  8
0
  6
CONTINUOUS
 66
     1
 40
0.000000
 41
0.000000
  0
VERTEX
  8
0
  6
CONTINUOUS
 10
4.528040
 20
1.905640
  0
VERTEX
  8
0
  6
CONTINUOUS
 10
4.533760
 20
2.651880
  0
VERTEX
  8
0
  6
CONTINUOUS
 10
4.560160
 20
2.653640
  0
VERTEX
  8
0
  6
CONTINUOUS
 10
4.554440
 20
1.907400
  0
VERTEX
  8
0
  6
CONTINUOUS
 10
4.528040
 20
1.905640
  0
SEQEND
  8
0
  0
SOLID
  8
0
 62
    15
 10
4.554440
 20
1.907400
 11
4.560160
 21
2.653640
 12
4.574680
 22
1.907840
 13
4.580400
 23
2.654080
  0
POLYLINE
  8
0
  6
CONTINUOUS
 66
     1
 40
0.000000
 41
0.000000
  0
VERTEX
  8
0
  6
CONTINUOUS
 10
4.554440
 20
1.907400
  0
VERTEX
  8
0
  6
CONTINUOUS
 10
4.560160
 20
2.653640
  0
VERTEX
  8
0
  6
CONTINUOUS
 10
4.580400
 20
2.654080
  0
VERTEX
  8
0
  6
CONTINUOUS
 10
4.574680
 20
1.907840
  0
VERTEX
  8
0
  6
CONTINUOUS
 10
4.554440
 20
1.907400
  0
SEQEND
  8
0
  0
SOLID
  8
0
 62
    15
 10
4.574680
 20
1.907840
 11
4.580400
 21
2.654080
 12
4.602400
 22
1.901680
 13
4.608120
 23
2.647920
  0
POLYLINE
  8
0
  6
CONTINUOUS
 66
     1
 40
0.000000
 41
0.000000
  0
VERTEX
  8
0
  6
CONTINUOUS
 10
4.574680
 20
1.907840
  0
VERTEX
  8
0
  6
CONTINUOUS
 10
4.580400
 20
2.654080
  0
VERTEX
  8
0
  6
CONTINUOUS
 10
4.608120
 20
2.647920
  0
VERTEX
  8
0
  6
CONTINUOUS
 10
4.602400
 20
1.901680
  0
VERTEX
  8
0
  6
CONTINUOUS
 10
4.574680
 20
1.907840
  0
SEQEND
  8
0
  0
SOLID
  8
0
 62
    15
 10
4.602400
 20
1.901680
 11
4.608120
 21
2.647920
 12
4.620880
 22
1.887160
 13
4.626160
 23
2.633400
  0
POLYLINE
  8
0
  6
CONTINUOUS
 66
     1
 40
0.000000
 41
0.000000
  0
VERTEX
  8
0
  6
CONTINUOUS
 10
4.602400
 20
1.901680
  0
VERTEX
  8
0
  6
CONTINUOUS
 10
4.608120
 20
2.647920
  0
VERTEX
  8
0
  6
CONTINUOUS
 10
4.626160
 20
2.633400
  0
VERTEX
  8
0
  6
CONTINUOUS
 10
4.620880
 20
1.887160
  0
VERTEX
  8
0
  6
CONTINUOUS
 10
4.602400
 20
1.901680
  0
SEQEND
  8
0
  0
SOLID
  8
0
 62
    15
 10
3.828000
 20
1.989680
 11
3.833720
 21
2.735480
 12
3.850440
 22
2.016520
 13
3.856160
 23
2.762760
  0
POLYLINE
  8
0
  6
CONTINUOUS
 66
     1
 40
0.000000
 41
0.000000
  0
VERTEX
  8
0
  6
CONTINUOUS
 10
3.828000
 20
1.989680
  0
VERTEX
  8
0
  6
CONTINUOUS
 10
3.833720
 20
2.735480
  0
VERTEX
  8
0
  6
CONTINUOUS
 10
3.856160
 20
2.762760
  0
VERTEX
  8
0
  6
CONTINUOUS
 10
3.850440
 20
2.016520
  0
VERTEX
  8
0
  6
CONTINUOUS
 10
3.828000
 20
1.989680
  0
SEQEND
  8
0
  0
SOLID
  8
0
 62
    15
 10
4.630560
 20
1.865160
 11
4.636280
 21
2.611400
 12
4.633200
 22
1.836120
 13
4.638920
 23
2.582360
  0
POLYLINE
  8
0
  6
CONTINUOUS
 66
     1
 40
0.000000
 41
0.000000
  0
VERTEX
  8
0
  6
CONTINUOUS
 10
4.630560
 20
1.865160
  0
VERTEX
  8
0
  6
CONTINUOUS
 10
4.636280
 20
2.611400
  0
VERTEX
  8
0
  6
CONTINUOUS
 10
4.638920
 20
2.582360
  0
VERTEX
  8
0
  6
CONTINUOUS
 10
4.633200
 20
1.836120
  0
VERTEX
  8
0
  6
CONTINUOUS
 10
4.630560
 20
1.865160
  0
SEQEND
  8
0
  0
SOLID
  8
0
 62
    15
 10
5.997640
 20
1.722160
 11
6.003360
 21
2.468400
 12
6.017440
 22
1.722160
 13
6.022720
 23
2.468400
  0
POLYLINE
  8
0
  6
CONTINUOUS
 66
     1
 40
0.000000
 41
0.000000
  0
VERTEX
  8
0
  6
CONTINUOUS
 10
5.997640
 20
1.722160
  0
VERTEX
  8
0
  6
CONTINUOUS
 10
6.003360
 20
2.468400
  0
VERTEX
  8
0
  6
CONTINUOUS
 10
6.022720
 20
2.468400
  0
VERTEX
  8
0
  6
CONTINUOUS
 10
6.017440
 20
1.722160
  0
VERTEX
  8
0
  6
CONTINUOUS
 10
5.997640
 20
1.722160
  0
SEQEND
  8
0
  0
SOLID
  8
0
 62
    15
 10
5.980920
 20
1.836120
 11
5.986640
 21
2.582360
 12
5.997640
 22
1.722160
 13
6.003360
 23
2.468400
  0
POLYLINE
  8
0
  6
CONTINUOUS
 66
     1
 40
0.000000
 41
0.000000
  0
VERTEX
  8
0
  6
CONTINUOUS
 10
5.980920
 20
1.836120
  0
VERTEX
  8
0
  6
CONTINUOUS
 10
5.986640
 20
2.582360
  0
VERTEX
  8
0
  6
CONTINUOUS
 10
6.003360
 20
2.468400
  0
VERTEX
  8
0
  6
CONTINUOUS
 10
5.997640
 20
1.722160
  0
VERTEX
  8
0
  6
CONTINUOUS
 10
5.980920
 20
1.836120
  0
SEQEND
  8
0
  0
SOLID
  8
0
 62
    15
 10
4.633200
 20
1.836120
 11
4.638920
 21
2.582360
 12
5.980920
 22
1.836120
 13
5.986640
 23
2.582360
  0
POLYLINE
  8
0
  6
CONTINUOUS
 66
     1
 40
0.000000
 41
0.000000
  0
VERTEX
  8
0
  6
CONTINUOUS
 10
4.633200
 20
1.836120
  0
VERTEX
  8
0
  6
CONTINUOUS
 10
4.638920
 20
2.582360
  0
VERTEX
  8
0
  6
CONTINUOUS
 10
5.986640
 20
2.582360
  0
VERTEX
  8
0
  6
CONTINUOUS
 10
5.980920
 20
1.836120
  0
VERTEX
  8
0
  6
CONTINUOUS
 10
4.633200
 20
1.836120
  0
SEQEND
  8
0
  0
SOLID
  8
0
 62
    15
 10
6.017440
 20
1.722160
 11
6.022720
 21
2.468400
 12
6.041200
 22
1.767040
 13
6.046920
 23
2.513280
  0
POLYLINE
  8
0
  6
CONTINUOUS
 66
     1
 40
0.000000
 41
0.000000
  0
VERTEX
  8
0
  6
CONTINUOUS
 10
6.017440
 20
1.722160
  0
VERTEX
  8
0
  6
CONTINUOUS
 10
6.022720
 20
2.468400
  0
VERTEX
  8
0
  6
CONTINUOUS
 10
6.046920
 20
2.513280
  0
VERTEX
  8
0
  6
CONTINUOUS
 10
6.041200
 20
1.767040
  0
VERTEX
  8
0
  6
CONTINUOUS
 10
6.017440
 20
1.722160
  0
SEQEND
  8
0
  0
SOLID
  8
0
 62
    15
 10
6.041200
 20
1.767040
 11
6.046920
 21
2.513280
 12
6.068480
 22
1.799600
 13
6.074200
 23
2.545840
  0
POLYLINE
  8
0
  6
CONTINUOUS
 66
     1
 40
0.000000
 41
0.000000
  0
VERTEX
  8
0
  6
CONTINUOUS
 10
6.041200
 20
1.767040
  0
VERTEX
  8
0
  6
CONTINUOUS
 10
6.046920
 20
2.513280
  0
VERTEX
  8
0
  6
CONTINUOUS
 10
6.074200
 20
2.545840
  0
VERTEX
  8
0
  6
CONTINUOUS
 10
6.068480
 20
1.799600
  0
VERTEX
  8
0
  6
CONTINUOUS
 10
6.041200
 20
1.767040
  0
SEQEND
  8
0
  0
SOLID
  8
0
 62
    15
 10
6.068480
 20
1.799600
 11
6.074200
 21
2.545840
 12
6.098400
 22
1.820720
 13
6.103680
 23
2.566960
  0
POLYLINE
  8
0
  6
CONTINUOUS
 66
     1
 40
0.000000
 41
0.000000
  0
VERTEX
  8
0
  6
CONTINUOUS
 10
6.068480
 20
1.799600
  0
VERTEX
  8
0
  6
CONTINUOUS
 10
6.074200
 20
2.545840
  0
VERTEX
  8
0
  6
CONTINUOUS
 10
6.103680
 20
2.566960
  0
VERTEX
  8
0
  6
CONTINUOUS
 10
6.098400
 20
1.820720
  0
VERTEX
  8
0
  6
CONTINUOUS
 10
6.068480
 20
1.799600
  0
SEQEND
  8
0
  0
SOLID
  8
0
 62
    15
 10
6.098400
 20
1.820720
 11
6.103680
 21
2.566960
 12
6.129200
 22
1.832160
 13
6.134920
 23
2.578400
  0
POLYLINE
  8
0
  6
CONTINUOUS
 66
     1
 40
0.000000
 41
0.000000
  0
VERTEX
  8
0
  6
CONTINUOUS
 10
6.098400
 20
1.820720
  0
VERTEX
  8
0
  6
CONTINUOUS
 10
6.103680
 20
2.566960
  0
VERTEX
  8
0
  6
CONTINUOUS
 10
6.134920
 20
2.578400
  0
VERTEX
  8
0
  6
CONTINUOUS
 10
6.129200
 20
1.832160
  0
VERTEX
  8
0
  6
CONTINUOUS
 10
6.098400
 20
1.820720
  0
SEQEND
  8
0
  0
SOLID
  8
0
 62
    15
 10
6.129200
 20
1.832160
 11
6.134920
 21
2.578400
 12
6.160000
 22
1.834360
 13
6.165720
 23
2.580600
  0
POLYLINE
  8
0
  6
CONTINUOUS
 66
     1
 40
0.000000
 41
0.000000
  0
VERTEX
  8
0
  6
CONTINUOUS
 10
6.129200
 20
1.832160
  0
VERTEX
  8
0
  6
CONTINUOUS
 10
6.134920
 20
2.578400
  0
VERTEX
  8
0
  6
CONTINUOUS
 10
6.165720
 20
2.580600
  0
VERTEX
  8
0
  6
CONTINUOUS
 10
6.160000
 20
1.834360
  0
VERTEX
  8
0
  6
CONTINUOUS
 10
6.129200
 20
1.832160
  0
SEQEND
  8
0
  0
SOLID
  8
0
 62
    15
 10
6.160000
 20
1.834360
 11
6.165720
 21
2.580600
 12
6.189920
 22
1.828200
 13
6.195640
 23
2.574440
  0
POLYLINE
  8
0
  6
CONTINUOUS
 66
     1
 40
0.000000
 41
0.000000
  0
VERTEX
  8
0
  6
CONTINUOUS
 10
6.160000
 20
1.834360
  0
VERTEX
  8
0
  6
CONTINUOUS
 10
6.165720
 20
2.580600
  0
VERTEX
  8
0
  6
CONTINUOUS
 10
6.195640
 20
2.574440
  0
VERTEX
  8
0
  6
CONTINUOUS
 10
6.189920
 20
1.828200
  0
VERTEX
  8
0
  6
CONTINUOUS
 10
6.160000
 20
1.834360
  0
SEQEND
  8
0
  0
SOLID
  8
0
 62
    15
 10
6.309160
 20
1.528120
 11
6.314880
 21
2.274360
 12
6.309160
 22
1.266320
 13
6.314880
 23
2.012560
  0
POLYLINE
  8
0
  6
CONTINUOUS
 66
     1
 40
0.000000
 41
0.000000
  0
VERTEX
  8
0
  6
CONTINUOUS
 10
6.309160
 20
1.528120
  0
VERTEX
  8
0
  6
CONTINUOUS
 10
6.314880
 20
2.274360
  0
VERTEX
  8
0
  6
CONTINUOUS
 10
6.314880
 20
2.012560
  0
VERTEX
  8
0
  6
CONTINUOUS
 10
6.309160
 20
1.266320
  0
VERTEX
  8
0
  6
CONTINUOUS
 10
6.309160
 20
1.528120
  0
SEQEND
  8
0
  0
SOLID
  8
0
 62
    15
 10
6.193440
 20
1.528120
 11
6.198720
 21
2.274360
 12
6.309160
 22
1.528120
 13
6.314880
 23
2.274360
  0
POLYLINE
  8
0
  6
CONTINUOUS
 66
     1
 40
0.000000
 41
0.000000
  0
VERTEX
  8
0
  6
CONTINUOUS
 10
6.193440
 20
1.528120
  0
VERTEX
  8
0
  6
CONTINUOUS
 10
6.198720
 20
2.274360
  0
VERTEX
  8
0
  6
CONTINUOUS
 10
6.314880
 20
2.274360
  0
VERTEX
  8
0
  6
CONTINUOUS
 10
6.309160
 20
1.528120
  0
VERTEX
  8
0
  6
CONTINUOUS
 10
6.193440
 20
1.528120
  0
SEQEND
  8
0
  0
SOLID
  8
0
 62
    15
 10
6.242280
 20
1.795200
 11
6.248000
 21
2.541000
 12
6.262520
 22
1.770120
 13
6.268240
 23
2.516360
  0
POLYLINE
  8
0
  6
CONTINUOUS
 66
     1
 40
0.000000
 41
0.000000
  0
VERTEX
  8
0
  6
CONTINUOUS
 10
6.242280
 20
1.795200
  0
VERTEX
  8
0
  6
CONTINUOUS
 10
6.248000
 20
2.541000
  0
VERTEX
  8
0
  6
CONTINUOUS
 10
6.268240
 20
2.516360
  0
VERTEX
  8
0
  6
CONTINUOUS
 10
6.262520
 20
1.770120
  0
VERTEX
  8
0
  6
CONTINUOUS
 10
6.242280
 20
1.795200
  0
SEQEND
  8
0
  0
SOLID
  8
0
 62
    15
 10
6.262520
 20
1.770120
 11
6.268240
 21
2.516360
 12
6.277480
 22
1.740640
 13
6.283200
 23
2.486880
  0
POLYLINE
  8
0
  6
CONTINUOUS
 66
     1
 40
0.000000
 41
0.000000
  0
VERTEX
  8
0
  6
CONTINUOUS
 10
6.262520
 20
1.770120
  0
VERTEX
  8
0
  6
CONTINUOUS
 10
6.268240
 20
2.516360
  0
VERTEX
  8
0
  6
CONTINUOUS
 10
6.283200
 20
2.486880
  0
VERTEX
  8
0
  6
CONTINUOUS
 10
6.277480
 20
1.740640
  0
VERTEX
  8
0
  6
CONTINUOUS
 10
6.262520
 20
1.770120
  0
SEQEND
  8
0
  0
SOLID
  8
0
 62
    15
 10
6.285840
 20
1.708080
 11
6.291560
 21
2.454320
 12
6.287160
 22
1.672880
 13
6.292440
 23
2.419120
  0
POLYLINE
  8
0
  6
CONTINUOUS
 66
     1
 40
0.000000
 41
0.000000
  0
VERTEX
  8
0
  6
CONTINUOUS
 10
6.285840
 20
1.708080
  0
VERTEX
  8
0
  6
CONTINUOUS
 10
6.291560
 20
2.454320
  0
VERTEX
  8
0
  6
CONTINUOUS
 10
6.292440
 20
2.419120
  0
VERTEX
  8
0
  6
CONTINUOUS
 10
6.287160
 20
1.672880
  0
VERTEX
  8
0
  6
CONTINUOUS
 10
6.285840
 20
1.708080
  0
SEQEND
  8
0
  0
SOLID
  8
0
 62
    15
 10
6.277480
 20
1.740640
 11
6.283200
 21
2.486880
 12
6.285840
 22
1.708080
 13
6.291560
 23
2.454320
  0
POLYLINE
  8
0
  6
CONTINUOUS
 66
     1
 40
0.000000
 41
0.000000
  0
VERTEX
  8
0
  6
CONTINUOUS
 10
6.277480
 20
1.740640
  0
VERTEX
  8
0
  6
CONTINUOUS
 10
6.283200
 20
2.486880
  0
VERTEX
  8
0
  6
CONTINUOUS
 10
6.291560
 20
2.454320
  0
VERTEX
  8
0
  6
CONTINUOUS
 10
6.285840
 20
1.708080
  0
VERTEX
  8
0
  6
CONTINUOUS
 10
6.277480
 20
1.740640
  0
SEQEND
  8
0
  0
SOLID
  8
0
 62
    15
 10
6.189920
 20
1.828200
 11
6.195640
 21
2.574440
 12
6.217640
 22
1.814560
 13
6.223360
 23
2.560800
  0
POLYLINE
  8
0
  6
CONTINUOUS
 66
     1
 40
0.000000
 41
0.000000
  0
VERTEX
  8
0
  6
CONTINUOUS
 10
6.189920
 20
1.828200
  0
VERTEX
  8
0
  6
CONTINUOUS
 10
6.195640
 20
2.574440
  0
VERTEX
  8
0
  6
CONTINUOUS
 10
6.223360
 20
2.560800
  0
VERTEX
  8
0
  6
CONTINUOUS
 10
6.217640
 20
1.814560
  0
VERTEX
  8
0
  6
CONTINUOUS
 10
6.189920
 20
1.828200
  0
SEQEND
  8
0
  0
SOLID
  8
0
 62
    15
 10
6.217640
 20
1.814560
 11
6.223360
 21
2.560800
 12
6.242280
 22
1.795200
 13
6.248000
 23
2.541000
  0
POLYLINE
  8
0
  6
CONTINUOUS
 66
     1
 40
0.000000
 41
0.000000
  0
VERTEX
  8
0
  6
CONTINUOUS
 10
6.217640
 20
1.814560
  0
VERTEX
  8
0
  6
CONTINUOUS
 10
6.223360
 20
2.560800
  0
VERTEX
  8
0
  6
CONTINUOUS
 10
6.248000
 20
2.541000
  0
VERTEX
  8
0
  6
CONTINUOUS
 10
6.242280
 20
1.795200
  0
VERTEX
  8
0
  6
CONTINUOUS
 10
6.217640
 20
1.814560
  0
SEQEND
  8
0
  0
SOLID
  8
0
 62
    15
 10
3.036440
 20
2.090000
 11
3.042160
 21
2.836240
 12
3.806440
 22
2.090000
 13
3.812160
 23
2.836240
  0
POLYLINE
  8
0
  6
CONTINUOUS
 66
     1
 40
0.000000
 41
0.000000
  0
VERTEX
  8
0
  6
CONTINUOUS
 10
3.036440
 20
2.090000
  0
VERTEX
  8
0
  6
CONTINUOUS
 10
3.042160
 20
2.836240
  0
VERTEX
  8
0
  6
CONTINUOUS
 10
3.812160
 20
2.836240
  0
VERTEX
  8
0
  6
CONTINUOUS
 10
3.806440
 20
2.090000
  0
VERTEX
  8
0
  6
CONTINUOUS
 10
3.036440
 20
2.090000
  0
SEQEND
  8
0
  0
SOLID
  8
0
 62
    15
 10
3.806440
 20
2.090000
 11
3.812160
 21
2.836240
 12
3.812600
 22
1.987480
 13
3.818320
 23
2.733720
  0
POLYLINE
  8
0
  6
CONTINUOUS
 66
     1
 40
0.000000
 41
0.000000
  0
VERTEX
  8
0
  6
CONTINUOUS
 10
3.806440
 20
2.090000
  0
VERTEX
  8
0
  6
CONTINUOUS
 10
3.812160
 20
2.836240
  0
VERTEX
  8
0
  6
CONTINUOUS
 10
3.818320
 20
2.733720
  0
VERTEX
  8
0
  6
CONTINUOUS
 10
3.812600
 20
1.987480
  0
VERTEX
  8
0
  6
CONTINUOUS
 10
3.806440
 20
2.090000
  0
SEQEND
  8
0
  0
SOLID
  8
0
 62
    15
 10
3.812600
 20
1.987480
 11
3.818320
 21
2.733720
 12
3.820080
 22
1.988360
 13
3.825800
 23
2.734600
  0
POLYLINE
  8
0
  6
CONTINUOUS
 66
     1
 40
0.000000
 41
0.000000
  0
VERTEX
  8
0
  6
CONTINUOUS
 10
3.812600
 20
1.987480
  0
VERTEX
  8
0
  6
CONTINUOUS
 10
3.818320
 20
2.733720
  0
VERTEX
  8
0
  6
CONTINUOUS
 10
3.825800
 20
2.734600
  0
VERTEX
  8
0
  6
CONTINUOUS
 10
3.820080
 20
1.988360
  0
VERTEX
  8
0
  6
CONTINUOUS
 10
3.812600
 20
1.987480
  0
SEQEND
  8
0
  0
SOLID
  8
0
 62
    15
 10
3.820080
 20
1.988360
 11
3.825800
 21
2.734600
 12
3.828000
 22
1.989680
 13
3.833720
 23
2.735480
  0
POLYLINE
  8
0
  6
CONTINUOUS
 66
     1
 40
0.000000
 41
0.000000
  0
VERTEX
  8
0
  6
CONTINUOUS
 10
3.820080
 20
1.988360
  0
VERTEX
  8
0
  6
CONTINUOUS
 10
3.825800
 20
2.734600
  0
VERTEX
  8
0
  6
CONTINUOUS
 10
3.833720
 20
2.735480
  0
VERTEX
  8
0
  6
CONTINUOUS
 10
3.828000
 20
1.989680
  0
VERTEX
  8
0
  6
CONTINUOUS
 10
3.820080
 20
1.988360
  0
SEQEND
  8
0
  0
POLYLINE
  8
0
  6
CONTINUOUS
 66
     1
 40
0.000000
 41
0.000000
  0
VERTEX
  8
0
  6
CONTINUOUS
 10
3.828000
 20
1.989680
  0
VERTEX
  8
0
  6
CONTINUOUS
 10
3.850440
 20
2.016520
  0
VERTEX
  8
0
  6
CONTINUOUS
 10
3.878600
 20
2.040280
  0
VERTEX
  8
0
  6
CONTINUOUS
 10
3.913360
 20
2.058320
  0
VERTEX
  8
0
  6
CONTINUOUS
 10
3.954720
 20
2.069320
  0
VERTEX
  8
0
  6
CONTINUOUS
 10
4.004000
 20
2.070640
  0
VERTEX
  8
0
  6
CONTINUOUS
 10
4.031720
 20
2.067120
  0
VERTEX
  8
0
  6
CONTINUOUS
 10
4.061640
 20
2.060520
  0
VERTEX
  8
0
  6
CONTINUOUS
 10
4.094200
 20
2.050840
  0
VERTEX
  8
0
  6
CONTINUOUS
 10
4.128960
 20
2.037200
  0
VERTEX
  8
0
  6
CONTINUOUS
 10
4.166360
 20
2.019600
  0
VERTEX
  8
0
  6
CONTINUOUS
 10
4.246440
 20
1.976040
  0
VERTEX
  8
0
  6
CONTINUOUS
 10
4.283400
 20
1.957560
  0
VERTEX
  8
0
  6
CONTINUOUS
 10
4.318160
 20
1.942600
  0
VERTEX
  8
0
  6
CONTINUOUS
 10
4.350280
 20
1.930720
  0
VERTEX
  8
0
  6
CONTINUOUS
 10
4.407040
 20
1.914440
  0
VERTEX
  8
0
  6
CONTINUOUS
 10
4.455440
 20
1.906520
  0
VERTEX
  8
0
  6
CONTINUOUS
 10
4.495480
 20
1.904320
  0
VERTEX
  8
0
  6
CONTINUOUS
 10
4.574680
 20
1.907840
  0
VERTEX
  8
0
  6
CONTINUOUS
 10
4.602400
 20
1.901680
  0
VERTEX
  8
0
  6
CONTINUOUS
 10
4.620880
 20
1.887160
  0
VERTEX
  8
0
  6
CONTINUOUS
 10
4.630560
 20
1.865160
  0
VERTEX
  8
0
  6
CONTINUOUS
 10
4.633200
 20
1.836120
  0
VERTEX
  8
0
  6
CONTINUOUS
 10
5.980920
 20
1.836120
  0
VERTEX
  8
0
  6
CONTINUOUS
 10
5.997640
 20
1.722160
  0
VERTEX
  8
0
  6
CONTINUOUS
 10
6.017440
 20
1.722160
  0
VERTEX
  8
0
  6
CONTINUOUS
 10
6.041200
 20
1.767040
  0
VERTEX
  8
0
  6
CONTINUOUS
 10
6.068480
 20
1.799600
  0
VERTEX
  8
0
  6
CONTINUOUS
 10
6.098400
 20
1.820720
  0
VERTEX
  8
0
  6
CONTINUOUS
 10
6.129200
 20
1.832160
  0
VERTEX
  8
0
  6
CONTINUOUS
 10
6.160000
 20
1.834360
  0
VERTEX
  8
0
  6
CONTINUOUS
 10
6.189920
 20
1.828200
  0
VERTEX
  8
0
  6
CONTINUOUS
 10
6.217640
 20
1.814560
  0
VERTEX
  8
0
  6
CONTINUOUS
 10
6.242280
 20
1.795200
  0
VERTEX
  8
0
  6
CONTINUOUS
 10
6.262520
 20
1.770120
  0
VERTEX
  8
0
  6
CONTINUOUS
 10
6.277480
 20
1.740640
  0
VERTEX
  8
0
  6
CONTINUOUS
 10
6.285840
 20
1.708080
  0
VERTEX
  8
0
  6
CONTINUOUS
 10
6.287160
 20
1.672880
  0
VERTEX
  8
0
  6
CONTINUOUS
 10
6.279240
 20
1.636360
  0
VERTEX
  8
0
  6
CONTINUOUS
 10
6.261640
 20
1.599400
  0
VERTEX
  8
0
  6
CONTINUOUS
 10
6.233480
 20
1.563320
  0
VERTEX
  8
0
  6
CONTINUOUS
 10
6.193440
 20
1.528120
  0
VERTEX
  8
0
  6
CONTINUOUS
 10
6.309160
 20
1.528120
  0
VERTEX
  8
0
  6
CONTINUOUS
 10
6.309160
 20
1.266320
  0
VERTEX
  8
0
  6
CONTINUOUS
 10
3.036440
 20
1.266320
  0
VERTEX
  8
0
  6
CONTINUOUS
 10
3.036440
 20
2.090000
  0
VERTEX
  8
0
  6
CONTINUOUS
 10
3.806440
 20
2.090000
  0
VERTEX
  8
0
  6
CONTINUOUS
 10
3.812600
 20
1.987480
  0
VERTEX
  8
0
  6
CONTINUOUS
 10
3.828000
 20
1.989680
  0
SEQEND
  8
0
  0
TEXT
  8
0
 10
4.380640
 20
1.023000
 40
0.138182
  1
BA  985
 41
1.000000
  7
SN0
 71
     0
 72
     5
 11
4.971507
 21
1.023000
  0
TEXT
  8
0
 10
4.132480
 20
0.831600
 40
0.138182
  1
13/16" x 3-1/4"
 41
1.000000
  7
SN0
 71
     0
 72
     5
 11
5.218534
 21
0.831600
  0
POLYLINE
  8
0
  6
CONTINUOUS
 66
     1
 40
0.014080
 41
0.014080
  0
VERTEX
  8
0
  6
CONTINUOUS
 10
3.756720
 20
3.909840
  0
VERTEX
  8
0
  6
CONTINUOUS
 10
3.779160
 20
3.936680
  0
VERTEX
  8
0
  6
CONTINUOUS
 10
3.792800
 20
3.949440
  0
VERTEX
  8
0
  6
CONTINUOUS
 10
3.807320
 20
3.960440
  0
VERTEX
  8
0
  6
CONTINUOUS
 10
3.824040
 20
3.970560
  0
VERTEX
  8
0
  6
CONTINUOUS
 10
3.851760
 20
3.982440
  0
VERTEX
  8
0
  6
CONTINUOUS
 10
3.883440
 20
3.989920
  0
VERTEX
  8
0
  6
CONTINUOUS
 10
3.907200
 20
3.991680
  0
VERTEX
  8
0
  6
CONTINUOUS
 10
3.932720
 20
3.991240
  0
VERTEX
  8
0
  6
CONTINUOUS
 10
3.960440
 20
3.987720
  0
VERTEX
  8
0
  6
CONTINUOUS
 10
4.006640
 20
3.976280
  0
VERTEX
  8
0
  6
CONTINUOUS
 10
4.040080
 20
3.964840
  0
VERTEX
  8
0
  6
CONTINUOUS
 10
4.095080
 20
3.939760
  0
VERTEX
  8
0
  6
CONTINUOUS
 10
4.194080
 20
3.886960
  0
VERTEX
  8
0
  6
CONTINUOUS
 10
4.246880
 20
3.863200
  0
VERTEX
  8
0
  6
CONTINUOUS
 10
4.293960
 20
3.846040
  0
VERTEX
  8
0
  6
CONTINUOUS
 10
4.335760
 20
3.835040
  0
VERTEX
  8
0
  6
CONTINUOUS
 10
4.384160
 20
3.827120
  0
VERTEX
  8
0
  6
CONTINUOUS
 10
4.424200
 20
3.824920
  0
VERTEX
  8
0
  6
CONTINUOUS
 10
4.503400
 20
3.828440
  0
VERTEX
  8
0
  6
CONTINUOUS
 10
4.525400
 20
3.824480
  0
VERTEX
  8
0
  6
CONTINUOUS
 10
4.541680
 20
3.816120
  0
VERTEX
  8
0
  6
CONTINUOUS
 10
4.552680
 20
3.802920
  0
VERTEX
  8
0
  6
CONTINUOUS
 10
4.559280
 20
3.785760
  0
VERTEX
  8
0
  6
CONTINUOUS
 10
4.561480
 20
3.772120
  0
VERTEX
  8
0
  6
CONTINUOUS
 10
4.561920
 20
3.756720
  0
VERTEX
  8
0
  6
CONTINUOUS
 10
5.909640
 20
3.756720
  0
VERTEX
  8
0
  6
CONTINUOUS
 10
5.926360
 20
3.642760
  0
VERTEX
  8
0
  6
CONTINUOUS
 10
5.946160
 20
3.642760
  0
VERTEX
  8
0
  6
CONTINUOUS
 10
5.963760
 20
3.677520
  0
VERTEX
  8
0
  6
CONTINUOUS
 10
5.983560
 20
3.705240
  0
VERTEX
  8
0
  6
CONTINUOUS
 10
6.004680
 20
3.726360
  0
VERTEX
  8
0
  6
CONTINUOUS
 10
6.027120
 20
3.741320
  0
VERTEX
  8
0
  6
CONTINUOUS
 10
6.042520
 20
3.748360
  0
VERTEX
  8
0
  6
CONTINUOUS
 10
6.057920
 20
3.752760
  0
VERTEX
  8
0
  6
CONTINUOUS
 10
6.073320
 20
3.754960
  0
VERTEX
  8
0
  6
CONTINUOUS
 10
6.088720
 20
3.754960
  0
VERTEX
  8
0
  6
CONTINUOUS
 10
6.104120
 20
3.752760
  0
VERTEX
  8
0
  6
CONTINUOUS
 10
6.118640
 20
3.748800
  0
VERTEX
  8
0
  6
CONTINUOUS
 10
6.133160
 20
3.742640
  0
VERTEX
  8
0
  6
CONTINUOUS
 10
6.159120
 20
3.725920
  0
VERTEX
  8
0
  6
CONTINUOUS
 10
6.182000
 20
3.703480
  0
VERTEX
  8
0
  6
CONTINUOUS
 10
6.199600
 20
3.676200
  0
VERTEX
  8
0
  6
CONTINUOUS
 10
6.211480
 20
3.645400
  0
VERTEX
  8
0
  6
CONTINUOUS
 10
6.215000
 20
3.628680
  0
VERTEX
  8
0
  6
CONTINUOUS
 10
6.216320
 20
3.611080
  0
VERTEX
  8
0
  6
CONTINUOUS
 10
6.215880
 20
3.593480
  0
VERTEX
  8
0
  6
CONTINUOUS
 10
6.213240
 20
3.575440
  0
VERTEX
  8
0
  6
CONTINUOUS
 10
6.207960
 20
3.556960
  0
VERTEX
  8
0
  6
CONTINUOUS
 10
6.196080
 20
3.529240
  0
VERTEX
  8
0
  6
CONTINUOUS
 10
6.178040
 20
3.501520
  0
VERTEX
  8
0
  6
CONTINUOUS
 10
6.153400
 20
3.474680
  0
VERTEX
  8
0
  6
CONTINUOUS
 10
6.122160
 20
3.448720
  0
VERTEX
  8
0
  6
CONTINUOUS
 10
6.237880
 20
3.448720
  0
VERTEX
  8
0
  6
CONTINUOUS
 10
6.237880
 20
3.186920
  0
VERTEX
  8
0
  6
CONTINUOUS
 10
2.965600
 20
3.186920
  0
VERTEX
  8
0
  6
CONTINUOUS
 10
2.965600
 20
4.010600
  0
VERTEX
  8
0
  6
CONTINUOUS
 10
3.735160
 20
4.010600
  0
VERTEX
  8
0
  6
CONTINUOUS
 10
3.741320
 20
3.908080
  0
VERTEX
  8
0
  6
CONTINUOUS
 10
3.756720
 20
3.909840
  0
SEQEND
  8
0
  0
TEXT
  8
0
 10
4.306720
 20
3.470720
 40
0.138182
  1
BA  985
 41
1.000000
  7
SN0
 71
     0
 72
     5
 11
4.897587
 21
3.470720
  0
TEXT
  8
0
 10
4.058560
 20
3.279320
 40
0.138182
  1
13/16" x 3-1/4"
 41
1.000000
  7
SN0
 71
     0
 72
     5
 11
5.144614
 21
3.279320
  0
ENDSEC
  0
EOF
