  0
SECTION
  2
HEADER
  9
$ACADVER
  1
AC1006
  9
$EXTMIN
 10
2.285800
 20
0.660440
  9
$EXTMAX
 10
6.523880
 20
3.677520
  9
$LTSCALE
 40
0.044000
  9
$PDMODE
 70
    35
  9
$PDSIZE
 40
0.035200
  0
ENDSEC
  0
SECTION
  2
TABLES
  0
TABLE
  2
LTYPE
 70
     9
  0
LTYPE
  2
CONTINUOUS
 70
    64
  3
Solid line
 72
    65
 73
     0
 40
0.000000
  0
LTYPE
  2
DASHED
 70
    64
  3
__ __ __ __ __ __ __ __ __ __ __ __ __ __ __
 72
    65
 73
     2
 40
0.000330
 49
0.000220
 49
-0.000110
  0
LTYPE
  2
HIDDEN
 70
    64
  3
 _ _ _ _ _ _ _ _ _ _ _ _ _ _ _ _ _ _ _ _ _ _
 72
    65
 73
     2
 40
0.000165
 49
0.000110
 49
-0.000055
  0
LTYPE
  2
CENTER
 70
    64
  3
____ _ ____ _ ____ _ ____ _ ____ _ ____ _ ____
 72
    65
 73
     4
 40
0.000880
 49
0.000550
 49
-0.000110
 49
0.000110
 49
-0.000110
  0
LTYPE
  2
PHANTOM
 70
    64
  3
_____ _ _ _____ _ _ _____ _ _ _____ _ _ ____
 72
    65
 73
     6
 40
0.001100
 49
0.000550
 49
-0.000110
 49
0.000110
 49
-0.000110
 49
0.000110
 49
-0.000110
  0
LTYPE
  2
DOT
 70
    64
  3
...............................................
 72
    65
 73
     2
 40
0.000110
 49
0.000000
 49
-0.000110
  0
LTYPE
  2
DASHDOT
 70
    64
  3
__ . __ . __ . __ . __ . __ . __ . __ . __ . __
 72
    65
 73
     4
 40
0.000440
 49
0.000220
 49
-0.000110
 49
0.000000
 49
-0.000110
  0
LTYPE
  2
BORDER
 70
    64
  3
__ __ . __ __ . __ __ . __ __ . __ __ . __ __
 72
    65
 73
     6
 40
0.000770
 49
0.000220
 49
-0.000110
 49
0.000220
 49
-0.000110
 49
0.000000
 49
-0.000110
  0
LTYPE
  2
DIVIDE
 70
    64
  3
__ . . __ . . __ . . __ . . __ . . __ . . __
 72
    65
 73
     6
 40
0.000550
 49
0.000220
 49
-0.000110
 49
0.000000
 49
-0.000110
 49
0.000000
 49
-0.000110
  0
LTYPE
  2
DOTDOT
 70
    64
  3
 . .  . .  . .  . .  . .  . . 
 72
    65
 73
     5
 40
0.000242
 49
-0.000110
 49
0.000000
 49
-0.000110
 49
0.000000
 49
-0.000110
  0
ENDTAB
  0
TABLE
  2
STYLE
 70
     2
  0
STYLE
 70
     0
  2
SN0
 40
0.000000
 41
0.000440
 50
0.000000
 71
     0
 42
0.000000
  3
ROMAND
  0
STYLE
 70
    68
  2
SV0
 40
0.000000
 41
0.000440
 50
0.000000
 71
     0
 42
0.000000
  3
ROMAND
  0
ENDTAB
  0
TABLE
  2
LAYER
 70
     3
  0
LAYER
  2
FOREGROUND
 70
    64
 62
     7
  6
CONTINUOUS
  0
LAYER
  2
BACKGROUND
 70
    65
 62
    -7
  6
CONTINUOUS
  0
LAYER
  2
0
 70
    64
 62
     7
  6
CONTINUOUS
  0
ENDTAB
  0
ENDSEC
  0
SECTION
  2
ENTITIES
  0
POLYLINE
  8
FOREGROUND
  6
CONTINUOUS
 66
     1
 40
0.000000
 41
0.000000
  0
VERTEX
  8
FOREGROUND
  6
CONTINUOUS
 10
0.000000
 20
4.337960
  0
VERTEX
  8
FOREGROUND
  6
CONTINUOUS
 10
8.499920
 20
4.337960
  0
VERTEX
  8
FOREGROUND
  6
CONTINUOUS
 10
8.499920
 20
-6.662040
  0
VERTEX
  8
FOREGROUND
  6
CONTINUOUS
 10
0.000000
 20
-6.662040
  0
VERTEX
  8
FOREGROUND
  6
CONTINUOUS
 10
0.000000
 20
4.337960
  0
SEQEND
  8
0
  0
POLYLINE
  8
FOREGROUND
  6
CONTINUOUS
 66
     1
 40
0.000000
 41
0.000000
  0
VERTEX
  8
FOREGROUND
  6
CONTINUOUS
 10
0.000000
 20
4.337960
  0
VERTEX
  8
FOREGROUND
  6
CONTINUOUS
 10
8.499920
 20
4.337960
  0
VERTEX
  8
FOREGROUND
  6
CONTINUOUS
 10
8.499920
 20
-6.662040
  0
VERTEX
  8
FOREGROUND
  6
CONTINUOUS
 10
0.000000
 20
-6.662040
  0
VERTEX
  8
FOREGROUND
  6
CONTINUOUS
 10
0.000000
 20
4.337960
  0
SEQEND
  8
0
  0
TEXT
  8
0
 10
4.107400
 20
0.895840
 40
0.138113
  1
BA  982
 41
1.000000
  7
SN0
 71
     0
 72
     5
 11
4.697129
 21
0.895840
  0
TEXT
  8
0
 10
3.905440
 20
0.704000
 40
0.138113
  1
3/4" x 4-3/16" 
 41
1.000000
  7
SN0
 71
     0
 72
     5
 11
4.942922
 21
0.704000
  0
SOLID
  8
0
 62
    15
 10
4.394720
 20
1.743720
 11
4.398680
 21
2.491720
 12
4.425960
 22
1.741080
 13
4.429920
 23
2.489080
  0
POLYLINE
  8
0
  6
CONTINUOUS
 66
     1
 40
0.000000
 41
0.000000
  0
VERTEX
  8
0
  6
CONTINUOUS
 10
4.394720
 20
1.743720
  0
VERTEX
  8
0
  6
CONTINUOUS
 10
4.398680
 20
2.491720
  0
VERTEX
  8
0
  6
CONTINUOUS
 10
4.429920
 20
2.489080
  0
VERTEX
  8
0
  6
CONTINUOUS
 10
4.425960
 20
1.741080
  0
VERTEX
  8
0
  6
CONTINUOUS
 10
4.394720
 20
1.743720
  0
SEQEND
  8
0
  0
SOLID
  8
0
 62
    15
 10
2.335080
 20
1.872200
 11
2.339040
 21
2.620640
 12
2.992000
 22
1.872200
 13
2.995960
 23
2.620640
  0
POLYLINE
  8
0
  6
CONTINUOUS
 66
     1
 40
0.000000
 41
0.000000
  0
VERTEX
  8
0
  6
CONTINUOUS
 10
2.335080
 20
1.872200
  0
VERTEX
  8
0
  6
CONTINUOUS
 10
2.339040
 20
2.620640
  0
VERTEX
  8
0
  6
CONTINUOUS
 10
2.995960
 20
2.620640
  0
VERTEX
  8
0
  6
CONTINUOUS
 10
2.992000
 20
1.872200
  0
VERTEX
  8
0
  6
CONTINUOUS
 10
2.335080
 20
1.872200
  0
SEQEND
  8
0
  0
SOLID
  8
0
 62
    15
 10
2.992000
 20
1.872200
 11
2.995960
 21
2.620640
 12
3.005200
 22
1.845800
 13
3.008720
 23
2.593800
  0
POLYLINE
  8
0
  6
CONTINUOUS
 66
     1
 40
0.000000
 41
0.000000
  0
VERTEX
  8
0
  6
CONTINUOUS
 10
2.992000
 20
1.872200
  0
VERTEX
  8
0
  6
CONTINUOUS
 10
2.995960
 20
2.620640
  0
VERTEX
  8
0
  6
CONTINUOUS
 10
3.008720
 20
2.593800
  0
VERTEX
  8
0
  6
CONTINUOUS
 10
3.005200
 20
1.845800
  0
VERTEX
  8
0
  6
CONTINUOUS
 10
2.992000
 20
1.872200
  0
SEQEND
  8
0
  0
SOLID
  8
0
 62
    15
 10
3.005200
 20
1.845800
 11
3.008720
 21
2.593800
 12
3.021920
 22
1.820720
 13
3.025880
 23
2.569160
  0
POLYLINE
  8
0
  6
CONTINUOUS
 66
     1
 40
0.000000
 41
0.000000
  0
VERTEX
  8
0
  6
CONTINUOUS
 10
3.005200
 20
1.845800
  0
VERTEX
  8
0
  6
CONTINUOUS
 10
3.008720
 20
2.593800
  0
VERTEX
  8
0
  6
CONTINUOUS
 10
3.025880
 20
2.569160
  0
VERTEX
  8
0
  6
CONTINUOUS
 10
3.021920
 20
1.820720
  0
VERTEX
  8
0
  6
CONTINUOUS
 10
3.005200
 20
1.845800
  0
SEQEND
  8
0
  0
SOLID
  8
0
 62
    15
 10
3.021920
 20
1.820720
 11
3.025880
 21
2.569160
 12
3.042160
 22
1.798720
 13
3.046120
 23
2.546720
  0
POLYLINE
  8
0
  6
CONTINUOUS
 66
     1
 40
0.000000
 41
0.000000
  0
VERTEX
  8
0
  6
CONTINUOUS
 10
3.021920
 20
1.820720
  0
VERTEX
  8
0
  6
CONTINUOUS
 10
3.025880
 20
2.569160
  0
VERTEX
  8
0
  6
CONTINUOUS
 10
3.046120
 20
2.546720
  0
VERTEX
  8
0
  6
CONTINUOUS
 10
3.042160
 20
1.798720
  0
VERTEX
  8
0
  6
CONTINUOUS
 10
3.021920
 20
1.820720
  0
SEQEND
  8
0
  0
SOLID
  8
0
 62
    15
 10
3.042160
 20
1.798720
 11
3.046120
 21
2.546720
 12
3.065040
 22
1.779360
 13
3.069000
 23
2.527360
  0
POLYLINE
  8
0
  6
CONTINUOUS
 66
     1
 40
0.000000
 41
0.000000
  0
VERTEX
  8
0
  6
CONTINUOUS
 10
3.042160
 20
1.798720
  0
VERTEX
  8
0
  6
CONTINUOUS
 10
3.046120
 20
2.546720
  0
VERTEX
  8
0
  6
CONTINUOUS
 10
3.069000
 20
2.527360
  0
VERTEX
  8
0
  6
CONTINUOUS
 10
3.065040
 20
1.779360
  0
VERTEX
  8
0
  6
CONTINUOUS
 10
3.042160
 20
1.798720
  0
SEQEND
  8
0
  0
SOLID
  8
0
 62
    15
 10
3.065040
 20
1.779360
 11
3.069000
 21
2.527360
 12
3.091000
 22
1.763520
 13
3.094520
 23
2.511520
  0
POLYLINE
  8
0
  6
CONTINUOUS
 66
     1
 40
0.000000
 41
0.000000
  0
VERTEX
  8
0
  6
CONTINUOUS
 10
3.065040
 20
1.779360
  0
VERTEX
  8
0
  6
CONTINUOUS
 10
3.069000
 20
2.527360
  0
VERTEX
  8
0
  6
CONTINUOUS
 10
3.094520
 20
2.511520
  0
VERTEX
  8
0
  6
CONTINUOUS
 10
3.091000
 20
1.763520
  0
VERTEX
  8
0
  6
CONTINUOUS
 10
3.065040
 20
1.779360
  0
SEQEND
  8
0
  0
SOLID
  8
0
 62
    15
 10
3.091000
 20
1.763520
 11
3.094520
 21
2.511520
 12
3.118720
 22
1.751640
 13
3.122240
 23
2.500080
  0
POLYLINE
  8
0
  6
CONTINUOUS
 66
     1
 40
0.000000
 41
0.000000
  0
VERTEX
  8
0
  6
CONTINUOUS
 10
3.091000
 20
1.763520
  0
VERTEX
  8
0
  6
CONTINUOUS
 10
3.094520
 20
2.511520
  0
VERTEX
  8
0
  6
CONTINUOUS
 10
3.122240
 20
2.500080
  0
VERTEX
  8
0
  6
CONTINUOUS
 10
3.118720
 20
1.751640
  0
VERTEX
  8
0
  6
CONTINUOUS
 10
3.091000
 20
1.763520
  0
SEQEND
  8
0
  0
SOLID
  8
0
 62
    15
 10
3.118720
 20
1.751640
 11
3.122240
 21
2.500080
 12
3.147760
 22
1.744160
 13
3.151720
 23
2.492600
  0
POLYLINE
  8
0
  6
CONTINUOUS
 66
     1
 40
0.000000
 41
0.000000
  0
VERTEX
  8
0
  6
CONTINUOUS
 10
3.118720
 20
1.751640
  0
VERTEX
  8
0
  6
CONTINUOUS
 10
3.122240
 20
2.500080
  0
VERTEX
  8
0
  6
CONTINUOUS
 10
3.151720
 20
2.492600
  0
VERTEX
  8
0
  6
CONTINUOUS
 10
3.147760
 20
1.744160
  0
VERTEX
  8
0
  6
CONTINUOUS
 10
3.118720
 20
1.751640
  0
SEQEND
  8
0
  0
SOLID
  8
0
 62
    15
 10
3.147760
 20
1.744160
 11
3.151720
 21
2.492600
 12
3.178560
 22
1.741520
 13
3.182520
 23
2.489960
  0
POLYLINE
  8
0
  6
CONTINUOUS
 66
     1
 40
0.000000
 41
0.000000
  0
VERTEX
  8
0
  6
CONTINUOUS
 10
3.147760
 20
1.744160
  0
VERTEX
  8
0
  6
CONTINUOUS
 10
3.151720
 20
2.492600
  0
VERTEX
  8
0
  6
CONTINUOUS
 10
3.182520
 20
2.489960
  0
VERTEX
  8
0
  6
CONTINUOUS
 10
3.178560
 20
1.741520
  0
VERTEX
  8
0
  6
CONTINUOUS
 10
3.147760
 20
1.744160
  0
SEQEND
  8
0
  0
SOLID
  8
0
 62
    15
 10
3.178560
 20
1.741520
 11
3.182520
 21
2.489960
 12
3.209800
 22
1.744160
 13
3.213760
 23
2.492160
  0
POLYLINE
  8
0
  6
CONTINUOUS
 66
     1
 40
0.000000
 41
0.000000
  0
VERTEX
  8
0
  6
CONTINUOUS
 10
3.178560
 20
1.741520
  0
VERTEX
  8
0
  6
CONTINUOUS
 10
3.182520
 20
2.489960
  0
VERTEX
  8
0
  6
CONTINUOUS
 10
3.213760
 20
2.492160
  0
VERTEX
  8
0
  6
CONTINUOUS
 10
3.209800
 20
1.744160
  0
VERTEX
  8
0
  6
CONTINUOUS
 10
3.178560
 20
1.741520
  0
SEQEND
  8
0
  0
SOLID
  8
0
 62
    15
 10
3.209800
 20
1.744160
 11
3.213760
 21
2.492160
 12
3.239720
 22
1.751640
 13
3.243680
 23
2.499640
  0
POLYLINE
  8
0
  6
CONTINUOUS
 66
     1
 40
0.000000
 41
0.000000
  0
VERTEX
  8
0
  6
CONTINUOUS
 10
3.209800
 20
1.744160
  0
VERTEX
  8
0
  6
CONTINUOUS
 10
3.213760
 20
2.492160
  0
VERTEX
  8
0
  6
CONTINUOUS
 10
3.243680
 20
2.499640
  0
VERTEX
  8
0
  6
CONTINUOUS
 10
3.239720
 20
1.751640
  0
VERTEX
  8
0
  6
CONTINUOUS
 10
3.209800
 20
1.744160
  0
SEQEND
  8
0
  0
SOLID
  8
0
 62
    15
 10
3.239720
 20
1.751640
 11
3.243680
 21
2.499640
 12
3.267880
 22
1.763520
 13
3.271400
 23
2.511520
  0
POLYLINE
  8
0
  6
CONTINUOUS
 66
     1
 40
0.000000
 41
0.000000
  0
VERTEX
  8
0
  6
CONTINUOUS
 10
3.239720
 20
1.751640
  0
VERTEX
  8
0
  6
CONTINUOUS
 10
3.243680
 20
2.499640
  0
VERTEX
  8
0
  6
CONTINUOUS
 10
3.271400
 20
2.511520
  0
VERTEX
  8
0
  6
CONTINUOUS
 10
3.267880
 20
1.763520
  0
VERTEX
  8
0
  6
CONTINUOUS
 10
3.239720
 20
1.751640
  0
SEQEND
  8
0
  0
SOLID
  8
0
 62
    15
 10
3.267880
 20
1.763520
 11
3.271400
 21
2.511520
 12
3.293400
 22
1.778920
 13
3.297360
 23
2.526920
  0
POLYLINE
  8
0
  6
CONTINUOUS
 66
     1
 40
0.000000
 41
0.000000
  0
VERTEX
  8
0
  6
CONTINUOUS
 10
3.267880
 20
1.763520
  0
VERTEX
  8
0
  6
CONTINUOUS
 10
3.271400
 20
2.511520
  0
VERTEX
  8
0
  6
CONTINUOUS
 10
3.297360
 20
2.526920
  0
VERTEX
  8
0
  6
CONTINUOUS
 10
3.293400
 20
1.778920
  0
VERTEX
  8
0
  6
CONTINUOUS
 10
3.267880
 20
1.763520
  0
SEQEND
  8
0
  0
SOLID
  8
0
 62
    15
 10
3.293400
 20
1.778920
 11
3.297360
 21
2.526920
 12
3.316280
 22
1.798280
 13
3.320240
 23
2.546280
  0
POLYLINE
  8
0
  6
CONTINUOUS
 66
     1
 40
0.000000
 41
0.000000
  0
VERTEX
  8
0
  6
CONTINUOUS
 10
3.293400
 20
1.778920
  0
VERTEX
  8
0
  6
CONTINUOUS
 10
3.297360
 20
2.526920
  0
VERTEX
  8
0
  6
CONTINUOUS
 10
3.320240
 20
2.546280
  0
VERTEX
  8
0
  6
CONTINUOUS
 10
3.316280
 20
1.798280
  0
VERTEX
  8
0
  6
CONTINUOUS
 10
3.293400
 20
1.778920
  0
SEQEND
  8
0
  0
SOLID
  8
0
 62
    15
 10
3.316280
 20
1.798280
 11
3.320240
 21
2.546280
 12
3.336520
 22
1.820280
 13
3.340040
 23
2.568280
  0
POLYLINE
  8
0
  6
CONTINUOUS
 66
     1
 40
0.000000
 41
0.000000
  0
VERTEX
  8
0
  6
CONTINUOUS
 10
3.316280
 20
1.798280
  0
VERTEX
  8
0
  6
CONTINUOUS
 10
3.320240
 20
2.546280
  0
VERTEX
  8
0
  6
CONTINUOUS
 10
3.340040
 20
2.568280
  0
VERTEX
  8
0
  6
CONTINUOUS
 10
3.336520
 20
1.820280
  0
VERTEX
  8
0
  6
CONTINUOUS
 10
3.316280
 20
1.798280
  0
SEQEND
  8
0
  0
SOLID
  8
0
 62
    15
 10
3.336520
 20
1.820280
 11
3.340040
 21
2.568280
 12
3.352800
 22
1.845360
 13
3.356760
 23
2.593360
  0
POLYLINE
  8
0
  6
CONTINUOUS
 66
     1
 40
0.000000
 41
0.000000
  0
VERTEX
  8
0
  6
CONTINUOUS
 10
3.336520
 20
1.820280
  0
VERTEX
  8
0
  6
CONTINUOUS
 10
3.340040
 20
2.568280
  0
VERTEX
  8
0
  6
CONTINUOUS
 10
3.356760
 20
2.593360
  0
VERTEX
  8
0
  6
CONTINUOUS
 10
3.352800
 20
1.845360
  0
VERTEX
  8
0
  6
CONTINUOUS
 10
3.336520
 20
1.820280
  0
SEQEND
  8
0
  0
SOLID
  8
0
 62
    15
 10
3.352800
 20
1.845360
 11
3.356760
 21
2.593360
 12
3.365560
 22
1.872200
 13
3.369520
 23
2.620200
  0
POLYLINE
  8
0
  6
CONTINUOUS
 66
     1
 40
0.000000
 41
0.000000
  0
VERTEX
  8
0
  6
CONTINUOUS
 10
3.352800
 20
1.845360
  0
VERTEX
  8
0
  6
CONTINUOUS
 10
3.356760
 20
2.593360
  0
VERTEX
  8
0
  6
CONTINUOUS
 10
3.369520
 20
2.620200
  0
VERTEX
  8
0
  6
CONTINUOUS
 10
3.365560
 20
1.872200
  0
VERTEX
  8
0
  6
CONTINUOUS
 10
3.352800
 20
1.845360
  0
SEQEND
  8
0
  0
SOLID
  8
0
 62
    15
 10
3.365560
 20
1.872200
 11
3.369520
 21
2.620200
 12
3.615480
 22
1.872200
 13
3.619440
 23
2.620200
  0
POLYLINE
  8
0
  6
CONTINUOUS
 66
     1
 40
0.000000
 41
0.000000
  0
VERTEX
  8
0
  6
CONTINUOUS
 10
3.365560
 20
1.872200
  0
VERTEX
  8
0
  6
CONTINUOUS
 10
3.369520
 20
2.620200
  0
VERTEX
  8
0
  6
CONTINUOUS
 10
3.619440
 20
2.620200
  0
VERTEX
  8
0
  6
CONTINUOUS
 10
3.615480
 20
1.872200
  0
VERTEX
  8
0
  6
CONTINUOUS
 10
3.365560
 20
1.872200
  0
SEQEND
  8
0
  0
SOLID
  8
0
 62
    15
 10
3.615480
 20
1.872200
 11
3.619440
 21
2.620200
 12
3.628680
 22
1.845360
 13
3.632200
 23
2.593360
  0
POLYLINE
  8
0
  6
CONTINUOUS
 66
     1
 40
0.000000
 41
0.000000
  0
VERTEX
  8
0
  6
CONTINUOUS
 10
3.615480
 20
1.872200
  0
VERTEX
  8
0
  6
CONTINUOUS
 10
3.619440
 20
2.620200
  0
VERTEX
  8
0
  6
CONTINUOUS
 10
3.632200
 20
2.593360
  0
VERTEX
  8
0
  6
CONTINUOUS
 10
3.628680
 20
1.845360
  0
VERTEX
  8
0
  6
CONTINUOUS
 10
3.615480
 20
1.872200
  0
SEQEND
  8
0
  0
SOLID
  8
0
 62
    15
 10
3.628680
 20
1.845360
 11
3.632200
 21
2.593360
 12
3.645400
 22
1.820720
 13
3.649360
 23
2.568720
  0
POLYLINE
  8
0
  6
CONTINUOUS
 66
     1
 40
0.000000
 41
0.000000
  0
VERTEX
  8
0
  6
CONTINUOUS
 10
3.628680
 20
1.845360
  0
VERTEX
  8
0
  6
CONTINUOUS
 10
3.632200
 20
2.593360
  0
VERTEX
  8
0
  6
CONTINUOUS
 10
3.649360
 20
2.568720
  0
VERTEX
  8
0
  6
CONTINUOUS
 10
3.645400
 20
1.820720
  0
VERTEX
  8
0
  6
CONTINUOUS
 10
3.628680
 20
1.845360
  0
SEQEND
  8
0
  0
SOLID
  8
0
 62
    15
 10
3.645400
 20
1.820720
 11
3.649360
 21
2.568720
 12
3.665640
 22
1.798720
 13
3.669600
 23
2.546720
  0
POLYLINE
  8
0
  6
CONTINUOUS
 66
     1
 40
0.000000
 41
0.000000
  0
VERTEX
  8
0
  6
CONTINUOUS
 10
3.645400
 20
1.820720
  0
VERTEX
  8
0
  6
CONTINUOUS
 10
3.649360
 20
2.568720
  0
VERTEX
  8
0
  6
CONTINUOUS
 10
3.669600
 20
2.546720
  0
VERTEX
  8
0
  6
CONTINUOUS
 10
3.665640
 20
1.798720
  0
VERTEX
  8
0
  6
CONTINUOUS
 10
3.645400
 20
1.820720
  0
SEQEND
  8
0
  0
SOLID
  8
0
 62
    15
 10
3.665640
 20
1.798720
 11
3.669600
 21
2.546720
 12
3.688960
 22
1.779360
 13
3.692480
 23
2.527360
  0
POLYLINE
  8
0
  6
CONTINUOUS
 66
     1
 40
0.000000
 41
0.000000
  0
VERTEX
  8
0
  6
CONTINUOUS
 10
3.665640
 20
1.798720
  0
VERTEX
  8
0
  6
CONTINUOUS
 10
3.669600
 20
2.546720
  0
VERTEX
  8
0
  6
CONTINUOUS
 10
3.692480
 20
2.527360
  0
VERTEX
  8
0
  6
CONTINUOUS
 10
3.688960
 20
1.779360
  0
VERTEX
  8
0
  6
CONTINUOUS
 10
3.665640
 20
1.798720
  0
SEQEND
  8
0
  0
SOLID
  8
0
 62
    15
 10
3.688960
 20
1.779360
 11
3.692480
 21
2.527360
 12
3.714480
 22
1.763520
 13
3.718000
 23
2.511520
  0
POLYLINE
  8
0
  6
CONTINUOUS
 66
     1
 40
0.000000
 41
0.000000
  0
VERTEX
  8
0
  6
CONTINUOUS
 10
3.688960
 20
1.779360
  0
VERTEX
  8
0
  6
CONTINUOUS
 10
3.692480
 20
2.527360
  0
VERTEX
  8
0
  6
CONTINUOUS
 10
3.718000
 20
2.511520
  0
VERTEX
  8
0
  6
CONTINUOUS
 10
3.714480
 20
1.763520
  0
VERTEX
  8
0
  6
CONTINUOUS
 10
3.688960
 20
1.779360
  0
SEQEND
  8
0
  0
SOLID
  8
0
 62
    15
 10
3.714480
 20
1.763520
 11
3.718000
 21
2.511520
 12
3.742200
 22
1.751640
 13
3.745720
 23
2.499640
  0
POLYLINE
  8
0
  6
CONTINUOUS
 66
     1
 40
0.000000
 41
0.000000
  0
VERTEX
  8
0
  6
CONTINUOUS
 10
3.714480
 20
1.763520
  0
VERTEX
  8
0
  6
CONTINUOUS
 10
3.718000
 20
2.511520
  0
VERTEX
  8
0
  6
CONTINUOUS
 10
3.745720
 20
2.499640
  0
VERTEX
  8
0
  6
CONTINUOUS
 10
3.742200
 20
1.751640
  0
VERTEX
  8
0
  6
CONTINUOUS
 10
3.714480
 20
1.763520
  0
SEQEND
  8
0
  0
SOLID
  8
0
 62
    15
 10
3.742200
 20
1.751640
 11
3.745720
 21
2.499640
 12
3.771240
 22
1.744160
 13
3.775200
 23
2.492160
  0
POLYLINE
  8
0
  6
CONTINUOUS
 66
     1
 40
0.000000
 41
0.000000
  0
VERTEX
  8
0
  6
CONTINUOUS
 10
3.742200
 20
1.751640
  0
VERTEX
  8
0
  6
CONTINUOUS
 10
3.745720
 20
2.499640
  0
VERTEX
  8
0
  6
CONTINUOUS
 10
3.775200
 20
2.492160
  0
VERTEX
  8
0
  6
CONTINUOUS
 10
3.771240
 20
1.744160
  0
VERTEX
  8
0
  6
CONTINUOUS
 10
3.742200
 20
1.751640
  0
SEQEND
  8
0
  0
SOLID
  8
0
 62
    15
 10
3.771240
 20
1.744160
 11
3.775200
 21
2.492160
 12
3.802040
 22
1.741520
 13
3.806000
 23
2.489520
  0
POLYLINE
  8
0
  6
CONTINUOUS
 66
     1
 40
0.000000
 41
0.000000
  0
VERTEX
  8
0
  6
CONTINUOUS
 10
3.771240
 20
1.744160
  0
VERTEX
  8
0
  6
CONTINUOUS
 10
3.775200
 20
2.492160
  0
VERTEX
  8
0
  6
CONTINUOUS
 10
3.806000
 20
2.489520
  0
VERTEX
  8
0
  6
CONTINUOUS
 10
3.802040
 20
1.741520
  0
VERTEX
  8
0
  6
CONTINUOUS
 10
3.771240
 20
1.744160
  0
SEQEND
  8
0
  0
SOLID
  8
0
 62
    15
 10
3.802040
 20
1.741520
 11
3.806000
 21
2.489520
 12
3.833280
 22
1.744160
 13
3.837240
 23
2.492160
  0
POLYLINE
  8
0
  6
CONTINUOUS
 66
     1
 40
0.000000
 41
0.000000
  0
VERTEX
  8
0
  6
CONTINUOUS
 10
3.802040
 20
1.741520
  0
VERTEX
  8
0
  6
CONTINUOUS
 10
3.806000
 20
2.489520
  0
VERTEX
  8
0
  6
CONTINUOUS
 10
3.837240
 20
2.492160
  0
VERTEX
  8
0
  6
CONTINUOUS
 10
3.833280
 20
1.744160
  0
VERTEX
  8
0
  6
CONTINUOUS
 10
3.802040
 20
1.741520
  0
SEQEND
  8
0
  0
SOLID
  8
0
 62
    15
 10
3.833280
 20
1.744160
 11
3.837240
 21
2.492160
 12
3.863200
 22
1.751640
 13
3.867160
 23
2.499640
  0
POLYLINE
  8
0
  6
CONTINUOUS
 66
     1
 40
0.000000
 41
0.000000
  0
VERTEX
  8
0
  6
CONTINUOUS
 10
3.833280
 20
1.744160
  0
VERTEX
  8
0
  6
CONTINUOUS
 10
3.837240
 20
2.492160
  0
VERTEX
  8
0
  6
CONTINUOUS
 10
3.867160
 20
2.499640
  0
VERTEX
  8
0
  6
CONTINUOUS
 10
3.863200
 20
1.751640
  0
VERTEX
  8
0
  6
CONTINUOUS
 10
3.833280
 20
1.744160
  0
SEQEND
  8
0
  0
SOLID
  8
0
 62
    15
 10
3.863200
 20
1.751640
 11
3.867160
 21
2.499640
 12
3.891360
 22
1.763080
 13
3.894880
 23
2.511520
  0
POLYLINE
  8
0
  6
CONTINUOUS
 66
     1
 40
0.000000
 41
0.000000
  0
VERTEX
  8
0
  6
CONTINUOUS
 10
3.863200
 20
1.751640
  0
VERTEX
  8
0
  6
CONTINUOUS
 10
3.867160
 20
2.499640
  0
VERTEX
  8
0
  6
CONTINUOUS
 10
3.894880
 20
2.511520
  0
VERTEX
  8
0
  6
CONTINUOUS
 10
3.891360
 20
1.763080
  0
VERTEX
  8
0
  6
CONTINUOUS
 10
3.863200
 20
1.751640
  0
SEQEND
  8
0
  0
SOLID
  8
0
 62
    15
 10
3.891360
 20
1.763080
 11
3.894880
 21
2.511520
 12
3.916880
 22
1.778920
 13
3.920840
 23
2.526920
  0
POLYLINE
  8
0
  6
CONTINUOUS
 66
     1
 40
0.000000
 41
0.000000
  0
VERTEX
  8
0
  6
CONTINUOUS
 10
3.891360
 20
1.763080
  0
VERTEX
  8
0
  6
CONTINUOUS
 10
3.894880
 20
2.511520
  0
VERTEX
  8
0
  6
CONTINUOUS
 10
3.920840
 20
2.526920
  0
VERTEX
  8
0
  6
CONTINUOUS
 10
3.916880
 20
1.778920
  0
VERTEX
  8
0
  6
CONTINUOUS
 10
3.891360
 20
1.763080
  0
SEQEND
  8
0
  0
SOLID
  8
0
 62
    15
 10
3.916880
 20
1.778920
 11
3.920840
 21
2.526920
 12
3.939760
 22
1.798280
 13
3.943720
 23
2.546280
  0
POLYLINE
  8
0
  6
CONTINUOUS
 66
     1
 40
0.000000
 41
0.000000
  0
VERTEX
  8
0
  6
CONTINUOUS
 10
3.916880
 20
1.778920
  0
VERTEX
  8
0
  6
CONTINUOUS
 10
3.920840
 20
2.526920
  0
VERTEX
  8
0
  6
CONTINUOUS
 10
3.943720
 20
2.546280
  0
VERTEX
  8
0
  6
CONTINUOUS
 10
3.939760
 20
1.798280
  0
VERTEX
  8
0
  6
CONTINUOUS
 10
3.916880
 20
1.778920
  0
SEQEND
  8
0
  0
SOLID
  8
0
 62
    15
 10
3.939760
 20
1.798280
 11
3.943720
 21
2.546280
 12
3.960000
 22
1.820280
 13
3.963520
 23
2.568280
  0
POLYLINE
  8
0
  6
CONTINUOUS
 66
     1
 40
0.000000
 41
0.000000
  0
VERTEX
  8
0
  6
CONTINUOUS
 10
3.939760
 20
1.798280
  0
VERTEX
  8
0
  6
CONTINUOUS
 10
3.943720
 20
2.546280
  0
VERTEX
  8
0
  6
CONTINUOUS
 10
3.963520
 20
2.568280
  0
VERTEX
  8
0
  6
CONTINUOUS
 10
3.960000
 20
1.820280
  0
VERTEX
  8
0
  6
CONTINUOUS
 10
3.939760
 20
1.798280
  0
SEQEND
  8
0
  0
SOLID
  8
0
 62
    15
 10
3.960000
 20
1.820280
 11
3.963520
 21
2.568280
 12
3.976280
 22
1.845360
 13
3.980240
 23
2.593360
  0
POLYLINE
  8
0
  6
CONTINUOUS
 66
     1
 40
0.000000
 41
0.000000
  0
VERTEX
  8
0
  6
CONTINUOUS
 10
3.960000
 20
1.820280
  0
VERTEX
  8
0
  6
CONTINUOUS
 10
3.963520
 20
2.568280
  0
VERTEX
  8
0
  6
CONTINUOUS
 10
3.980240
 20
2.593360
  0
VERTEX
  8
0
  6
CONTINUOUS
 10
3.976280
 20
1.845360
  0
VERTEX
  8
0
  6
CONTINUOUS
 10
3.960000
 20
1.820280
  0
SEQEND
  8
0
  0
SOLID
  8
0
 62
    15
 10
3.976280
 20
1.845360
 11
3.980240
 21
2.593360
 12
3.989040
 22
1.872200
 13
3.993000
 23
2.620200
  0
POLYLINE
  8
0
  6
CONTINUOUS
 66
     1
 40
0.000000
 41
0.000000
  0
VERTEX
  8
0
  6
CONTINUOUS
 10
3.976280
 20
1.845360
  0
VERTEX
  8
0
  6
CONTINUOUS
 10
3.980240
 20
2.593360
  0
VERTEX
  8
0
  6
CONTINUOUS
 10
3.993000
 20
2.620200
  0
VERTEX
  8
0
  6
CONTINUOUS
 10
3.989040
 20
1.872200
  0
VERTEX
  8
0
  6
CONTINUOUS
 10
3.976280
 20
1.845360
  0
SEQEND
  8
0
  0
SOLID
  8
0
 62
    15
 10
3.989040
 20
1.872200
 11
3.993000
 21
2.620200
 12
3.989480
 22
1.871760
 13
3.993440
 23
2.619760
  0
POLYLINE
  8
0
  6
CONTINUOUS
 66
     1
 40
0.000000
 41
0.000000
  0
VERTEX
  8
0
  6
CONTINUOUS
 10
3.989040
 20
1.872200
  0
VERTEX
  8
0
  6
CONTINUOUS
 10
3.993000
 20
2.620200
  0
VERTEX
  8
0
  6
CONTINUOUS
 10
3.993440
 20
2.619760
  0
VERTEX
  8
0
  6
CONTINUOUS
 10
3.989480
 20
1.871760
  0
VERTEX
  8
0
  6
CONTINUOUS
 10
3.989040
 20
1.872200
  0
SEQEND
  8
0
  0
SOLID
  8
0
 62
    15
 10
3.989480
 20
1.871760
 11
3.993440
 21
2.619760
 12
4.238960
 22
1.871760
 13
4.242920
 23
2.619760
  0
POLYLINE
  8
0
  6
CONTINUOUS
 66
     1
 40
0.000000
 41
0.000000
  0
VERTEX
  8
0
  6
CONTINUOUS
 10
3.989480
 20
1.871760
  0
VERTEX
  8
0
  6
CONTINUOUS
 10
3.993440
 20
2.619760
  0
VERTEX
  8
0
  6
CONTINUOUS
 10
4.242920
 20
2.619760
  0
VERTEX
  8
0
  6
CONTINUOUS
 10
4.238960
 20
1.871760
  0
VERTEX
  8
0
  6
CONTINUOUS
 10
3.989480
 20
1.871760
  0
SEQEND
  8
0
  0
SOLID
  8
0
 62
    15
 10
4.238960
 20
1.871760
 11
4.242920
 21
2.619760
 12
4.251720
 22
1.844920
 13
4.255680
 23
2.592920
  0
POLYLINE
  8
0
  6
CONTINUOUS
 66
     1
 40
0.000000
 41
0.000000
  0
VERTEX
  8
0
  6
CONTINUOUS
 10
4.238960
 20
1.871760
  0
VERTEX
  8
0
  6
CONTINUOUS
 10
4.242920
 20
2.619760
  0
VERTEX
  8
0
  6
CONTINUOUS
 10
4.255680
 20
2.592920
  0
VERTEX
  8
0
  6
CONTINUOUS
 10
4.251720
 20
1.844920
  0
VERTEX
  8
0
  6
CONTINUOUS
 10
4.238960
 20
1.871760
  0
SEQEND
  8
0
  0
SOLID
  8
0
 62
    15
 10
4.251720
 20
1.844920
 11
4.255680
 21
2.592920
 12
4.268440
 22
1.819840
 13
4.271960
 23
2.567840
  0
POLYLINE
  8
0
  6
CONTINUOUS
 66
     1
 40
0.000000
 41
0.000000
  0
VERTEX
  8
0
  6
CONTINUOUS
 10
4.251720
 20
1.844920
  0
VERTEX
  8
0
  6
CONTINUOUS
 10
4.255680
 20
2.592920
  0
VERTEX
  8
0
  6
CONTINUOUS
 10
4.271960
 20
2.567840
  0
VERTEX
  8
0
  6
CONTINUOUS
 10
4.268440
 20
1.819840
  0
VERTEX
  8
0
  6
CONTINUOUS
 10
4.251720
 20
1.844920
  0
SEQEND
  8
0
  0
SOLID
  8
0
 62
    15
 10
4.268440
 20
1.819840
 11
4.271960
 21
2.567840
 12
4.288240
 22
1.797400
 13
4.292200
 23
2.545840
  0
POLYLINE
  8
0
  6
CONTINUOUS
 66
     1
 40
0.000000
 41
0.000000
  0
VERTEX
  8
0
  6
CONTINUOUS
 10
4.268440
 20
1.819840
  0
VERTEX
  8
0
  6
CONTINUOUS
 10
4.271960
 20
2.567840
  0
VERTEX
  8
0
  6
CONTINUOUS
 10
4.292200
 20
2.545840
  0
VERTEX
  8
0
  6
CONTINUOUS
 10
4.288240
 20
1.797400
  0
VERTEX
  8
0
  6
CONTINUOUS
 10
4.268440
 20
1.819840
  0
SEQEND
  8
0
  0
SOLID
  8
0
 62
    15
 10
4.288240
 20
1.797400
 11
4.292200
 21
2.545840
 12
4.311120
 22
1.778480
 13
4.315080
 23
2.526480
  0
POLYLINE
  8
0
  6
CONTINUOUS
 66
     1
 40
0.000000
 41
0.000000
  0
VERTEX
  8
0
  6
CONTINUOUS
 10
4.288240
 20
1.797400
  0
VERTEX
  8
0
  6
CONTINUOUS
 10
4.292200
 20
2.545840
  0
VERTEX
  8
0
  6
CONTINUOUS
 10
4.315080
 20
2.526480
  0
VERTEX
  8
0
  6
CONTINUOUS
 10
4.311120
 20
1.778480
  0
VERTEX
  8
0
  6
CONTINUOUS
 10
4.288240
 20
1.797400
  0
SEQEND
  8
0
  0
SOLID
  8
0
 62
    15
 10
4.311120
 20
1.778480
 11
4.315080
 21
2.526480
 12
4.337080
 22
1.762640
 13
4.341040
 23
2.511080
  0
POLYLINE
  8
0
  6
CONTINUOUS
 66
     1
 40
0.000000
 41
0.000000
  0
VERTEX
  8
0
  6
CONTINUOUS
 10
4.311120
 20
1.778480
  0
VERTEX
  8
0
  6
CONTINUOUS
 10
4.315080
 20
2.526480
  0
VERTEX
  8
0
  6
CONTINUOUS
 10
4.341040
 20
2.511080
  0
VERTEX
  8
0
  6
CONTINUOUS
 10
4.337080
 20
1.762640
  0
VERTEX
  8
0
  6
CONTINUOUS
 10
4.311120
 20
1.778480
  0
SEQEND
  8
0
  0
SOLID
  8
0
 62
    15
 10
4.337080
 20
1.762640
 11
4.341040
 21
2.511080
 12
4.364800
 22
1.751200
 13
4.368760
 23
2.499200
  0
POLYLINE
  8
0
  6
CONTINUOUS
 66
     1
 40
0.000000
 41
0.000000
  0
VERTEX
  8
0
  6
CONTINUOUS
 10
4.337080
 20
1.762640
  0
VERTEX
  8
0
  6
CONTINUOUS
 10
4.341040
 20
2.511080
  0
VERTEX
  8
0
  6
CONTINUOUS
 10
4.368760
 20
2.499200
  0
VERTEX
  8
0
  6
CONTINUOUS
 10
4.364800
 20
1.751200
  0
VERTEX
  8
0
  6
CONTINUOUS
 10
4.337080
 20
1.762640
  0
SEQEND
  8
0
  0
SOLID
  8
0
 62
    15
 10
4.364800
 20
1.751200
 11
4.368760
 21
2.499200
 12
4.394720
 22
1.743720
 13
4.398680
 23
2.491720
  0
POLYLINE
  8
0
  6
CONTINUOUS
 66
     1
 40
0.000000
 41
0.000000
  0
VERTEX
  8
0
  6
CONTINUOUS
 10
4.364800
 20
1.751200
  0
VERTEX
  8
0
  6
CONTINUOUS
 10
4.368760
 20
2.499200
  0
VERTEX
  8
0
  6
CONTINUOUS
 10
4.398680
 20
2.491720
  0
VERTEX
  8
0
  6
CONTINUOUS
 10
4.394720
 20
1.743720
  0
VERTEX
  8
0
  6
CONTINUOUS
 10
4.364800
 20
1.751200
  0
SEQEND
  8
0
  0
SOLID
  8
0
 62
    15
 10
6.523000
 20
2.620200
 11
6.523000
 21
1.866040
 12
6.519040
 22
1.872200
 13
6.519040
 23
1.118040
  0
POLYLINE
  8
0
  6
CONTINUOUS
 66
     1
 40
0.000000
 41
0.000000
  0
VERTEX
  8
0
  6
CONTINUOUS
 10
6.523000
 20
2.620200
  0
VERTEX
  8
0
  6
CONTINUOUS
 10
6.523000
 20
1.866040
  0
VERTEX
  8
0
  6
CONTINUOUS
 10
6.519040
 20
1.118040
  0
VERTEX
  8
0
  6
CONTINUOUS
 10
6.519040
 20
1.872200
  0
VERTEX
  8
0
  6
CONTINUOUS
 10
6.523000
 20
2.620200
  0
SEQEND
  8
0
  0
SOLID
  8
0
 62
    15
 10
5.859480
 20
1.872200
 11
5.863440
 21
2.620200
 12
6.519480
 22
1.872200
 13
6.523440
 23
2.620200
  0
POLYLINE
  8
0
  6
CONTINUOUS
 66
     1
 40
0.000000
 41
0.000000
  0
VERTEX
  8
0
  6
CONTINUOUS
 10
5.859480
 20
1.872200
  0
VERTEX
  8
0
  6
CONTINUOUS
 10
5.863440
 20
2.620200
  0
VERTEX
  8
0
  6
CONTINUOUS
 10
6.523440
 20
2.620200
  0
VERTEX
  8
0
  6
CONTINUOUS
 10
6.519480
 20
1.872200
  0
VERTEX
  8
0
  6
CONTINUOUS
 10
5.859480
 20
1.872200
  0
SEQEND
  8
0
  0
SOLID
  8
0
 62
    15
 10
4.425960
 20
1.741080
 11
4.429920
 21
2.489080
 12
4.456760
 22
1.743720
 13
4.460720
 23
2.491720
  0
POLYLINE
  8
0
  6
CONTINUOUS
 66
     1
 40
0.000000
 41
0.000000
  0
VERTEX
  8
0
  6
CONTINUOUS
 10
4.425960
 20
1.741080
  0
VERTEX
  8
0
  6
CONTINUOUS
 10
4.429920
 20
2.489080
  0
VERTEX
  8
0
  6
CONTINUOUS
 10
4.460720
 20
2.491720
  0
VERTEX
  8
0
  6
CONTINUOUS
 10
4.456760
 20
1.743720
  0
VERTEX
  8
0
  6
CONTINUOUS
 10
4.425960
 20
1.741080
  0
SEQEND
  8
0
  0
SOLID
  8
0
 62
    15
 10
4.456760
 20
1.743720
 11
4.460720
 21
2.491720
 12
4.486240
 22
1.751200
 13
4.489760
 23
2.499200
  0
POLYLINE
  8
0
  6
CONTINUOUS
 66
     1
 40
0.000000
 41
0.000000
  0
VERTEX
  8
0
  6
CONTINUOUS
 10
4.456760
 20
1.743720
  0
VERTEX
  8
0
  6
CONTINUOUS
 10
4.460720
 20
2.491720
  0
VERTEX
  8
0
  6
CONTINUOUS
 10
4.489760
 20
2.499200
  0
VERTEX
  8
0
  6
CONTINUOUS
 10
4.486240
 20
1.751200
  0
VERTEX
  8
0
  6
CONTINUOUS
 10
4.456760
 20
1.743720
  0
SEQEND
  8
0
  0
SOLID
  8
0
 62
    15
 10
4.486240
 20
1.751200
 11
4.489760
 21
2.499200
 12
4.513960
 22
1.763080
 13
4.517480
 23
2.511080
  0
POLYLINE
  8
0
  6
CONTINUOUS
 66
     1
 40
0.000000
 41
0.000000
  0
VERTEX
  8
0
  6
CONTINUOUS
 10
4.486240
 20
1.751200
  0
VERTEX
  8
0
  6
CONTINUOUS
 10
4.489760
 20
2.499200
  0
VERTEX
  8
0
  6
CONTINUOUS
 10
4.517480
 20
2.511080
  0
VERTEX
  8
0
  6
CONTINUOUS
 10
4.513960
 20
1.763080
  0
VERTEX
  8
0
  6
CONTINUOUS
 10
4.486240
 20
1.751200
  0
SEQEND
  8
0
  0
SOLID
  8
0
 62
    15
 10
4.513960
 20
1.763080
 11
4.517480
 21
2.511080
 12
4.539480
 22
1.778920
 13
4.543440
 23
2.526920
  0
POLYLINE
  8
0
  6
CONTINUOUS
 66
     1
 40
0.000000
 41
0.000000
  0
VERTEX
  8
0
  6
CONTINUOUS
 10
4.513960
 20
1.763080
  0
VERTEX
  8
0
  6
CONTINUOUS
 10
4.517480
 20
2.511080
  0
VERTEX
  8
0
  6
CONTINUOUS
 10
4.543440
 20
2.526920
  0
VERTEX
  8
0
  6
CONTINUOUS
 10
4.539480
 20
1.778920
  0
VERTEX
  8
0
  6
CONTINUOUS
 10
4.513960
 20
1.763080
  0
SEQEND
  8
0
  0
SOLID
  8
0
 62
    15
 10
4.539480
 20
1.778920
 11
4.543440
 21
2.526920
 12
4.562360
 22
1.797840
 13
4.566320
 23
2.546280
  0
POLYLINE
  8
0
  6
CONTINUOUS
 66
     1
 40
0.000000
 41
0.000000
  0
VERTEX
  8
0
  6
CONTINUOUS
 10
4.539480
 20
1.778920
  0
VERTEX
  8
0
  6
CONTINUOUS
 10
4.543440
 20
2.526920
  0
VERTEX
  8
0
  6
CONTINUOUS
 10
4.566320
 20
2.546280
  0
VERTEX
  8
0
  6
CONTINUOUS
 10
4.562360
 20
1.797840
  0
VERTEX
  8
0
  6
CONTINUOUS
 10
4.539480
 20
1.778920
  0
SEQEND
  8
0
  0
SOLID
  8
0
 62
    15
 10
4.562360
 20
1.797840
 11
4.566320
 21
2.546280
 12
4.582600
 22
1.820280
 13
4.586560
 23
2.568280
  0
POLYLINE
  8
0
  6
CONTINUOUS
 66
     1
 40
0.000000
 41
0.000000
  0
VERTEX
  8
0
  6
CONTINUOUS
 10
4.562360
 20
1.797840
  0
VERTEX
  8
0
  6
CONTINUOUS
 10
4.566320
 20
2.546280
  0
VERTEX
  8
0
  6
CONTINUOUS
 10
4.586560
 20
2.568280
  0
VERTEX
  8
0
  6
CONTINUOUS
 10
4.582600
 20
1.820280
  0
VERTEX
  8
0
  6
CONTINUOUS
 10
4.562360
 20
1.797840
  0
SEQEND
  8
0
  0
SOLID
  8
0
 62
    15
 10
4.582600
 20
1.820280
 11
4.586560
 21
2.568280
 12
4.599760
 22
1.844920
 13
4.603280
 23
2.592920
  0
POLYLINE
  8
0
  6
CONTINUOUS
 66
     1
 40
0.000000
 41
0.000000
  0
VERTEX
  8
0
  6
CONTINUOUS
 10
4.582600
 20
1.820280
  0
VERTEX
  8
0
  6
CONTINUOUS
 10
4.586560
 20
2.568280
  0
VERTEX
  8
0
  6
CONTINUOUS
 10
4.603280
 20
2.592920
  0
VERTEX
  8
0
  6
CONTINUOUS
 10
4.599760
 20
1.844920
  0
VERTEX
  8
0
  6
CONTINUOUS
 10
4.582600
 20
1.820280
  0
SEQEND
  8
0
  0
SOLID
  8
0
 62
    15
 10
4.612520
 20
1.871760
 11
4.616480
 21
2.619760
 12
4.862000
 22
1.871760
 13
4.865960
 23
2.619760
  0
POLYLINE
  8
0
  6
CONTINUOUS
 66
     1
 40
0.000000
 41
0.000000
  0
VERTEX
  8
0
  6
CONTINUOUS
 10
4.612520
 20
1.871760
  0
VERTEX
  8
0
  6
CONTINUOUS
 10
4.616480
 20
2.619760
  0
VERTEX
  8
0
  6
CONTINUOUS
 10
4.865960
 20
2.619760
  0
VERTEX
  8
0
  6
CONTINUOUS
 10
4.862000
 20
1.871760
  0
VERTEX
  8
0
  6
CONTINUOUS
 10
4.612520
 20
1.871760
  0
SEQEND
  8
0
  0
SOLID
  8
0
 62
    15
 10
4.599760
 20
1.844920
 11
4.603280
 21
2.592920
 12
4.612520
 22
1.871760
 13
4.616480
 23
2.619760
  0
POLYLINE
  8
0
  6
CONTINUOUS
 66
     1
 40
0.000000
 41
0.000000
  0
VERTEX
  8
0
  6
CONTINUOUS
 10
4.599760
 20
1.844920
  0
VERTEX
  8
0
  6
CONTINUOUS
 10
4.603280
 20
2.592920
  0
VERTEX
  8
0
  6
CONTINUOUS
 10
4.616480
 20
2.619760
  0
VERTEX
  8
0
  6
CONTINUOUS
 10
4.612520
 20
1.871760
  0
VERTEX
  8
0
  6
CONTINUOUS
 10
4.599760
 20
1.844920
  0
SEQEND
  8
0
  0
SOLID
  8
0
 62
    15
 10
4.862000
 20
1.871760
 11
4.865960
 21
2.619760
 12
4.874760
 22
1.844920
 13
4.878720
 23
2.592920
  0
POLYLINE
  8
0
  6
CONTINUOUS
 66
     1
 40
0.000000
 41
0.000000
  0
VERTEX
  8
0
  6
CONTINUOUS
 10
4.862000
 20
1.871760
  0
VERTEX
  8
0
  6
CONTINUOUS
 10
4.865960
 20
2.619760
  0
VERTEX
  8
0
  6
CONTINUOUS
 10
4.878720
 20
2.592920
  0
VERTEX
  8
0
  6
CONTINUOUS
 10
4.874760
 20
1.844920
  0
VERTEX
  8
0
  6
CONTINUOUS
 10
4.862000
 20
1.871760
  0
SEQEND
  8
0
  0
SOLID
  8
0
 62
    15
 10
4.874760
 20
1.844920
 11
4.878720
 21
2.592920
 12
4.891480
 22
1.819840
 13
4.895440
 23
2.567840
  0
POLYLINE
  8
0
  6
CONTINUOUS
 66
     1
 40
0.000000
 41
0.000000
  0
VERTEX
  8
0
  6
CONTINUOUS
 10
4.874760
 20
1.844920
  0
VERTEX
  8
0
  6
CONTINUOUS
 10
4.878720
 20
2.592920
  0
VERTEX
  8
0
  6
CONTINUOUS
 10
4.895440
 20
2.567840
  0
VERTEX
  8
0
  6
CONTINUOUS
 10
4.891480
 20
1.819840
  0
VERTEX
  8
0
  6
CONTINUOUS
 10
4.874760
 20
1.844920
  0
SEQEND
  8
0
  0
SOLID
  8
0
 62
    15
 10
4.891480
 20
1.819840
 11
4.895440
 21
2.567840
 12
4.911280
 22
1.797400
 13
4.915240
 23
2.545840
  0
POLYLINE
  8
0
  6
CONTINUOUS
 66
     1
 40
0.000000
 41
0.000000
  0
VERTEX
  8
0
  6
CONTINUOUS
 10
4.891480
 20
1.819840
  0
VERTEX
  8
0
  6
CONTINUOUS
 10
4.895440
 20
2.567840
  0
VERTEX
  8
0
  6
CONTINUOUS
 10
4.915240
 20
2.545840
  0
VERTEX
  8
0
  6
CONTINUOUS
 10
4.911280
 20
1.797400
  0
VERTEX
  8
0
  6
CONTINUOUS
 10
4.891480
 20
1.819840
  0
SEQEND
  8
0
  0
SOLID
  8
0
 62
    15
 10
4.911280
 20
1.797400
 11
4.915240
 21
2.545840
 12
4.934600
 22
1.778480
 13
4.938560
 23
2.526480
  0
POLYLINE
  8
0
  6
CONTINUOUS
 66
     1
 40
0.000000
 41
0.000000
  0
VERTEX
  8
0
  6
CONTINUOUS
 10
4.911280
 20
1.797400
  0
VERTEX
  8
0
  6
CONTINUOUS
 10
4.915240
 20
2.545840
  0
VERTEX
  8
0
  6
CONTINUOUS
 10
4.938560
 20
2.526480
  0
VERTEX
  8
0
  6
CONTINUOUS
 10
4.934600
 20
1.778480
  0
VERTEX
  8
0
  6
CONTINUOUS
 10
4.911280
 20
1.797400
  0
SEQEND
  8
0
  0
SOLID
  8
0
 62
    15
 10
4.934600
 20
1.778480
 11
4.938560
 21
2.526480
 12
4.960120
 22
1.762640
 13
4.964080
 23
2.511080
  0
POLYLINE
  8
0
  6
CONTINUOUS
 66
     1
 40
0.000000
 41
0.000000
  0
VERTEX
  8
0
  6
CONTINUOUS
 10
4.934600
 20
1.778480
  0
VERTEX
  8
0
  6
CONTINUOUS
 10
4.938560
 20
2.526480
  0
VERTEX
  8
0
  6
CONTINUOUS
 10
4.964080
 20
2.511080
  0
VERTEX
  8
0
  6
CONTINUOUS
 10
4.960120
 20
1.762640
  0
VERTEX
  8
0
  6
CONTINUOUS
 10
4.934600
 20
1.778480
  0
SEQEND
  8
0
  0
SOLID
  8
0
 62
    15
 10
4.960120
 20
1.762640
 11
4.964080
 21
2.511080
 12
4.988280
 22
1.751200
 13
4.991800
 23
2.499200
  0
POLYLINE
  8
0
  6
CONTINUOUS
 66
     1
 40
0.000000
 41
0.000000
  0
VERTEX
  8
0
  6
CONTINUOUS
 10
4.960120
 20
1.762640
  0
VERTEX
  8
0
  6
CONTINUOUS
 10
4.964080
 20
2.511080
  0
VERTEX
  8
0
  6
CONTINUOUS
 10
4.991800
 20
2.499200
  0
VERTEX
  8
0
  6
CONTINUOUS
 10
4.988280
 20
1.751200
  0
VERTEX
  8
0
  6
CONTINUOUS
 10
4.960120
 20
1.762640
  0
SEQEND
  8
0
  0
SOLID
  8
0
 62
    15
 10
4.988280
 20
1.751200
 11
4.991800
 21
2.499200
 12
5.018200
 22
1.743720
 13
5.021720
 23
2.491720
  0
POLYLINE
  8
0
  6
CONTINUOUS
 66
     1
 40
0.000000
 41
0.000000
  0
VERTEX
  8
0
  6
CONTINUOUS
 10
4.988280
 20
1.751200
  0
VERTEX
  8
0
  6
CONTINUOUS
 10
4.991800
 20
2.499200
  0
VERTEX
  8
0
  6
CONTINUOUS
 10
5.021720
 20
2.491720
  0
VERTEX
  8
0
  6
CONTINUOUS
 10
5.018200
 20
1.743720
  0
VERTEX
  8
0
  6
CONTINUOUS
 10
4.988280
 20
1.751200
  0
SEQEND
  8
0
  0
SOLID
  8
0
 62
    15
 10
5.018200
 20
1.743720
 11
5.021720
 21
2.491720
 12
5.049440
 22
1.741080
 13
5.053400
 23
2.489080
  0
POLYLINE
  8
0
  6
CONTINUOUS
 66
     1
 40
0.000000
 41
0.000000
  0
VERTEX
  8
0
  6
CONTINUOUS
 10
5.018200
 20
1.743720
  0
VERTEX
  8
0
  6
CONTINUOUS
 10
5.021720
 20
2.491720
  0
VERTEX
  8
0
  6
CONTINUOUS
 10
5.053400
 20
2.489080
  0
VERTEX
  8
0
  6
CONTINUOUS
 10
5.049440
 20
1.741080
  0
VERTEX
  8
0
  6
CONTINUOUS
 10
5.018200
 20
1.743720
  0
SEQEND
  8
0
  0
SOLID
  8
0
 62
    15
 10
5.049440
 20
1.741080
 11
5.053400
 21
2.489080
 12
5.079800
 22
1.743720
 13
5.083760
 23
2.491720
  0
POLYLINE
  8
0
  6
CONTINUOUS
 66
     1
 40
0.000000
 41
0.000000
  0
VERTEX
  8
0
  6
CONTINUOUS
 10
5.049440
 20
1.741080
  0
VERTEX
  8
0
  6
CONTINUOUS
 10
5.053400
 20
2.489080
  0
VERTEX
  8
0
  6
CONTINUOUS
 10
5.083760
 20
2.491720
  0
VERTEX
  8
0
  6
CONTINUOUS
 10
5.079800
 20
1.743720
  0
VERTEX
  8
0
  6
CONTINUOUS
 10
5.049440
 20
1.741080
  0
SEQEND
  8
0
  0
SOLID
  8
0
 62
    15
 10
5.079800
 20
1.743720
 11
5.083760
 21
2.491720
 12
5.109280
 22
1.751200
 13
5.113240
 23
2.499200
  0
POLYLINE
  8
0
  6
CONTINUOUS
 66
     1
 40
0.000000
 41
0.000000
  0
VERTEX
  8
0
  6
CONTINUOUS
 10
5.079800
 20
1.743720
  0
VERTEX
  8
0
  6
CONTINUOUS
 10
5.083760
 20
2.491720
  0
VERTEX
  8
0
  6
CONTINUOUS
 10
5.113240
 20
2.499200
  0
VERTEX
  8
0
  6
CONTINUOUS
 10
5.109280
 20
1.751200
  0
VERTEX
  8
0
  6
CONTINUOUS
 10
5.079800
 20
1.743720
  0
SEQEND
  8
0
  0
SOLID
  8
0
 62
    15
 10
5.109280
 20
1.751200
 11
5.113240
 21
2.499200
 12
5.137000
 22
1.763080
 13
5.140960
 23
2.511080
  0
POLYLINE
  8
0
  6
CONTINUOUS
 66
     1
 40
0.000000
 41
0.000000
  0
VERTEX
  8
0
  6
CONTINUOUS
 10
5.109280
 20
1.751200
  0
VERTEX
  8
0
  6
CONTINUOUS
 10
5.113240
 20
2.499200
  0
VERTEX
  8
0
  6
CONTINUOUS
 10
5.140960
 20
2.511080
  0
VERTEX
  8
0
  6
CONTINUOUS
 10
5.137000
 20
1.763080
  0
VERTEX
  8
0
  6
CONTINUOUS
 10
5.109280
 20
1.751200
  0
SEQEND
  8
0
  0
SOLID
  8
0
 62
    15
 10
5.137000
 20
1.763080
 11
5.140960
 21
2.511080
 12
5.162520
 22
1.778920
 13
5.166480
 23
2.526920
  0
POLYLINE
  8
0
  6
CONTINUOUS
 66
     1
 40
0.000000
 41
0.000000
  0
VERTEX
  8
0
  6
CONTINUOUS
 10
5.137000
 20
1.763080
  0
VERTEX
  8
0
  6
CONTINUOUS
 10
5.140960
 20
2.511080
  0
VERTEX
  8
0
  6
CONTINUOUS
 10
5.166480
 20
2.526920
  0
VERTEX
  8
0
  6
CONTINUOUS
 10
5.162520
 20
1.778920
  0
VERTEX
  8
0
  6
CONTINUOUS
 10
5.137000
 20
1.763080
  0
SEQEND
  8
0
  0
SOLID
  8
0
 62
    15
 10
5.162520
 20
1.778920
 11
5.166480
 21
2.526920
 12
5.185840
 22
1.797840
 13
5.189360
 23
2.546280
  0
POLYLINE
  8
0
  6
CONTINUOUS
 66
     1
 40
0.000000
 41
0.000000
  0
VERTEX
  8
0
  6
CONTINUOUS
 10
5.162520
 20
1.778920
  0
VERTEX
  8
0
  6
CONTINUOUS
 10
5.166480
 20
2.526920
  0
VERTEX
  8
0
  6
CONTINUOUS
 10
5.189360
 20
2.546280
  0
VERTEX
  8
0
  6
CONTINUOUS
 10
5.185840
 20
1.797840
  0
VERTEX
  8
0
  6
CONTINUOUS
 10
5.162520
 20
1.778920
  0
SEQEND
  8
0
  0
SOLID
  8
0
 62
    15
 10
5.185840
 20
1.797840
 11
5.189360
 21
2.546280
 12
5.206080
 22
1.820280
 13
5.209600
 23
2.568280
  0
POLYLINE
  8
0
  6
CONTINUOUS
 66
     1
 40
0.000000
 41
0.000000
  0
VERTEX
  8
0
  6
CONTINUOUS
 10
5.185840
 20
1.797840
  0
VERTEX
  8
0
  6
CONTINUOUS
 10
5.189360
 20
2.546280
  0
VERTEX
  8
0
  6
CONTINUOUS
 10
5.209600
 20
2.568280
  0
VERTEX
  8
0
  6
CONTINUOUS
 10
5.206080
 20
1.820280
  0
VERTEX
  8
0
  6
CONTINUOUS
 10
5.185840
 20
1.797840
  0
SEQEND
  8
0
  0
SOLID
  8
0
 62
    15
 10
5.206080
 20
1.820280
 11
5.209600
 21
2.568280
 12
5.222800
 22
1.844920
 13
5.226760
 23
2.592920
  0
POLYLINE
  8
0
  6
CONTINUOUS
 66
     1
 40
0.000000
 41
0.000000
  0
VERTEX
  8
0
  6
CONTINUOUS
 10
5.206080
 20
1.820280
  0
VERTEX
  8
0
  6
CONTINUOUS
 10
5.209600
 20
2.568280
  0
VERTEX
  8
0
  6
CONTINUOUS
 10
5.226760
 20
2.592920
  0
VERTEX
  8
0
  6
CONTINUOUS
 10
5.222800
 20
1.844920
  0
VERTEX
  8
0
  6
CONTINUOUS
 10
5.206080
 20
1.820280
  0
SEQEND
  8
0
  0
SOLID
  8
0
 62
    15
 10
5.222800
 20
1.844920
 11
5.226760
 21
2.592920
 12
5.236000
 22
1.871760
 13
5.239960
 23
2.619760
  0
POLYLINE
  8
0
  6
CONTINUOUS
 66
     1
 40
0.000000
 41
0.000000
  0
VERTEX
  8
0
  6
CONTINUOUS
 10
5.222800
 20
1.844920
  0
VERTEX
  8
0
  6
CONTINUOUS
 10
5.226760
 20
2.592920
  0
VERTEX
  8
0
  6
CONTINUOUS
 10
5.239960
 20
2.619760
  0
VERTEX
  8
0
  6
CONTINUOUS
 10
5.236000
 20
1.871760
  0
VERTEX
  8
0
  6
CONTINUOUS
 10
5.222800
 20
1.844920
  0
SEQEND
  8
0
  0
SOLID
  8
0
 62
    15
 10
5.236000
 20
1.871760
 11
5.239960
 21
2.619760
 12
5.236440
 22
1.871760
 13
5.239960
 23
2.620200
  0
POLYLINE
  8
0
  6
CONTINUOUS
 66
     1
 40
0.000000
 41
0.000000
  0
VERTEX
  8
0
  6
CONTINUOUS
 10
5.236000
 20
1.871760
  0
VERTEX
  8
0
  6
CONTINUOUS
 10
5.239960
 20
2.619760
  0
VERTEX
  8
0
  6
CONTINUOUS
 10
5.239960
 20
2.620200
  0
VERTEX
  8
0
  6
CONTINUOUS
 10
5.236440
 20
1.871760
  0
VERTEX
  8
0
  6
CONTINUOUS
 10
5.236000
 20
1.871760
  0
SEQEND
  8
0
  0
SOLID
  8
0
 62
    15
 10
5.236440
 20
1.871760
 11
5.239960
 21
2.620200
 12
5.485920
 22
1.871760
 13
5.489440
 23
2.620200
  0
POLYLINE
  8
0
  6
CONTINUOUS
 66
     1
 40
0.000000
 41
0.000000
  0
VERTEX
  8
0
  6
CONTINUOUS
 10
5.236440
 20
1.871760
  0
VERTEX
  8
0
  6
CONTINUOUS
 10
5.239960
 20
2.620200
  0
VERTEX
  8
0
  6
CONTINUOUS
 10
5.489440
 20
2.620200
  0
VERTEX
  8
0
  6
CONTINUOUS
 10
5.485920
 20
1.871760
  0
VERTEX
  8
0
  6
CONTINUOUS
 10
5.236440
 20
1.871760
  0
SEQEND
  8
0
  0
SOLID
  8
0
 62
    15
 10
5.485920
 20
1.871760
 11
5.489440
 21
2.620200
 12
5.498680
 22
1.844920
 13
5.502200
 23
2.592920
  0
POLYLINE
  8
0
  6
CONTINUOUS
 66
     1
 40
0.000000
 41
0.000000
  0
VERTEX
  8
0
  6
CONTINUOUS
 10
5.485920
 20
1.871760
  0
VERTEX
  8
0
  6
CONTINUOUS
 10
5.489440
 20
2.620200
  0
VERTEX
  8
0
  6
CONTINUOUS
 10
5.502200
 20
2.592920
  0
VERTEX
  8
0
  6
CONTINUOUS
 10
5.498680
 20
1.844920
  0
VERTEX
  8
0
  6
CONTINUOUS
 10
5.485920
 20
1.871760
  0
SEQEND
  8
0
  0
SOLID
  8
0
 62
    15
 10
5.498680
 20
1.844920
 11
5.502200
 21
2.592920
 12
5.514960
 22
1.819840
 13
5.518920
 23
2.568280
  0
POLYLINE
  8
0
  6
CONTINUOUS
 66
     1
 40
0.000000
 41
0.000000
  0
VERTEX
  8
0
  6
CONTINUOUS
 10
5.498680
 20
1.844920
  0
VERTEX
  8
0
  6
CONTINUOUS
 10
5.502200
 20
2.592920
  0
VERTEX
  8
0
  6
CONTINUOUS
 10
5.518920
 20
2.568280
  0
VERTEX
  8
0
  6
CONTINUOUS
 10
5.514960
 20
1.819840
  0
VERTEX
  8
0
  6
CONTINUOUS
 10
5.498680
 20
1.844920
  0
SEQEND
  8
0
  0
SOLID
  8
0
 62
    15
 10
5.514960
 20
1.819840
 11
5.518920
 21
2.568280
 12
5.535200
 22
1.797840
 13
5.538720
 23
2.545840
  0
POLYLINE
  8
0
  6
CONTINUOUS
 66
     1
 40
0.000000
 41
0.000000
  0
VERTEX
  8
0
  6
CONTINUOUS
 10
5.514960
 20
1.819840
  0
VERTEX
  8
0
  6
CONTINUOUS
 10
5.518920
 20
2.568280
  0
VERTEX
  8
0
  6
CONTINUOUS
 10
5.538720
 20
2.545840
  0
VERTEX
  8
0
  6
CONTINUOUS
 10
5.535200
 20
1.797840
  0
VERTEX
  8
0
  6
CONTINUOUS
 10
5.514960
 20
1.819840
  0
SEQEND
  8
0
  0
SOLID
  8
0
 62
    15
 10
5.535200
 20
1.797840
 11
5.538720
 21
2.545840
 12
5.558080
 22
1.778480
 13
5.562040
 23
2.526920
  0
POLYLINE
  8
0
  6
CONTINUOUS
 66
     1
 40
0.000000
 41
0.000000
  0
VERTEX
  8
0
  6
CONTINUOUS
 10
5.535200
 20
1.797840
  0
VERTEX
  8
0
  6
CONTINUOUS
 10
5.538720
 20
2.545840
  0
VERTEX
  8
0
  6
CONTINUOUS
 10
5.562040
 20
2.526920
  0
VERTEX
  8
0
  6
CONTINUOUS
 10
5.558080
 20
1.778480
  0
VERTEX
  8
0
  6
CONTINUOUS
 10
5.535200
 20
1.797840
  0
SEQEND
  8
0
  0
SOLID
  8
0
 62
    15
 10
5.558080
 20
1.778480
 11
5.562040
 21
2.526920
 12
5.583600
 22
1.763080
 13
5.587560
 23
2.511080
  0
POLYLINE
  8
0
  6
CONTINUOUS
 66
     1
 40
0.000000
 41
0.000000
  0
VERTEX
  8
0
  6
CONTINUOUS
 10
5.558080
 20
1.778480
  0
VERTEX
  8
0
  6
CONTINUOUS
 10
5.562040
 20
2.526920
  0
VERTEX
  8
0
  6
CONTINUOUS
 10
5.587560
 20
2.511080
  0
VERTEX
  8
0
  6
CONTINUOUS
 10
5.583600
 20
1.763080
  0
VERTEX
  8
0
  6
CONTINUOUS
 10
5.558080
 20
1.778480
  0
SEQEND
  8
0
  0
SOLID
  8
0
 62
    15
 10
5.583600
 20
1.763080
 11
5.587560
 21
2.511080
 12
5.611760
 22
1.751200
 13
5.615720
 23
2.499200
  0
POLYLINE
  8
0
  6
CONTINUOUS
 66
     1
 40
0.000000
 41
0.000000
  0
VERTEX
  8
0
  6
CONTINUOUS
 10
5.583600
 20
1.763080
  0
VERTEX
  8
0
  6
CONTINUOUS
 10
5.587560
 20
2.511080
  0
VERTEX
  8
0
  6
CONTINUOUS
 10
5.615720
 20
2.499200
  0
VERTEX
  8
0
  6
CONTINUOUS
 10
5.611760
 20
1.751200
  0
VERTEX
  8
0
  6
CONTINUOUS
 10
5.583600
 20
1.763080
  0
SEQEND
  8
0
  0
SOLID
  8
0
 62
    15
 10
5.611760
 20
1.751200
 11
5.615720
 21
2.499200
 12
5.641680
 22
1.744160
 13
5.645640
 23
2.492160
  0
POLYLINE
  8
0
  6
CONTINUOUS
 66
     1
 40
0.000000
 41
0.000000
  0
VERTEX
  8
0
  6
CONTINUOUS
 10
5.611760
 20
1.751200
  0
VERTEX
  8
0
  6
CONTINUOUS
 10
5.615720
 20
2.499200
  0
VERTEX
  8
0
  6
CONTINUOUS
 10
5.645640
 20
2.492160
  0
VERTEX
  8
0
  6
CONTINUOUS
 10
5.641680
 20
1.744160
  0
VERTEX
  8
0
  6
CONTINUOUS
 10
5.611760
 20
1.751200
  0
SEQEND
  8
0
  0
SOLID
  8
0
 62
    15
 10
5.641680
 20
1.744160
 11
5.645640
 21
2.492160
 12
5.672920
 22
1.741520
 13
5.676880
 23
2.489520
  0
POLYLINE
  8
0
  6
CONTINUOUS
 66
     1
 40
0.000000
 41
0.000000
  0
VERTEX
  8
0
  6
CONTINUOUS
 10
5.641680
 20
1.744160
  0
VERTEX
  8
0
  6
CONTINUOUS
 10
5.645640
 20
2.492160
  0
VERTEX
  8
0
  6
CONTINUOUS
 10
5.676880
 20
2.489520
  0
VERTEX
  8
0
  6
CONTINUOUS
 10
5.672920
 20
1.741520
  0
VERTEX
  8
0
  6
CONTINUOUS
 10
5.641680
 20
1.744160
  0
SEQEND
  8
0
  0
SOLID
  8
0
 62
    15
 10
5.672920
 20
1.741520
 11
5.676880
 21
2.489520
 12
5.703720
 22
1.744160
 13
5.707240
 23
2.492160
  0
POLYLINE
  8
0
  6
CONTINUOUS
 66
     1
 40
0.000000
 41
0.000000
  0
VERTEX
  8
0
  6
CONTINUOUS
 10
5.672920
 20
1.741520
  0
VERTEX
  8
0
  6
CONTINUOUS
 10
5.676880
 20
2.489520
  0
VERTEX
  8
0
  6
CONTINUOUS
 10
5.707240
 20
2.492160
  0
VERTEX
  8
0
  6
CONTINUOUS
 10
5.703720
 20
1.744160
  0
VERTEX
  8
0
  6
CONTINUOUS
 10
5.672920
 20
1.741520
  0
SEQEND
  8
0
  0
SOLID
  8
0
 62
    15
 10
5.703720
 20
1.744160
 11
5.707240
 21
2.492160
 12
5.732760
 22
1.751640
 13
5.736720
 23
2.499640
  0
POLYLINE
  8
0
  6
CONTINUOUS
 66
     1
 40
0.000000
 41
0.000000
  0
VERTEX
  8
0
  6
CONTINUOUS
 10
5.703720
 20
1.744160
  0
VERTEX
  8
0
  6
CONTINUOUS
 10
5.707240
 20
2.492160
  0
VERTEX
  8
0
  6
CONTINUOUS
 10
5.736720
 20
2.499640
  0
VERTEX
  8
0
  6
CONTINUOUS
 10
5.732760
 20
1.751640
  0
VERTEX
  8
0
  6
CONTINUOUS
 10
5.703720
 20
1.744160
  0
SEQEND
  8
0
  0
SOLID
  8
0
 62
    15
 10
5.732760
 20
1.751640
 11
5.736720
 21
2.499640
 12
5.760480
 22
1.763520
 13
5.764440
 23
2.511520
  0
POLYLINE
  8
0
  6
CONTINUOUS
 66
     1
 40
0.000000
 41
0.000000
  0
VERTEX
  8
0
  6
CONTINUOUS
 10
5.732760
 20
1.751640
  0
VERTEX
  8
0
  6
CONTINUOUS
 10
5.736720
 20
2.499640
  0
VERTEX
  8
0
  6
CONTINUOUS
 10
5.764440
 20
2.511520
  0
VERTEX
  8
0
  6
CONTINUOUS
 10
5.760480
 20
1.763520
  0
VERTEX
  8
0
  6
CONTINUOUS
 10
5.732760
 20
1.751640
  0
SEQEND
  8
0
  0
SOLID
  8
0
 62
    15
 10
5.760480
 20
1.763520
 11
5.764440
 21
2.511520
 12
5.786000
 22
1.778920
 13
5.789960
 23
2.526920
  0
POLYLINE
  8
0
  6
CONTINUOUS
 66
     1
 40
0.000000
 41
0.000000
  0
VERTEX
  8
0
  6
CONTINUOUS
 10
5.760480
 20
1.763520
  0
VERTEX
  8
0
  6
CONTINUOUS
 10
5.764440
 20
2.511520
  0
VERTEX
  8
0
  6
CONTINUOUS
 10
5.789960
 20
2.526920
  0
VERTEX
  8
0
  6
CONTINUOUS
 10
5.786000
 20
1.778920
  0
VERTEX
  8
0
  6
CONTINUOUS
 10
5.760480
 20
1.763520
  0
SEQEND
  8
0
  0
SOLID
  8
0
 62
    15
 10
5.786000
 20
1.778920
 11
5.789960
 21
2.526920
 12
5.809320
 22
1.798280
 13
5.813280
 23
2.546280
  0
POLYLINE
  8
0
  6
CONTINUOUS
 66
     1
 40
0.000000
 41
0.000000
  0
VERTEX
  8
0
  6
CONTINUOUS
 10
5.786000
 20
1.778920
  0
VERTEX
  8
0
  6
CONTINUOUS
 10
5.789960
 20
2.526920
  0
VERTEX
  8
0
  6
CONTINUOUS
 10
5.813280
 20
2.546280
  0
VERTEX
  8
0
  6
CONTINUOUS
 10
5.809320
 20
1.798280
  0
VERTEX
  8
0
  6
CONTINUOUS
 10
5.786000
 20
1.778920
  0
SEQEND
  8
0
  0
SOLID
  8
0
 62
    15
 10
5.809320
 20
1.798280
 11
5.813280
 21
2.546280
 12
5.829560
 22
1.820720
 13
5.833520
 23
2.568720
  0
POLYLINE
  8
0
  6
CONTINUOUS
 66
     1
 40
0.000000
 41
0.000000
  0
VERTEX
  8
0
  6
CONTINUOUS
 10
5.809320
 20
1.798280
  0
VERTEX
  8
0
  6
CONTINUOUS
 10
5.813280
 20
2.546280
  0
VERTEX
  8
0
  6
CONTINUOUS
 10
5.833520
 20
2.568720
  0
VERTEX
  8
0
  6
CONTINUOUS
 10
5.829560
 20
1.820720
  0
VERTEX
  8
0
  6
CONTINUOUS
 10
5.809320
 20
1.798280
  0
SEQEND
  8
0
  0
SOLID
  8
0
 62
    15
 10
5.829560
 20
1.820720
 11
5.833520
 21
2.568720
 12
5.846280
 22
1.845360
 13
5.850240
 23
2.593360
  0
POLYLINE
  8
0
  6
CONTINUOUS
 66
     1
 40
0.000000
 41
0.000000
  0
VERTEX
  8
0
  6
CONTINUOUS
 10
5.829560
 20
1.820720
  0
VERTEX
  8
0
  6
CONTINUOUS
 10
5.833520
 20
2.568720
  0
VERTEX
  8
0
  6
CONTINUOUS
 10
5.850240
 20
2.593360
  0
VERTEX
  8
0
  6
CONTINUOUS
 10
5.846280
 20
1.845360
  0
VERTEX
  8
0
  6
CONTINUOUS
 10
5.829560
 20
1.820720
  0
SEQEND
  8
0
  0
SOLID
  8
0
 62
    15
 10
5.846280
 20
1.845360
 11
5.850240
 21
2.593360
 12
5.859480
 22
1.872200
 13
5.863440
 23
2.620200
  0
POLYLINE
  8
0
  6
CONTINUOUS
 66
     1
 40
0.000000
 41
0.000000
  0
VERTEX
  8
0
  6
CONTINUOUS
 10
5.846280
 20
1.845360
  0
VERTEX
  8
0
  6
CONTINUOUS
 10
5.850240
 20
2.593360
  0
VERTEX
  8
0
  6
CONTINUOUS
 10
5.863440
 20
2.620200
  0
VERTEX
  8
0
  6
CONTINUOUS
 10
5.859480
 20
1.872200
  0
VERTEX
  8
0
  6
CONTINUOUS
 10
5.846280
 20
1.845360
  0
SEQEND
  8
0
  0
SOLID
  8
0
 62
    15
 10
6.519040
 20
1.872640
 11
6.523000
 21
2.620640
 12
6.519040
 22
1.872200
 13
6.523000
 23
2.620200
  0
POLYLINE
  8
0
  6
CONTINUOUS
 66
     1
 40
0.000000
 41
0.000000
  0
VERTEX
  8
0
  6
CONTINUOUS
 10
6.519040
 20
1.872640
  0
VERTEX
  8
0
  6
CONTINUOUS
 10
6.523000
 20
2.620640
  0
VERTEX
  8
0
  6
CONTINUOUS
 10
6.523000
 20
2.620200
  0
VERTEX
  8
0
  6
CONTINUOUS
 10
6.519040
 20
1.872200
  0
VERTEX
  8
0
  6
CONTINUOUS
 10
6.519040
 20
1.872640
  0
SEQEND
  8
0
  0
POLYLINE
  8
0
  6
CONTINUOUS
 66
     1
 40
0.000000
 41
0.000000
  0
VERTEX
  8
0
  6
CONTINUOUS
 10
6.519040
 20
1.872640
  0
VERTEX
  8
0
  6
CONTINUOUS
 10
6.519040
 20
1.118040
  0
VERTEX
  8
0
  6
CONTINUOUS
 10
2.335080
 20
1.118040
  0
VERTEX
  8
0
  6
CONTINUOUS
 10
2.335080
 20
1.872200
  0
VERTEX
  8
0
  6
CONTINUOUS
 10
2.992000
 20
1.872200
  0
VERTEX
  8
0
  6
CONTINUOUS
 10
3.005200
 20
1.845800
  0
VERTEX
  8
0
  6
CONTINUOUS
 10
3.021920
 20
1.820720
  0
VERTEX
  8
0
  6
CONTINUOUS
 10
3.042160
 20
1.798720
  0
VERTEX
  8
0
  6
CONTINUOUS
 10
3.065040
 20
1.779360
  0
VERTEX
  8
0
  6
CONTINUOUS
 10
3.091000
 20
1.763520
  0
VERTEX
  8
0
  6
CONTINUOUS
 10
3.118720
 20
1.751640
  0
VERTEX
  8
0
  6
CONTINUOUS
 10
3.147760
 20
1.744160
  0
VERTEX
  8
0
  6
CONTINUOUS
 10
3.178560
 20
1.741520
  0
VERTEX
  8
0
  6
CONTINUOUS
 10
3.209800
 20
1.744160
  0
VERTEX
  8
0
  6
CONTINUOUS
 10
3.239720
 20
1.751640
  0
VERTEX
  8
0
  6
CONTINUOUS
 10
3.267880
 20
1.763520
  0
VERTEX
  8
0
  6
CONTINUOUS
 10
3.293400
 20
1.778920
  0
VERTEX
  8
0
  6
CONTINUOUS
 10
3.316280
 20
1.798280
  0
VERTEX
  8
0
  6
CONTINUOUS
 10
3.336520
 20
1.820280
  0
VERTEX
  8
0
  6
CONTINUOUS
 10
3.352800
 20
1.845360
  0
VERTEX
  8
0
  6
CONTINUOUS
 10
3.365560
 20
1.872200
  0
VERTEX
  8
0
  6
CONTINUOUS
 10
3.615480
 20
1.872200
  0
VERTEX
  8
0
  6
CONTINUOUS
 10
3.628680
 20
1.845360
  0
VERTEX
  8
0
  6
CONTINUOUS
 10
3.645400
 20
1.820720
  0
VERTEX
  8
0
  6
CONTINUOUS
 10
3.665640
 20
1.798720
  0
VERTEX
  8
0
  6
CONTINUOUS
 10
3.688960
 20
1.779360
  0
VERTEX
  8
0
  6
CONTINUOUS
 10
3.714480
 20
1.763520
  0
VERTEX
  8
0
  6
CONTINUOUS
 10
3.742200
 20
1.751640
  0
VERTEX
  8
0
  6
CONTINUOUS
 10
3.771240
 20
1.744160
  0
VERTEX
  8
0
  6
CONTINUOUS
 10
3.802040
 20
1.741520
  0
VERTEX
  8
0
  6
CONTINUOUS
 10
3.833280
 20
1.744160
  0
VERTEX
  8
0
  6
CONTINUOUS
 10
3.863200
 20
1.751640
  0
VERTEX
  8
0
  6
CONTINUOUS
 10
3.891360
 20
1.763080
  0
VERTEX
  8
0
  6
CONTINUOUS
 10
3.916880
 20
1.778920
  0
VERTEX
  8
0
  6
CONTINUOUS
 10
3.939760
 20
1.798280
  0
VERTEX
  8
0
  6
CONTINUOUS
 10
3.960000
 20
1.820280
  0
VERTEX
  8
0
  6
CONTINUOUS
 10
3.976280
 20
1.845360
  0
VERTEX
  8
0
  6
CONTINUOUS
 10
3.989040
 20
1.872200
  0
VERTEX
  8
0
  6
CONTINUOUS
 10
4.238960
 20
1.871760
  0
VERTEX
  8
0
  6
CONTINUOUS
 10
4.251720
 20
1.844920
  0
VERTEX
  8
0
  6
CONTINUOUS
 10
4.268440
 20
1.819840
  0
VERTEX
  8
0
  6
CONTINUOUS
 10
4.288240
 20
1.797400
  0
VERTEX
  8
0
  6
CONTINUOUS
 10
4.311120
 20
1.778480
  0
VERTEX
  8
0
  6
CONTINUOUS
 10
4.337080
 20
1.762640
  0
VERTEX
  8
0
  6
CONTINUOUS
 10
4.364800
 20
1.751200
  0
VERTEX
  8
0
  6
CONTINUOUS
 10
4.394720
 20
1.743720
  0
VERTEX
  8
0
  6
CONTINUOUS
 10
4.425960
 20
1.741080
  0
VERTEX
  8
0
  6
CONTINUOUS
 10
4.456760
 20
1.743720
  0
VERTEX
  8
0
  6
CONTINUOUS
 10
4.486240
 20
1.751200
  0
VERTEX
  8
0
  6
CONTINUOUS
 10
4.513960
 20
1.763080
  0
VERTEX
  8
0
  6
CONTINUOUS
 10
4.539480
 20
1.778920
  0
VERTEX
  8
0
  6
CONTINUOUS
 10
4.562360
 20
1.797840
  0
VERTEX
  8
0
  6
CONTINUOUS
 10
4.582600
 20
1.820280
  0
VERTEX
  8
0
  6
CONTINUOUS
 10
4.599760
 20
1.844920
  0
VERTEX
  8
0
  6
CONTINUOUS
 10
4.612520
 20
1.871760
  0
VERTEX
  8
0
  6
CONTINUOUS
 10
4.862000
 20
1.871760
  0
VERTEX
  8
0
  6
CONTINUOUS
 10
4.874760
 20
1.844920
  0
VERTEX
  8
0
  6
CONTINUOUS
 10
4.891480
 20
1.819840
  0
VERTEX
  8
0
  6
CONTINUOUS
 10
4.911280
 20
1.797400
  0
VERTEX
  8
0
  6
CONTINUOUS
 10
4.934600
 20
1.778480
  0
VERTEX
  8
0
  6
CONTINUOUS
 10
4.960120
 20
1.762640
  0
VERTEX
  8
0
  6
CONTINUOUS
 10
4.988280
 20
1.751200
  0
VERTEX
  8
0
  6
CONTINUOUS
 10
5.018200
 20
1.743720
  0
VERTEX
  8
0
  6
CONTINUOUS
 10
5.049440
 20
1.741080
  0
VERTEX
  8
0
  6
CONTINUOUS
 10
5.079800
 20
1.743720
  0
VERTEX
  8
0
  6
CONTINUOUS
 10
5.109280
 20
1.751200
  0
VERTEX
  8
0
  6
CONTINUOUS
 10
5.137000
 20
1.763080
  0
VERTEX
  8
0
  6
CONTINUOUS
 10
5.162520
 20
1.778920
  0
VERTEX
  8
0
  6
CONTINUOUS
 10
5.185840
 20
1.797840
  0
VERTEX
  8
0
  6
CONTINUOUS
 10
5.206080
 20
1.820280
  0
VERTEX
  8
0
  6
CONTINUOUS
 10
5.222800
 20
1.844920
  0
VERTEX
  8
0
  6
CONTINUOUS
 10
5.236440
 20
1.871760
  0
VERTEX
  8
0
  6
CONTINUOUS
 10
5.485920
 20
1.871760
  0
VERTEX
  8
0
  6
CONTINUOUS
 10
5.498680
 20
1.844920
  0
VERTEX
  8
0
  6
CONTINUOUS
 10
5.514960
 20
1.819840
  0
VERTEX
  8
0
  6
CONTINUOUS
 10
5.535200
 20
1.797840
  0
VERTEX
  8
0
  6
CONTINUOUS
 10
5.558080
 20
1.778480
  0
VERTEX
  8
0
  6
CONTINUOUS
 10
5.583600
 20
1.763080
  0
VERTEX
  8
0
  6
CONTINUOUS
 10
5.611760
 20
1.751200
  0
VERTEX
  8
0
  6
CONTINUOUS
 10
5.641680
 20
1.744160
  0
VERTEX
  8
0
  6
CONTINUOUS
 10
5.672920
 20
1.741520
  0
VERTEX
  8
0
  6
CONTINUOUS
 10
5.703720
 20
1.744160
  0
VERTEX
  8
0
  6
CONTINUOUS
 10
5.732760
 20
1.751640
  0
VERTEX
  8
0
  6
CONTINUOUS
 10
5.760480
 20
1.763520
  0
VERTEX
  8
0
  6
CONTINUOUS
 10
5.786000
 20
1.778920
  0
VERTEX
  8
0
  6
CONTINUOUS
 10
5.809320
 20
1.798280
  0
VERTEX
  8
0
  6
CONTINUOUS
 10
5.829560
 20
1.820720
  0
VERTEX
  8
0
  6
CONTINUOUS
 10
5.846280
 20
1.845360
  0
VERTEX
  8
0
  6
CONTINUOUS
 10
5.859480
 20
1.872200
  0
VERTEX
  8
0
  6
CONTINUOUS
 10
6.519480
 20
1.872200
  0
VERTEX
  8
0
  6
CONTINUOUS
 10
6.519040
 20
1.872640
  0
SEQEND
  8
0
  0
POLYLINE
  8
0
  6
CONTINUOUS
 66
     1
 40
0.014080
 41
0.014080
  0
VERTEX
  8
0
  6
CONTINUOUS
 10
6.477680
 20
3.670040
  0
VERTEX
  8
0
  6
CONTINUOUS
 10
6.477680
 20
2.915880
  0
VERTEX
  8
0
  6
CONTINUOUS
 10
2.293720
 20
2.915880
  0
VERTEX
  8
0
  6
CONTINUOUS
 10
2.293720
 20
3.670040
  0
VERTEX
  8
0
  6
CONTINUOUS
 10
2.950640
 20
3.670040
  0
VERTEX
  8
0
  6
CONTINUOUS
 10
2.963840
 20
3.643200
  0
VERTEX
  8
0
  6
CONTINUOUS
 10
2.980560
 20
3.618560
  0
VERTEX
  8
0
  6
CONTINUOUS
 10
3.000800
 20
3.596120
  0
VERTEX
  8
0
  6
CONTINUOUS
 10
3.023680
 20
3.576760
  0
VERTEX
  8
0
  6
CONTINUOUS
 10
3.049200
 20
3.561360
  0
VERTEX
  8
0
  6
CONTINUOUS
 10
3.076920
 20
3.549480
  0
VERTEX
  8
0
  6
CONTINUOUS
 10
3.106400
 20
3.542000
  0
VERTEX
  8
0
  6
CONTINUOUS
 10
3.121800
 20
3.539800
  0
VERTEX
  8
0
  6
CONTINUOUS
 10
3.153040
 20
3.539800
  0
VERTEX
  8
0
  6
CONTINUOUS
 10
3.183840
 20
3.545080
  0
VERTEX
  8
0
  6
CONTINUOUS
 10
3.198360
 20
3.549040
  0
VERTEX
  8
0
  6
CONTINUOUS
 10
3.226520
 20
3.560920
  0
VERTEX
  8
0
  6
CONTINUOUS
 10
3.252040
 20
3.576760
  0
VERTEX
  8
0
  6
CONTINUOUS
 10
3.274920
 20
3.595680
  0
VERTEX
  8
0
  6
CONTINUOUS
 10
3.294720
 20
3.618120
  0
VERTEX
  8
0
  6
CONTINUOUS
 10
3.311440
 20
3.642760
  0
VERTEX
  8
0
  6
CONTINUOUS
 10
3.324200
 20
3.670040
  0
VERTEX
  8
0
  6
CONTINUOUS
 10
3.574120
 20
3.670040
  0
VERTEX
  8
0
  6
CONTINUOUS
 10
3.587320
 20
3.643200
  0
VERTEX
  8
0
  6
CONTINUOUS
 10
3.604040
 20
3.618560
  0
VERTEX
  8
0
  6
CONTINUOUS
 10
3.624280
 20
3.596120
  0
VERTEX
  8
0
  6
CONTINUOUS
 10
3.647160
 20
3.576760
  0
VERTEX
  8
0
  6
CONTINUOUS
 10
3.672680
 20
3.561360
  0
VERTEX
  8
0
  6
CONTINUOUS
 10
3.700400
 20
3.549480
  0
VERTEX
  8
0
  6
CONTINUOUS
 10
3.729880
 20
3.542000
  0
VERTEX
  8
0
  6
CONTINUOUS
 10
3.745280
 20
3.539800
  0
VERTEX
  8
0
  6
CONTINUOUS
 10
3.776520
 20
3.539800
  0
VERTEX
  8
0
  6
CONTINUOUS
 10
3.807320
 20
3.545080
  0
VERTEX
  8
0
  6
CONTINUOUS
 10
3.821840
 20
3.549040
  0
VERTEX
  8
0
  6
CONTINUOUS
 10
3.850000
 20
3.560920
  0
VERTEX
  8
0
  6
CONTINUOUS
 10
3.875520
 20
3.576760
  0
VERTEX
  8
0
  6
CONTINUOUS
 10
3.898400
 20
3.595680
  0
VERTEX
  8
0
  6
CONTINUOUS
 10
3.918200
 20
3.618120
  0
VERTEX
  8
0
  6
CONTINUOUS
 10
3.934920
 20
3.642760
  0
VERTEX
  8
0
  6
CONTINUOUS
 10
3.947680
 20
3.670040
  0
VERTEX
  8
0
  6
CONTINUOUS
 10
3.948120
 20
3.669160
  0
VERTEX
  8
0
  6
CONTINUOUS
 10
4.197600
 20
3.669600
  0
VERTEX
  8
0
  6
CONTINUOUS
 10
4.210360
 20
3.642320
  0
VERTEX
  8
0
  6
CONTINUOUS
 10
4.227080
 20
3.617680
  0
VERTEX
  8
0
  6
CONTINUOUS
 10
4.246880
 20
3.595240
  0
VERTEX
  8
0
  6
CONTINUOUS
 10
4.269760
 20
3.576320
  0
VERTEX
  8
0
  6
CONTINUOUS
 10
4.295280
 20
3.560480
  0
VERTEX
  8
0
  6
CONTINUOUS
 10
4.323440
 20
3.548600
  0
VERTEX
  8
0
  6
CONTINUOUS
 10
4.353360
 20
3.541560
  0
VERTEX
  8
0
  6
CONTINUOUS
 10
4.368760
 20
3.539360
  0
VERTEX
  8
0
  6
CONTINUOUS
 10
4.400000
 20
3.539360
  0
VERTEX
  8
0
  6
CONTINUOUS
 10
4.430360
 20
3.544640
  0
VERTEX
  8
0
  6
CONTINUOUS
 10
4.458960
 20
3.554320
  0
VERTEX
  8
0
  6
CONTINUOUS
 10
4.485360
 20
3.568400
  0
VERTEX
  8
0
  6
CONTINUOUS
 10
4.510000
 20
3.585560
  0
VERTEX
  8
0
  6
CONTINUOUS
 10
4.531560
 20
3.606680
  0
VERTEX
  8
0
  6
CONTINUOUS
 10
4.550040
 20
3.630000
  0
VERTEX
  8
0
  6
CONTINUOUS
 10
4.565000
 20
3.655960
  0
VERTEX
  8
0
  6
CONTINUOUS
 10
4.571160
 20
3.669600
  0
VERTEX
  8
0
  6
CONTINUOUS
 10
4.571160
 20
3.669160
  0
VERTEX
  8
0
  6
CONTINUOUS
 10
4.820640
 20
3.669600
  0
VERTEX
  8
0
  6
CONTINUOUS
 10
4.833400
 20
3.642320
  0
VERTEX
  8
0
  6
CONTINUOUS
 10
4.850120
 20
3.617680
  0
VERTEX
  8
0
  6
CONTINUOUS
 10
4.870360
 20
3.595240
  0
VERTEX
  8
0
  6
CONTINUOUS
 10
4.893240
 20
3.576320
  0
VERTEX
  8
0
  6
CONTINUOUS
 10
4.918760
 20
3.560480
  0
VERTEX
  8
0
  6
CONTINUOUS
 10
4.946920
 20
3.548600
  0
VERTEX
  8
0
  6
CONTINUOUS
 10
4.976840
 20
3.541560
  0
VERTEX
  8
0
  6
CONTINUOUS
 10
4.992240
 20
3.539360
  0
VERTEX
  8
0
  6
CONTINUOUS
 10
5.023480
 20
3.539360
  0
VERTEX
  8
0
  6
CONTINUOUS
 10
5.053400
 20
3.544640
  0
VERTEX
  8
0
  6
CONTINUOUS
 10
5.082000
 20
3.554320
  0
VERTEX
  8
0
  6
CONTINUOUS
 10
5.108840
 20
3.568400
  0
VERTEX
  8
0
  6
CONTINUOUS
 10
5.133040
 20
3.585560
  0
VERTEX
  8
0
  6
CONTINUOUS
 10
5.154600
 20
3.606680
  0
VERTEX
  8
0
  6
CONTINUOUS
 10
5.173520
 20
3.630000
  0
VERTEX
  8
0
  6
CONTINUOUS
 10
5.188480
 20
3.655960
  0
VERTEX
  8
0
  6
CONTINUOUS
 10
5.194640
 20
3.669600
  0
VERTEX
  8
0
  6
CONTINUOUS
 10
5.444120
 20
3.669600
  0
VERTEX
  8
0
  6
CONTINUOUS
 10
5.456880
 20
3.642320
  0
VERTEX
  8
0
  6
CONTINUOUS
 10
5.473600
 20
3.617680
  0
VERTEX
  8
0
  6
CONTINUOUS
 10
5.493840
 20
3.595240
  0
VERTEX
  8
0
  6
CONTINUOUS
 10
5.516720
 20
3.576320
  0
VERTEX
  8
0
  6
CONTINUOUS
 10
5.542240
 20
3.560480
  0
VERTEX
  8
0
  6
CONTINUOUS
 10
5.570400
 20
3.548600
  0
VERTEX
  8
0
  6
CONTINUOUS
 10
5.600320
 20
3.541560
  0
VERTEX
  8
0
  6
CONTINUOUS
 10
5.615720
 20
3.539360
  0
VERTEX
  8
0
  6
CONTINUOUS
 10
5.646960
 20
3.539360
  0
VERTEX
  8
0
  6
CONTINUOUS
 10
5.676880
 20
3.544640
  0
VERTEX
  8
0
  6
CONTINUOUS
 10
5.705480
 20
3.554320
  0
VERTEX
  8
0
  6
CONTINUOUS
 10
5.732320
 20
3.568400
  0
VERTEX
  8
0
  6
CONTINUOUS
 10
5.756520
 20
3.585560
  0
VERTEX
  8
0
  6
CONTINUOUS
 10
5.778520
 20
3.606680
  0
VERTEX
  8
0
  6
CONTINUOUS
 10
5.797000
 20
3.630000
  0
VERTEX
  8
0
  6
CONTINUOUS
 10
5.811960
 20
3.655960
  0
VERTEX
  8
0
  6
CONTINUOUS
 10
5.818120
 20
3.669600
  0
VERTEX
  8
0
  6
CONTINUOUS
 10
6.478120
 20
3.669600
  0
VERTEX
  8
0
  6
CONTINUOUS
 10
6.477680
 20
3.670040
  0
SEQEND
  8
0
  0
TEXT
  8
0
 10
4.063840
 20
3.235760
 40
0.138113
  1
BA  982
 41
1.000000
  7
SN0
 71
     0
 72
     5
 11
4.653569
 21
3.235760
  0
TEXT
  8
0
 10
3.861880
 20
3.043920
 40
0.138113
  1
3/4" x 4-3/16" 
 41
1.000000
  7
SN0
 71
     0
 72
     5
 11
4.899362
 21
3.043920
  0
ENDSEC
  0
EOF
