  0
SECTION
  2
HEADER
  9
$ACADVER
  1
AC1006
  9
$EXTMIN
 10
0.247720
 20
0.902440
  9
$EXTMAX
 10
8.249560
 20
6.717920
  9
$LTSCALE
 40
0.044000
  9
$PDMODE
 70
    35
  9
$PDSIZE
 40
0.035200
  0
ENDSEC
  0
SECTION
  2
TABLES
  0
TABLE
  2
LTYPE
 70
     9
  0
LTYPE
  2
CONTINUOUS
 70
    64
  3
Solid line
 72
    65
 73
     0
 40
0.000000
  0
LTYPE
  2
DASHED
 70
    64
  3
__ __ __ __ __ __ __ __ __ __ __ __ __ __ __
 72
    65
 73
     2
 40
0.000330
 49
0.000220
 49
-0.000110
  0
LTYPE
  2
HIDDEN
 70
    64
  3
 _ _ _ _ _ _ _ _ _ _ _ _ _ _ _ _ _ _ _ _ _ _
 72
    65
 73
     2
 40
0.000165
 49
0.000110
 49
-0.000055
  0
LTYPE
  2
CENTER
 70
    64
  3
____ _ ____ _ ____ _ ____ _ ____ _ ____ _ ____
 72
    65
 73
     4
 40
0.000880
 49
0.000550
 49
-0.000110
 49
0.000110
 49
-0.000110
  0
LTYPE
  2
PHANTOM
 70
    64
  3
_____ _ _ _____ _ _ _____ _ _ _____ _ _ ____
 72
    65
 73
     6
 40
0.001100
 49
0.000550
 49
-0.000110
 49
0.000110
 49
-0.000110
 49
0.000110
 49
-0.000110
  0
LTYPE
  2
DOT
 70
    64
  3
...............................................
 72
    65
 73
     2
 40
0.000110
 49
0.000000
 49
-0.000110
  0
LTYPE
  2
DASHDOT
 70
    64
  3
__ . __ . __ . __ . __ . __ . __ . __ . __ . __
 72
    65
 73
     4
 40
0.000440
 49
0.000220
 49
-0.000110
 49
0.000000
 49
-0.000110
  0
LTYPE
  2
BORDER
 70
    64
  3
__ __ . __ __ . __ __ . __ __ . __ __ . __ __
 72
    65
 73
     6
 40
0.000770
 49
0.000220
 49
-0.000110
 49
0.000220
 49
-0.000110
 49
0.000000
 49
-0.000110
  0
LTYPE
  2
DIVIDE
 70
    64
  3
__ . . __ . . __ . . __ . . __ . . __ . . __
 72
    65
 73
     6
 40
0.000550
 49
0.000220
 49
-0.000110
 49
0.000000
 49
-0.000110
 49
0.000000
 49
-0.000110
  0
LTYPE
  2
DOTDOT
 70
    64
  3
 . .  . .  . .  . .  . .  . . 
 72
    65
 73
     5
 40
0.000242
 49
-0.000110
 49
0.000000
 49
-0.000110
 49
0.000000
 49
-0.000110
  0
ENDTAB
  0
TABLE
  2
STYLE
 70
     2
  0
STYLE
 70
     0
  2
SN0
 40
0.000000
 41
0.000440
 50
0.000000
 71
     0
 42
0.000000
  3
ROMAND
  0
STYLE
 70
    68
  2
SV0
 40
0.000000
 41
0.000440
 50
0.000000
 71
     0
 42
0.000000
  3
ROMAND
  0
ENDTAB
  0
TABLE
  2
LAYER
 70
     3
  0
LAYER
  2
FOREGROUND
 70
    64
 62
     7
  6
CONTINUOUS
  0
LAYER
  2
BACKGROUND
 70
    65
 62
    -7
  6
CONTINUOUS
  0
LAYER
  2
0
 70
    64
 62
     7
  6
CONTINUOUS
  0
ENDTAB
  0
ENDSEC
  0
SECTION
  2
ENTITIES
  0
POLYLINE
  8
FOREGROUND
  6
CONTINUOUS
 66
     1
 40
0.000000
 41
0.000000
  0
VERTEX
  8
FOREGROUND
  6
CONTINUOUS
 10
0.000000
 20
7.620360
  0
VERTEX
  8
FOREGROUND
  6
CONTINUOUS
 10
8.499920
 20
7.620360
  0
VERTEX
  8
FOREGROUND
  6
CONTINUOUS
 10
8.499920
 20
-3.379640
  0
VERTEX
  8
FOREGROUND
  6
CONTINUOUS
 10
0.000000
 20
-3.379640
  0
VERTEX
  8
FOREGROUND
  6
CONTINUOUS
 10
0.000000
 20
7.620360
  0
SEQEND
  8
0
  0
POLYLINE
  8
FOREGROUND
  6
CONTINUOUS
 66
     1
 40
0.000000
 41
0.000000
  0
VERTEX
  8
FOREGROUND
  6
CONTINUOUS
 10
0.000000
 20
7.620360
  0
VERTEX
  8
FOREGROUND
  6
CONTINUOUS
 10
8.499920
 20
7.620360
  0
VERTEX
  8
FOREGROUND
  6
CONTINUOUS
 10
8.499920
 20
-3.379640
  0
VERTEX
  8
FOREGROUND
  6
CONTINUOUS
 10
0.000000
 20
-3.379640
  0
VERTEX
  8
FOREGROUND
  6
CONTINUOUS
 10
0.000000
 20
7.620360
  0
SEQEND
  8
0
  0
TEXT
  8
0
 10
3.258200
 20
1.138720
 40
0.138270
  1
BA  981 1-7/8" x 7-3/8"
 41
1.000000
  7
SN0
 71
     0
 72
     5
 11
4.940587
 21
1.138720
  0
TEXT
  8
0
 10
3.258200
 20
0.946880
 40
0.138270
  1
BA  401 Sides
 41
1.000000
  7
SN0
 71
     0
 72
     5
 11
4.307241
 21
0.946880
  0
SOLID
  8
0
 62
    15
 10
7.318520
 20
2.318360
 11
7.967520
 21
2.680920
 12
7.307080
 22
2.145000
 13
7.956080
 23
2.508000
  0
POLYLINE
  8
0
  6
CONTINUOUS
 66
     1
 40
0.000000
 41
0.000000
  0
VERTEX
  8
0
  6
CONTINUOUS
 10
7.318520
 20
2.318360
  0
VERTEX
  8
0
  6
CONTINUOUS
 10
7.967520
 20
2.680920
  0
VERTEX
  8
0
  6
CONTINUOUS
 10
7.956080
 20
2.508000
  0
VERTEX
  8
0
  6
CONTINUOUS
 10
7.307080
 20
2.145000
  0
VERTEX
  8
0
  6
CONTINUOUS
 10
7.318520
 20
2.318360
  0
SEQEND
  8
0
  0
SOLID
  8
0
 62
    15
 10
7.600560
 20
2.992440
 11
8.249560
 21
3.355000
 12
7.600560
 22
2.654520
 13
8.249560
 23
3.017520
  0
POLYLINE
  8
0
  6
CONTINUOUS
 66
     1
 40
0.000000
 41
0.000000
  0
VERTEX
  8
0
  6
CONTINUOUS
 10
7.600560
 20
2.992440
  0
VERTEX
  8
0
  6
CONTINUOUS
 10
8.249560
 20
3.355000
  0
VERTEX
  8
0
  6
CONTINUOUS
 10
8.249560
 20
3.017520
  0
VERTEX
  8
0
  6
CONTINUOUS
 10
7.600560
 20
2.654520
  0
VERTEX
  8
0
  6
CONTINUOUS
 10
7.600560
 20
2.992440
  0
SEQEND
  8
0
  0
SOLID
  8
0
 62
    15
 10
0.248600
 20
2.993760
 11
0.897600
 21
3.356320
 12
3.925240
 22
3.324640
 13
4.574240
 23
3.687640
  0
POLYLINE
  8
0
  6
CONTINUOUS
 66
     1
 40
0.000000
 41
0.000000
  0
VERTEX
  8
0
  6
CONTINUOUS
 10
0.248600
 20
2.993760
  0
VERTEX
  8
0
  6
CONTINUOUS
 10
0.897600
 20
3.356320
  0
VERTEX
  8
0
  6
CONTINUOUS
 10
4.574240
 20
3.687640
  0
VERTEX
  8
0
  6
CONTINUOUS
 10
3.925240
 20
3.324640
  0
VERTEX
  8
0
  6
CONTINUOUS
 10
0.248600
 20
2.993760
  0
SEQEND
  8
0
  0
SOLID
  8
0
 62
    15
 10
7.517840
 20
2.628120
 11
8.166840
 21
2.991120
 12
7.451840
 22
2.587640
 13
8.100840
 23
2.950200
  0
POLYLINE
  8
0
  6
CONTINUOUS
 66
     1
 40
0.000000
 41
0.000000
  0
VERTEX
  8
0
  6
CONTINUOUS
 10
7.517840
 20
2.628120
  0
VERTEX
  8
0
  6
CONTINUOUS
 10
8.166840
 20
2.991120
  0
VERTEX
  8
0
  6
CONTINUOUS
 10
8.100840
 20
2.950200
  0
VERTEX
  8
0
  6
CONTINUOUS
 10
7.451840
 20
2.587640
  0
VERTEX
  8
0
  6
CONTINUOUS
 10
7.517840
 20
2.628120
  0
SEQEND
  8
0
  0
SOLID
  8
0
 62
    15
 10
7.451840
 20
2.587640
 11
8.100840
 21
2.950200
 12
7.400360
 22
2.534400
 13
8.049360
 23
2.896960
  0
POLYLINE
  8
0
  6
CONTINUOUS
 66
     1
 40
0.000000
 41
0.000000
  0
VERTEX
  8
0
  6
CONTINUOUS
 10
7.451840
 20
2.587640
  0
VERTEX
  8
0
  6
CONTINUOUS
 10
8.100840
 20
2.950200
  0
VERTEX
  8
0
  6
CONTINUOUS
 10
8.049360
 20
2.896960
  0
VERTEX
  8
0
  6
CONTINUOUS
 10
7.400360
 20
2.534400
  0
VERTEX
  8
0
  6
CONTINUOUS
 10
7.451840
 20
2.587640
  0
SEQEND
  8
0
  0
SOLID
  8
0
 62
    15
 10
7.400360
 20
2.534400
 11
8.049360
 21
2.896960
 12
7.362080
 22
2.470600
 13
8.011520
 23
2.833160
  0
POLYLINE
  8
0
  6
CONTINUOUS
 66
     1
 40
0.000000
 41
0.000000
  0
VERTEX
  8
0
  6
CONTINUOUS
 10
7.400360
 20
2.534400
  0
VERTEX
  8
0
  6
CONTINUOUS
 10
8.049360
 20
2.896960
  0
VERTEX
  8
0
  6
CONTINUOUS
 10
8.011520
 20
2.833160
  0
VERTEX
  8
0
  6
CONTINUOUS
 10
7.362080
 20
2.470600
  0
VERTEX
  8
0
  6
CONTINUOUS
 10
7.400360
 20
2.534400
  0
SEQEND
  8
0
  0
SOLID
  8
0
 62
    15
 10
7.362080
 20
2.470600
 11
8.011520
 21
2.833160
 12
7.335680
 22
2.398000
 13
7.984680
 23
2.760560
  0
POLYLINE
  8
0
  6
CONTINUOUS
 66
     1
 40
0.000000
 41
0.000000
  0
VERTEX
  8
0
  6
CONTINUOUS
 10
7.362080
 20
2.470600
  0
VERTEX
  8
0
  6
CONTINUOUS
 10
8.011520
 20
2.833160
  0
VERTEX
  8
0
  6
CONTINUOUS
 10
7.984680
 20
2.760560
  0
VERTEX
  8
0
  6
CONTINUOUS
 10
7.335680
 20
2.398000
  0
VERTEX
  8
0
  6
CONTINUOUS
 10
7.362080
 20
2.470600
  0
SEQEND
  8
0
  0
SOLID
  8
0
 62
    15
 10
7.335680
 20
2.398000
 11
7.984680
 21
2.760560
 12
7.318520
 22
2.318360
 13
7.967520
 23
2.680920
  0
POLYLINE
  8
0
  6
CONTINUOUS
 66
     1
 40
0.000000
 41
0.000000
  0
VERTEX
  8
0
  6
CONTINUOUS
 10
7.335680
 20
2.398000
  0
VERTEX
  8
0
  6
CONTINUOUS
 10
7.984680
 20
2.760560
  0
VERTEX
  8
0
  6
CONTINUOUS
 10
7.967520
 20
2.680920
  0
VERTEX
  8
0
  6
CONTINUOUS
 10
7.318520
 20
2.318360
  0
VERTEX
  8
0
  6
CONTINUOUS
 10
7.335680
 20
2.398000
  0
SEQEND
  8
0
  0
SOLID
  8
0
 62
    15
 10
3.925240
 20
3.325080
 11
4.574240
 21
3.687640
 12
7.600560
 22
2.992440
 13
8.249560
 23
3.355000
  0
POLYLINE
  8
0
  6
CONTINUOUS
 66
     1
 40
0.000000
 41
0.000000
  0
VERTEX
  8
0
  6
CONTINUOUS
 10
3.925240
 20
3.325080
  0
VERTEX
  8
0
  6
CONTINUOUS
 10
4.574240
 20
3.687640
  0
VERTEX
  8
0
  6
CONTINUOUS
 10
8.249560
 20
3.355000
  0
VERTEX
  8
0
  6
CONTINUOUS
 10
7.600560
 20
2.992440
  0
VERTEX
  8
0
  6
CONTINUOUS
 10
3.925240
 20
3.325080
  0
SEQEND
  8
0
  0
SOLID
  8
0
 62
    15
 10
7.307080
 20
2.145000
 11
7.956080
 21
2.508000
 12
7.302680
 22
2.055680
 13
7.951680
 23
2.418680
  0
POLYLINE
  8
0
  6
CONTINUOUS
 66
     1
 40
0.000000
 41
0.000000
  0
VERTEX
  8
0
  6
CONTINUOUS
 10
7.307080
 20
2.145000
  0
VERTEX
  8
0
  6
CONTINUOUS
 10
7.956080
 20
2.508000
  0
VERTEX
  8
0
  6
CONTINUOUS
 10
7.951680
 20
2.418680
  0
VERTEX
  8
0
  6
CONTINUOUS
 10
7.302680
 20
2.055680
  0
VERTEX
  8
0
  6
CONTINUOUS
 10
7.307080
 20
2.145000
  0
SEQEND
  8
0
  0
SOLID
  8
0
 62
    15
 10
7.302680
 20
2.055680
 11
7.951680
 21
2.418680
 12
7.288600
 22
1.967680
 13
7.937600
 23
2.330680
  0
POLYLINE
  8
0
  6
CONTINUOUS
 66
     1
 40
0.000000
 41
0.000000
  0
VERTEX
  8
0
  6
CONTINUOUS
 10
7.302680
 20
2.055680
  0
VERTEX
  8
0
  6
CONTINUOUS
 10
7.951680
 20
2.418680
  0
VERTEX
  8
0
  6
CONTINUOUS
 10
7.937600
 20
2.330680
  0
VERTEX
  8
0
  6
CONTINUOUS
 10
7.288600
 20
1.967680
  0
VERTEX
  8
0
  6
CONTINUOUS
 10
7.302680
 20
2.055680
  0
SEQEND
  8
0
  0
SOLID
  8
0
 62
    15
 10
7.288600
 20
1.967680
 11
7.937600
 21
2.330680
 12
7.263080
 22
1.884520
 13
7.912080
 23
2.247080
  0
POLYLINE
  8
0
  6
CONTINUOUS
 66
     1
 40
0.000000
 41
0.000000
  0
VERTEX
  8
0
  6
CONTINUOUS
 10
7.288600
 20
1.967680
  0
VERTEX
  8
0
  6
CONTINUOUS
 10
7.937600
 20
2.330680
  0
VERTEX
  8
0
  6
CONTINUOUS
 10
7.912080
 20
2.247080
  0
VERTEX
  8
0
  6
CONTINUOUS
 10
7.263080
 20
1.884520
  0
VERTEX
  8
0
  6
CONTINUOUS
 10
7.288600
 20
1.967680
  0
SEQEND
  8
0
  0
SOLID
  8
0
 62
    15
 10
7.263080
 20
1.884520
 11
7.912080
 21
2.247080
 12
7.225240
 22
1.808840
 13
7.874240
 23
2.171840
  0
POLYLINE
  8
0
  6
CONTINUOUS
 66
     1
 40
0.000000
 41
0.000000
  0
VERTEX
  8
0
  6
CONTINUOUS
 10
7.263080
 20
1.884520
  0
VERTEX
  8
0
  6
CONTINUOUS
 10
7.912080
 20
2.247080
  0
VERTEX
  8
0
  6
CONTINUOUS
 10
7.874240
 20
2.171840
  0
VERTEX
  8
0
  6
CONTINUOUS
 10
7.225240
 20
1.808840
  0
VERTEX
  8
0
  6
CONTINUOUS
 10
7.263080
 20
1.884520
  0
SEQEND
  8
0
  0
SOLID
  8
0
 62
    15
 10
7.225240
 20
1.808840
 11
7.874240
 21
2.171840
 12
7.173320
 22
1.744160
 13
7.822320
 23
2.107160
  0
POLYLINE
  8
0
  6
CONTINUOUS
 66
     1
 40
0.000000
 41
0.000000
  0
VERTEX
  8
0
  6
CONTINUOUS
 10
7.225240
 20
1.808840
  0
VERTEX
  8
0
  6
CONTINUOUS
 10
7.874240
 20
2.171840
  0
VERTEX
  8
0
  6
CONTINUOUS
 10
7.822320
 20
2.107160
  0
VERTEX
  8
0
  6
CONTINUOUS
 10
7.173320
 20
1.744160
  0
VERTEX
  8
0
  6
CONTINUOUS
 10
7.225240
 20
1.808840
  0
SEQEND
  8
0
  0
SOLID
  8
0
 62
    15
 10
7.173320
 20
1.744160
 11
7.822320
 21
2.107160
 12
7.106000
 22
1.693560
 13
7.755000
 23
2.056560
  0
POLYLINE
  8
0
  6
CONTINUOUS
 66
     1
 40
0.000000
 41
0.000000
  0
VERTEX
  8
0
  6
CONTINUOUS
 10
7.173320
 20
1.744160
  0
VERTEX
  8
0
  6
CONTINUOUS
 10
7.822320
 20
2.107160
  0
VERTEX
  8
0
  6
CONTINUOUS
 10
7.755000
 20
2.056560
  0
VERTEX
  8
0
  6
CONTINUOUS
 10
7.106000
 20
1.693560
  0
VERTEX
  8
0
  6
CONTINUOUS
 10
7.173320
 20
1.744160
  0
SEQEND
  8
0
  0
SOLID
  8
0
 62
    15
 10
6.919440
 20
1.646920
 11
7.568440
 21
2.009920
 12
6.919440
 22
1.466080
 13
7.568440
 23
1.829080
  0
POLYLINE
  8
0
  6
CONTINUOUS
 66
     1
 40
0.000000
 41
0.000000
  0
VERTEX
  8
0
  6
CONTINUOUS
 10
6.919440
 20
1.646920
  0
VERTEX
  8
0
  6
CONTINUOUS
 10
7.568440
 20
2.009920
  0
VERTEX
  8
0
  6
CONTINUOUS
 10
7.568440
 20
1.829080
  0
VERTEX
  8
0
  6
CONTINUOUS
 10
6.919440
 20
1.466080
  0
VERTEX
  8
0
  6
CONTINUOUS
 10
6.919440
 20
1.646920
  0
SEQEND
  8
0
  0
POLYLINE
  8
0
  6
CONTINUOUS
 66
     1
 40
0.000000
 41
0.000000
  0
VERTEX
  8
0
  6
CONTINUOUS
 10
0.929280
 20
1.467400
  0
VERTEX
  8
0
  6
CONTINUOUS
 10
0.929280
 20
1.648240
  0
VERTEX
  8
0
  6
CONTINUOUS
 10
0.826760
 20
1.661440
  0
VERTEX
  8
0
  6
CONTINUOUS
 10
0.742720
 20
1.694880
  0
VERTEX
  8
0
  6
CONTINUOUS
 10
0.675400
 20
1.745480
  0
VERTEX
  8
0
  6
CONTINUOUS
 10
0.623480
 20
1.810160
  0
VERTEX
  8
0
  6
CONTINUOUS
 10
0.585640
 20
1.885840
  0
VERTEX
  8
0
  6
CONTINUOUS
 10
0.560120
 20
1.969000
  0
VERTEX
  8
0
  6
CONTINUOUS
 10
0.546040
 20
2.057000
  0
VERTEX
  8
0
  6
CONTINUOUS
 10
0.541640
 20
2.146320
  0
VERTEX
  8
0
  6
CONTINUOUS
 10
0.530200
 20
2.319680
  0
VERTEX
  8
0
  6
CONTINUOUS
 10
0.513040
 20
2.399320
  0
VERTEX
  8
0
  6
CONTINUOUS
 10
0.486200
 20
2.471920
  0
VERTEX
  8
0
  6
CONTINUOUS
 10
0.448360
 20
2.535720
  0
VERTEX
  8
0
  6
CONTINUOUS
 10
0.396880
 20
2.588520
  0
VERTEX
  8
0
  6
CONTINUOUS
 10
0.330880
 20
2.629440
  0
VERTEX
  8
0
  6
CONTINUOUS
 10
0.248600
 20
2.655840
  0
VERTEX
  8
0
  6
CONTINUOUS
 10
0.248600
 20
2.993760
  0
VERTEX
  8
0
  6
CONTINUOUS
 10
3.925240
 20
3.324640
  0
VERTEX
  8
0
  6
CONTINUOUS
 10
3.925240
 20
3.325080
  0
VERTEX
  8
0
  6
CONTINUOUS
 10
7.600560
 20
2.992440
  0
VERTEX
  8
0
  6
CONTINUOUS
 10
7.600560
 20
2.654520
  0
VERTEX
  8
0
  6
CONTINUOUS
 10
7.517840
 20
2.628120
  0
VERTEX
  8
0
  6
CONTINUOUS
 10
7.451840
 20
2.587640
  0
VERTEX
  8
0
  6
CONTINUOUS
 10
7.400360
 20
2.534400
  0
VERTEX
  8
0
  6
CONTINUOUS
 10
7.362080
 20
2.470600
  0
VERTEX
  8
0
  6
CONTINUOUS
 10
7.335680
 20
2.398000
  0
VERTEX
  8
0
  6
CONTINUOUS
 10
7.318520
 20
2.318360
  0
VERTEX
  8
0
  6
CONTINUOUS
 10
7.307080
 20
2.145000
  0
VERTEX
  8
0
  6
CONTINUOUS
 10
7.302680
 20
2.055680
  0
VERTEX
  8
0
  6
CONTINUOUS
 10
7.288600
 20
1.967680
  0
VERTEX
  8
0
  6
CONTINUOUS
 10
7.263080
 20
1.884520
  0
VERTEX
  8
0
  6
CONTINUOUS
 10
7.225240
 20
1.808840
  0
VERTEX
  8
0
  6
CONTINUOUS
 10
7.173320
 20
1.744160
  0
VERTEX
  8
0
  6
CONTINUOUS
 10
7.106000
 20
1.693560
  0
VERTEX
  8
0
  6
CONTINUOUS
 10
7.021960
 20
1.660120
  0
VERTEX
  8
0
  6
CONTINUOUS
 10
6.919440
 20
1.646920
  0
VERTEX
  8
0
  6
CONTINUOUS
 10
6.919440
 20
1.466080
  0
VERTEX
  8
0
  6
CONTINUOUS
 10
0.927960
 20
1.466080
  0
VERTEX
  8
0
  6
CONTINUOUS
 10
0.929280
 20
1.467400
  0
SEQEND
  8
0
  0
POLYLINE
  8
0
  6
CONTINUOUS
 66
     1
 40
0.000000
 41
0.000000
  0
VERTEX
  8
0
  6
CONTINUOUS
 10
7.568000
 20
1.965040
  0
VERTEX
  8
0
  6
CONTINUOUS
 10
7.822320
 20
2.107160
  0
VERTEX
  8
0
  6
CONTINUOUS
 10
7.822760
 20
2.108040
  0
VERTEX
  8
0
  6
CONTINUOUS
 10
7.824960
 20
2.110240
  0
VERTEX
  8
0
  6
CONTINUOUS
 10
7.827600
 20
2.113760
  0
VERTEX
  8
0
  6
CONTINUOUS
 10
7.831560
 20
2.118160
  0
VERTEX
  8
0
  6
CONTINUOUS
 10
7.835960
 20
2.123440
  0
VERTEX
  8
0
  6
CONTINUOUS
 10
7.840800
 20
2.129600
  0
VERTEX
  8
0
  6
CONTINUOUS
 10
7.851360
 20
2.142800
  0
VERTEX
  8
0
  6
CONTINUOUS
 10
7.862360
 20
2.156440
  0
VERTEX
  8
0
  6
CONTINUOUS
 10
7.867200
 20
2.163040
  0
VERTEX
  8
0
  6
CONTINUOUS
 10
7.871600
 20
2.169200
  0
VERTEX
  8
0
  6
CONTINUOUS
 10
7.875560
 20
2.174480
  0
VERTEX
  8
0
  6
CONTINUOUS
 10
7.878640
 20
2.178880
  0
VERTEX
  8
0
  6
CONTINUOUS
 10
7.880840
 20
2.182400
  0
VERTEX
  8
0
  6
CONTINUOUS
 10
7.881720
 20
2.184600
  0
VERTEX
  8
0
  6
CONTINUOUS
 10
7.232720
 20
1.822040
  0
VERTEX
  8
0
  6
CONTINUOUS
 10
7.221280
 20
1.807080
  0
VERTEX
  8
0
  6
CONTINUOUS
 10
7.211600
 20
1.793000
  0
VERTEX
  8
0
  6
CONTINUOUS
 10
7.201920
 20
1.779360
  0
VERTEX
  8
0
  6
CONTINUOUS
 10
7.192240
 20
1.766600
  0
VERTEX
  8
0
  6
CONTINUOUS
 10
7.181680
 20
1.753840
  0
VERTEX
  8
0
  6
CONTINUOUS
 10
7.169360
 20
1.741520
  0
VERTEX
  8
0
  6
CONTINUOUS
 10
7.154840
 20
1.729640
  0
VERTEX
  8
0
  6
CONTINUOUS
 10
7.146920
 20
1.723480
  0
VERTEX
  8
0
  6
CONTINUOUS
 10
7.137680
 20
1.717320
  0
VERTEX
  8
0
  6
CONTINUOUS
 10
7.569760
 20
1.965480
  0
VERTEX
  8
0
  6
CONTINUOUS
 10
7.139880
 20
1.717320
  0
VERTEX
  8
0
  6
CONTINUOUS
 10
7.568000
 20
1.965040
  0
SEQEND
  8
0
  0
POLYLINE
  8
0
  6
CONTINUOUS
 66
     1
 40
0.000000
 41
0.000000
  0
VERTEX
  8
0
  6
CONTINUOUS
 10
4.252160
 20
6.717480
  0
VERTEX
  8
0
  6
CONTINUOUS
 10
7.938920
 20
6.390560
  0
VERTEX
  8
0
  6
CONTINUOUS
 10
7.940240
 20
6.392320
  0
VERTEX
  8
0
  6
CONTINUOUS
 10
7.940240
 20
6.004680
  0
VERTEX
  8
0
  6
CONTINUOUS
 10
7.896680
 20
5.993240
  0
VERTEX
  8
0
  6
CONTINUOUS
 10
7.857520
 20
5.978280
  0
VERTEX
  8
0
  6
CONTINUOUS
 10
7.822760
 20
5.959800
  0
VERTEX
  8
0
  6
CONTINUOUS
 10
7.791520
 20
5.937800
  0
VERTEX
  8
0
  6
CONTINUOUS
 10
7.764240
 20
5.912720
  0
VERTEX
  8
0
  6
CONTINUOUS
 10
7.729480
 20
5.869600
  0
VERTEX
  8
0
  6
CONTINUOUS
 10
7.702200
 20
5.820760
  0
VERTEX
  8
0
  6
CONTINUOUS
 10
7.687240
 20
5.785560
  0
VERTEX
  8
0
  6
CONTINUOUS
 10
7.670080
 20
5.728800
  0
VERTEX
  8
0
  6
CONTINUOUS
 10
7.658200
 20
5.668520
  0
VERTEX
  8
0
  6
CONTINUOUS
 10
7.652920
 20
5.626280
  0
VERTEX
  8
0
  6
CONTINUOUS
 10
7.647200
 20
5.539600
  0
VERTEX
  8
0
  6
CONTINUOUS
 10
7.645880
 20
5.450280
  0
VERTEX
  8
0
  6
CONTINUOUS
 10
7.639720
 20
5.383400
  0
VERTEX
  8
0
  6
CONTINUOUS
 10
7.628280
 20
5.317840
  0
VERTEX
  8
0
  6
CONTINUOUS
 10
7.616840
 20
5.275160
  0
VERTEX
  8
0
  6
CONTINUOUS
 10
7.602760
 20
5.234680
  0
VERTEX
  8
0
  6
CONTINUOUS
 10
7.585600
 20
5.195520
  0
VERTEX
  8
0
  6
CONTINUOUS
 10
7.564920
 20
5.159000
  0
VERTEX
  8
0
  6
CONTINUOUS
 10
7.540720
 20
5.125120
  0
VERTEX
  8
0
  6
CONTINUOUS
 10
7.513000
 20
5.094320
  0
VERTEX
  8
0
  6
CONTINUOUS
 10
7.481320
 20
5.067040
  0
VERTEX
  8
0
  6
CONTINUOUS
 10
7.445680
 20
5.043720
  0
VERTEX
  8
0
  6
CONTINUOUS
 10
7.426320
 20
5.033600
  0
VERTEX
  8
0
  6
CONTINUOUS
 10
7.384080
 20
5.016880
  0
VERTEX
  8
0
  6
CONTINUOUS
 10
7.361640
 20
5.010280
  0
VERTEX
  8
0
  6
CONTINUOUS
 10
7.337880
 20
5.005000
  0
VERTEX
  8
0
  6
CONTINUOUS
 10
7.312800
 20
5.001040
  0
VERTEX
  8
0
  6
CONTINUOUS
 10
7.259120
 20
4.997080
  0
VERTEX
  8
0
  6
CONTINUOUS
 10
7.258680
 20
4.705800
  0
VERTEX
  8
0
  6
CONTINUOUS
 10
1.247400
 20
4.705800
  0
VERTEX
  8
0
  6
CONTINUOUS
 10
1.246960
 20
4.995320
  0
VERTEX
  8
0
  6
CONTINUOUS
 10
1.193280
 20
4.999280
  0
VERTEX
  8
0
  6
CONTINUOUS
 10
1.168200
 20
5.003240
  0
VERTEX
  8
0
  6
CONTINUOUS
 10
1.121560
 20
5.015120
  0
VERTEX
  8
0
  6
CONTINUOUS
 10
1.079760
 20
5.031840
  0
VERTEX
  8
0
  6
CONTINUOUS
 10
1.059960
 20
5.041960
  0
VERTEX
  8
0
  6
CONTINUOUS
 10
1.024320
 20
5.065720
  0
VERTEX
  8
0
  6
CONTINUOUS
 10
0.992640
 20
5.093000
  0
VERTEX
  8
0
  6
CONTINUOUS
 10
0.964920
 20
5.123360
  0
VERTEX
  8
0
  6
CONTINUOUS
 10
0.941160
 20
5.157240
  0
VERTEX
  8
0
  6
CONTINUOUS
 10
0.920480
 20
5.194200
  0
VERTEX
  8
0
  6
CONTINUOUS
 10
0.902880
 20
5.232920
  0
VERTEX
  8
0
  6
CONTINUOUS
 10
0.888800
 20
5.273840
  0
VERTEX
  8
0
  6
CONTINUOUS
 10
0.873400
 20
5.338080
  0
VERTEX
  8
0
  6
CONTINUOUS
 10
0.863720
 20
5.404520
  0
VERTEX
  8
0
  6
CONTINUOUS
 10
0.860200
 20
5.448960
  0
VERTEX
  8
0
  6
CONTINUOUS
 10
0.858880
 20
5.538280
  0
VERTEX
  8
0
  6
CONTINUOUS
 10
0.853160
 20
5.624960
  0
VERTEX
  8
0
  6
CONTINUOUS
 10
0.844360
 20
5.687440
  0
VERTEX
  8
0
  6
CONTINUOUS
 10
0.830720
 20
5.746400
  0
VERTEX
  8
0
  6
CONTINUOUS
 10
0.818840
 20
5.783800
  0
VERTEX
  8
0
  6
CONTINUOUS
 10
0.795520
 20
5.835720
  0
VERTEX
  8
0
  6
CONTINUOUS
 10
0.776600
 20
5.867840
  0
VERTEX
  8
0
  6
CONTINUOUS
 10
0.754160
 20
5.897320
  0
VERTEX
  8
0
  6
CONTINUOUS
 10
0.728640
 20
5.923720
  0
VERTEX
  8
0
  6
CONTINUOUS
 10
0.699600
 20
5.947480
  0
VERTEX
  8
0
  6
CONTINUOUS
 10
0.666600
 20
5.967720
  0
VERTEX
  8
0
  6
CONTINUOUS
 10
0.629200
 20
5.984440
  0
VERTEX
  8
0
  6
CONTINUOUS
 10
0.588280
 20
5.997640
  0
VERTEX
  8
0
  6
CONTINUOUS
 10
0.565840
 20
6.002920
  0
VERTEX
  8
0
  6
CONTINUOUS
 10
0.565840
 20
6.390560
  0
VERTEX
  8
0
  6
CONTINUOUS
 10
0.566720
 20
6.389240
  0
VERTEX
  8
0
  6
CONTINUOUS
 10
4.252160
 20
6.717480
  0
SEQEND
  8
0
  0
TEXT
  8
0
 10
3.957800
 20
5.198160
 40
0.138270
  1
BA  981
 41
1.000000
  7
SN0
 71
     0
 72
     5
 11
4.547136
 21
5.198160
  0
TEXT
  8
0
 10
3.728120
 20
5.006320
 40
0.138270
  1
1-7/8" x 7-3/8"
 41
1.000000
  7
SN0
 71
     0
 72
     5
 11
4.775561
 21
5.006320
  0
TEXT
  8
0
 10
3.727240
 20
4.814920
 40
0.138270
  1
BA  401 Sides
 41
1.000000
  7
SN0
 71
     0
 72
     5
 11
4.776281
 21
4.814920
  0
ENDSEC
  0
EOF
