  0
SECTION
  2
HEADER
  9
$ACADVER
  1
AC1006
  9
$EXTMIN
 10
4.464680
 20
0.668800
  9
$EXTMAX
 10
8.004480
 20
3.692480
  9
$LTSCALE
 40
0.044000
  9
$PDMODE
 70
    35
  9
$PDSIZE
 40
0.035200
  0
ENDSEC
  0
SECTION
  2
TABLES
  0
TABLE
  2
LTYPE
 70
     9
  0
LTYPE
  2
CONTINUOUS
 70
    64
  3
Solid line
 72
    65
 73
     0
 40
0.000000
  0
LTYPE
  2
DASHED
 70
    64
  3
__ __ __ __ __ __ __ __ __ __ __ __ __ __ __
 72
    65
 73
     2
 40
0.000330
 49
0.000220
 49
-0.000110
  0
LTYPE
  2
HIDDEN
 70
    64
  3
 _ _ _ _ _ _ _ _ _ _ _ _ _ _ _ _ _ _ _ _ _ _
 72
    65
 73
     2
 40
0.000165
 49
0.000110
 49
-0.000055
  0
LTYPE
  2
CENTER
 70
    64
  3
____ _ ____ _ ____ _ ____ _ ____ _ ____ _ ____
 72
    65
 73
     4
 40
0.000880
 49
0.000550
 49
-0.000110
 49
0.000110
 49
-0.000110
  0
LTYPE
  2
PHANTOM
 70
    64
  3
_____ _ _ _____ _ _ _____ _ _ _____ _ _ ____
 72
    65
 73
     6
 40
0.001100
 49
0.000550
 49
-0.000110
 49
0.000110
 49
-0.000110
 49
0.000110
 49
-0.000110
  0
LTYPE
  2
DOT
 70
    64
  3
...............................................
 72
    65
 73
     2
 40
0.000110
 49
0.000000
 49
-0.000110
  0
LTYPE
  2
DASHDOT
 70
    64
  3
__ . __ . __ . __ . __ . __ . __ . __ . __ . __
 72
    65
 73
     4
 40
0.000440
 49
0.000220
 49
-0.000110
 49
0.000000
 49
-0.000110
  0
LTYPE
  2
BORDER
 70
    64
  3
__ __ . __ __ . __ __ . __ __ . __ __ . __ __
 72
    65
 73
     6
 40
0.000770
 49
0.000220
 49
-0.000110
 49
0.000220
 49
-0.000110
 49
0.000000
 49
-0.000110
  0
LTYPE
  2
DIVIDE
 70
    64
  3
__ . . __ . . __ . . __ . . __ . . __ . . __
 72
    65
 73
     6
 40
0.000550
 49
0.000220
 49
-0.000110
 49
0.000000
 49
-0.000110
 49
0.000000
 49
-0.000110
  0
LTYPE
  2
DOTDOT
 70
    64
  3
 . .  . .  . .  . .  . .  . . 
 72
    65
 73
     5
 40
0.000242
 49
-0.000110
 49
0.000000
 49
-0.000110
 49
0.000000
 49
-0.000110
  0
ENDTAB
  0
TABLE
  2
STYLE
 70
     2
  0
STYLE
 70
     0
  2
SN0
 40
0.000000
 41
0.000440
 50
0.000000
 71
     0
 42
0.000000
  3
ROMAND
  0
STYLE
 70
    68
  2
SV0
 40
0.000000
 41
0.000440
 50
0.000000
 71
     0
 42
0.000000
  3
ROMAND
  0
ENDTAB
  0
TABLE
  2
LAYER
 70
     3
  0
LAYER
  2
FOREGROUND
 70
    64
 62
     7
  6
CONTINUOUS
  0
LAYER
  2
BACKGROUND
 70
    65
 62
    -7
  6
CONTINUOUS
  0
LAYER
  2
0
 70
    64
 62
     7
  6
CONTINUOUS
  0
ENDTAB
  0
ENDSEC
  0
SECTION
  2
ENTITIES
  0
POLYLINE
  8
FOREGROUND
  6
CONTINUOUS
 66
     1
 40
0.000000
 41
0.000000
  0
VERTEX
  8
FOREGROUND
  6
CONTINUOUS
 10
0.000000
 20
4.361280
  0
VERTEX
  8
FOREGROUND
  6
CONTINUOUS
 10
8.499920
 20
4.361280
  0
VERTEX
  8
FOREGROUND
  6
CONTINUOUS
 10
8.499920
 20
-6.638720
  0
VERTEX
  8
FOREGROUND
  6
CONTINUOUS
 10
0.000000
 20
-6.638720
  0
VERTEX
  8
FOREGROUND
  6
CONTINUOUS
 10
0.000000
 20
4.361280
  0
SEQEND
  8
0
  0
POLYLINE
  8
FOREGROUND
  6
CONTINUOUS
 66
     1
 40
0.000000
 41
0.000000
  0
VERTEX
  8
FOREGROUND
  6
CONTINUOUS
 10
0.000000
 20
4.361280
  0
VERTEX
  8
FOREGROUND
  6
CONTINUOUS
 10
8.499920
 20
4.361280
  0
VERTEX
  8
FOREGROUND
  6
CONTINUOUS
 10
8.499920
 20
-6.638720
  0
VERTEX
  8
FOREGROUND
  6
CONTINUOUS
 10
0.000000
 20
-6.638720
  0
VERTEX
  8
FOREGROUND
  6
CONTINUOUS
 10
0.000000
 20
4.361280
  0
SEQEND
  8
0
  0
SOLID
  8
0
 62
    15
 10
7.637080
 20
1.727880
 11
7.637080
 21
2.467520
 12
7.693840
 22
1.727880
 13
7.693840
 23
2.467520
  0
POLYLINE
  8
0
  6
CONTINUOUS
 66
     1
 40
0.000000
 41
0.000000
  0
VERTEX
  8
0
  6
CONTINUOUS
 10
7.637080
 20
1.727880
  0
VERTEX
  8
0
  6
CONTINUOUS
 10
7.637080
 20
2.467520
  0
VERTEX
  8
0
  6
CONTINUOUS
 10
7.693840
 20
2.467520
  0
VERTEX
  8
0
  6
CONTINUOUS
 10
7.693840
 20
1.727880
  0
VERTEX
  8
0
  6
CONTINUOUS
 10
7.637080
 20
1.727880
  0
SEQEND
  8
0
  0
SOLID
  8
0
 62
    15
 10
4.498560
 20
1.728760
 11
4.499000
 21
2.467960
 12
4.502080
 22
1.760000
 13
4.502080
 23
2.499200
  0
POLYLINE
  8
0
  6
CONTINUOUS
 66
     1
 40
0.000000
 41
0.000000
  0
VERTEX
  8
0
  6
CONTINUOUS
 10
4.498560
 20
1.728760
  0
VERTEX
  8
0
  6
CONTINUOUS
 10
4.499000
 20
2.467960
  0
VERTEX
  8
0
  6
CONTINUOUS
 10
4.502080
 20
2.499200
  0
VERTEX
  8
0
  6
CONTINUOUS
 10
4.502080
 20
1.760000
  0
VERTEX
  8
0
  6
CONTINUOUS
 10
4.498560
 20
1.728760
  0
SEQEND
  8
0
  0
SOLID
  8
0
 62
    15
 10
4.510880
 20
1.789040
 11
4.510880
 21
2.528680
 12
4.525400
 22
1.815440
 13
4.525400
 23
2.555080
  0
POLYLINE
  8
0
  6
CONTINUOUS
 66
     1
 40
0.000000
 41
0.000000
  0
VERTEX
  8
0
  6
CONTINUOUS
 10
4.510880
 20
1.789040
  0
VERTEX
  8
0
  6
CONTINUOUS
 10
4.510880
 20
2.528680
  0
VERTEX
  8
0
  6
CONTINUOUS
 10
4.525400
 20
2.555080
  0
VERTEX
  8
0
  6
CONTINUOUS
 10
4.525400
 20
1.815440
  0
VERTEX
  8
0
  6
CONTINUOUS
 10
4.510880
 20
1.789040
  0
SEQEND
  8
0
  0
SOLID
  8
0
 62
    15
 10
4.525400
 20
1.815440
 11
4.525400
 21
2.555080
 12
4.544320
 22
1.838320
 13
4.544320
 23
2.577960
  0
POLYLINE
  8
0
  6
CONTINUOUS
 66
     1
 40
0.000000
 41
0.000000
  0
VERTEX
  8
0
  6
CONTINUOUS
 10
4.525400
 20
1.815440
  0
VERTEX
  8
0
  6
CONTINUOUS
 10
4.525400
 20
2.555080
  0
VERTEX
  8
0
  6
CONTINUOUS
 10
4.544320
 20
2.577960
  0
VERTEX
  8
0
  6
CONTINUOUS
 10
4.544320
 20
1.838320
  0
VERTEX
  8
0
  6
CONTINUOUS
 10
4.525400
 20
1.815440
  0
SEQEND
  8
0
  0
SOLID
  8
0
 62
    15
 10
4.544320
 20
1.838320
 11
4.544320
 21
2.577960
 12
4.567200
 22
1.857680
 13
4.567200
 23
2.596880
  0
POLYLINE
  8
0
  6
CONTINUOUS
 66
     1
 40
0.000000
 41
0.000000
  0
VERTEX
  8
0
  6
CONTINUOUS
 10
4.544320
 20
1.838320
  0
VERTEX
  8
0
  6
CONTINUOUS
 10
4.544320
 20
2.577960
  0
VERTEX
  8
0
  6
CONTINUOUS
 10
4.567200
 20
2.596880
  0
VERTEX
  8
0
  6
CONTINUOUS
 10
4.567200
 20
1.857680
  0
VERTEX
  8
0
  6
CONTINUOUS
 10
4.544320
 20
1.838320
  0
SEQEND
  8
0
  0
SOLID
  8
0
 62
    15
 10
4.567200
 20
1.857680
 11
4.567200
 21
2.596880
 12
4.593600
 22
1.871760
 13
4.593600
 23
2.610960
  0
POLYLINE
  8
0
  6
CONTINUOUS
 66
     1
 40
0.000000
 41
0.000000
  0
VERTEX
  8
0
  6
CONTINUOUS
 10
4.567200
 20
1.857680
  0
VERTEX
  8
0
  6
CONTINUOUS
 10
4.567200
 20
2.596880
  0
VERTEX
  8
0
  6
CONTINUOUS
 10
4.593600
 20
2.610960
  0
VERTEX
  8
0
  6
CONTINUOUS
 10
4.593600
 20
1.871760
  0
VERTEX
  8
0
  6
CONTINUOUS
 10
4.567200
 20
1.857680
  0
SEQEND
  8
0
  0
SOLID
  8
0
 62
    15
 10
4.593600
 20
1.871760
 11
4.593600
 21
2.610960
 12
4.622640
 22
1.881000
 13
4.622640
 23
2.620200
  0
POLYLINE
  8
0
  6
CONTINUOUS
 66
     1
 40
0.000000
 41
0.000000
  0
VERTEX
  8
0
  6
CONTINUOUS
 10
4.593600
 20
1.871760
  0
VERTEX
  8
0
  6
CONTINUOUS
 10
4.593600
 20
2.610960
  0
VERTEX
  8
0
  6
CONTINUOUS
 10
4.622640
 20
2.620200
  0
VERTEX
  8
0
  6
CONTINUOUS
 10
4.622640
 20
1.881000
  0
VERTEX
  8
0
  6
CONTINUOUS
 10
4.593600
 20
1.871760
  0
SEQEND
  8
0
  0
SOLID
  8
0
 62
    15
 10
4.622640
 20
1.881000
 11
4.622640
 21
2.620200
 12
4.653880
 22
1.884080
 13
4.654320
 23
2.623280
  0
POLYLINE
  8
0
  6
CONTINUOUS
 66
     1
 40
0.000000
 41
0.000000
  0
VERTEX
  8
0
  6
CONTINUOUS
 10
4.622640
 20
1.881000
  0
VERTEX
  8
0
  6
CONTINUOUS
 10
4.622640
 20
2.620200
  0
VERTEX
  8
0
  6
CONTINUOUS
 10
4.654320
 20
2.623280
  0
VERTEX
  8
0
  6
CONTINUOUS
 10
4.653880
 20
1.884080
  0
VERTEX
  8
0
  6
CONTINUOUS
 10
4.622640
 20
1.881000
  0
SEQEND
  8
0
  0
SOLID
  8
0
 62
    15
 10
4.653880
 20
1.884080
 11
4.654320
 21
2.623280
 12
4.685120
 22
1.881000
 13
4.685560
 23
2.620200
  0
POLYLINE
  8
0
  6
CONTINUOUS
 66
     1
 40
0.000000
 41
0.000000
  0
VERTEX
  8
0
  6
CONTINUOUS
 10
4.653880
 20
1.884080
  0
VERTEX
  8
0
  6
CONTINUOUS
 10
4.654320
 20
2.623280
  0
VERTEX
  8
0
  6
CONTINUOUS
 10
4.685560
 20
2.620200
  0
VERTEX
  8
0
  6
CONTINUOUS
 10
4.685120
 20
1.881000
  0
VERTEX
  8
0
  6
CONTINUOUS
 10
4.653880
 20
1.884080
  0
SEQEND
  8
0
  0
SOLID
  8
0
 62
    15
 10
4.685120
 20
1.881000
 11
4.685560
 21
2.620200
 12
4.714160
 22
1.871760
 13
4.714600
 23
2.610960
  0
POLYLINE
  8
0
  6
CONTINUOUS
 66
     1
 40
0.000000
 41
0.000000
  0
VERTEX
  8
0
  6
CONTINUOUS
 10
4.685120
 20
1.881000
  0
VERTEX
  8
0
  6
CONTINUOUS
 10
4.685560
 20
2.620200
  0
VERTEX
  8
0
  6
CONTINUOUS
 10
4.714600
 20
2.610960
  0
VERTEX
  8
0
  6
CONTINUOUS
 10
4.714160
 20
1.871760
  0
VERTEX
  8
0
  6
CONTINUOUS
 10
4.685120
 20
1.881000
  0
SEQEND
  8
0
  0
SOLID
  8
0
 62
    15
 10
4.714160
 20
1.871760
 11
4.714600
 21
2.610960
 12
4.740560
 22
1.857680
 13
4.741000
 23
2.596880
  0
POLYLINE
  8
0
  6
CONTINUOUS
 66
     1
 40
0.000000
 41
0.000000
  0
VERTEX
  8
0
  6
CONTINUOUS
 10
4.714160
 20
1.871760
  0
VERTEX
  8
0
  6
CONTINUOUS
 10
4.714600
 20
2.610960
  0
VERTEX
  8
0
  6
CONTINUOUS
 10
4.741000
 20
2.596880
  0
VERTEX
  8
0
  6
CONTINUOUS
 10
4.740560
 20
1.857680
  0
VERTEX
  8
0
  6
CONTINUOUS
 10
4.714160
 20
1.871760
  0
SEQEND
  8
0
  0
SOLID
  8
0
 62
    15
 10
4.740560
 20
1.857680
 11
4.741000
 21
2.596880
 12
4.763880
 22
1.838320
 13
4.763880
 23
2.577960
  0
POLYLINE
  8
0
  6
CONTINUOUS
 66
     1
 40
0.000000
 41
0.000000
  0
VERTEX
  8
0
  6
CONTINUOUS
 10
4.740560
 20
1.857680
  0
VERTEX
  8
0
  6
CONTINUOUS
 10
4.741000
 20
2.596880
  0
VERTEX
  8
0
  6
CONTINUOUS
 10
4.763880
 20
2.577960
  0
VERTEX
  8
0
  6
CONTINUOUS
 10
4.763880
 20
1.838320
  0
VERTEX
  8
0
  6
CONTINUOUS
 10
4.740560
 20
1.857680
  0
SEQEND
  8
0
  0
SOLID
  8
0
 62
    15
 10
4.763880
 20
1.838320
 11
4.763880
 21
2.577960
 12
4.782800
 22
1.815440
 13
4.782800
 23
2.555080
  0
POLYLINE
  8
0
  6
CONTINUOUS
 66
     1
 40
0.000000
 41
0.000000
  0
VERTEX
  8
0
  6
CONTINUOUS
 10
4.763880
 20
1.838320
  0
VERTEX
  8
0
  6
CONTINUOUS
 10
4.763880
 20
2.577960
  0
VERTEX
  8
0
  6
CONTINUOUS
 10
4.782800
 20
2.555080
  0
VERTEX
  8
0
  6
CONTINUOUS
 10
4.782800
 20
1.815440
  0
VERTEX
  8
0
  6
CONTINUOUS
 10
4.763880
 20
1.838320
  0
SEQEND
  8
0
  0
SOLID
  8
0
 62
    15
 10
4.782800
 20
1.815440
 11
4.782800
 21
2.555080
 12
4.796880
 22
1.789040
 13
4.797320
 23
2.528680
  0
POLYLINE
  8
0
  6
CONTINUOUS
 66
     1
 40
0.000000
 41
0.000000
  0
VERTEX
  8
0
  6
CONTINUOUS
 10
4.782800
 20
1.815440
  0
VERTEX
  8
0
  6
CONTINUOUS
 10
4.782800
 20
2.555080
  0
VERTEX
  8
0
  6
CONTINUOUS
 10
4.797320
 20
2.528680
  0
VERTEX
  8
0
  6
CONTINUOUS
 10
4.796880
 20
1.789040
  0
VERTEX
  8
0
  6
CONTINUOUS
 10
4.782800
 20
1.815440
  0
SEQEND
  8
0
  0
SOLID
  8
0
 62
    15
 10
4.796880
 20
1.789040
 11
4.797320
 21
2.528680
 12
4.806120
 22
1.760000
 13
4.806120
 23
2.499200
  0
POLYLINE
  8
0
  6
CONTINUOUS
 66
     1
 40
0.000000
 41
0.000000
  0
VERTEX
  8
0
  6
CONTINUOUS
 10
4.796880
 20
1.789040
  0
VERTEX
  8
0
  6
CONTINUOUS
 10
4.797320
 20
2.528680
  0
VERTEX
  8
0
  6
CONTINUOUS
 10
4.806120
 20
2.499200
  0
VERTEX
  8
0
  6
CONTINUOUS
 10
4.806120
 20
1.760000
  0
VERTEX
  8
0
  6
CONTINUOUS
 10
4.796880
 20
1.789040
  0
SEQEND
  8
0
  0
SOLID
  8
0
 62
    15
 10
4.806120
 20
1.760000
 11
4.806120
 21
2.499200
 12
4.809200
 22
1.728760
 13
4.809200
 23
2.467960
  0
POLYLINE
  8
0
  6
CONTINUOUS
 66
     1
 40
0.000000
 41
0.000000
  0
VERTEX
  8
0
  6
CONTINUOUS
 10
4.806120
 20
1.760000
  0
VERTEX
  8
0
  6
CONTINUOUS
 10
4.806120
 20
2.499200
  0
VERTEX
  8
0
  6
CONTINUOUS
 10
4.809200
 20
2.467960
  0
VERTEX
  8
0
  6
CONTINUOUS
 10
4.809200
 20
1.728760
  0
VERTEX
  8
0
  6
CONTINUOUS
 10
4.806120
 20
1.760000
  0
SEQEND
  8
0
  0
SOLID
  8
0
 62
    15
 10
4.809200
 20
1.728760
 11
4.809200
 21
2.467960
 12
4.865960
 22
1.728760
 13
4.865960
 23
2.467960
  0
POLYLINE
  8
0
  6
CONTINUOUS
 66
     1
 40
0.000000
 41
0.000000
  0
VERTEX
  8
0
  6
CONTINUOUS
 10
4.809200
 20
1.728760
  0
VERTEX
  8
0
  6
CONTINUOUS
 10
4.809200
 20
2.467960
  0
VERTEX
  8
0
  6
CONTINUOUS
 10
4.865960
 20
2.467960
  0
VERTEX
  8
0
  6
CONTINUOUS
 10
4.865960
 20
1.728760
  0
VERTEX
  8
0
  6
CONTINUOUS
 10
4.809200
 20
1.728760
  0
SEQEND
  8
0
  0
SOLID
  8
0
 62
    15
 10
4.865960
 20
1.728760
 11
4.865960
 21
2.467960
 12
4.874320
 22
1.886280
 13
4.874320
 23
2.625920
  0
POLYLINE
  8
0
  6
CONTINUOUS
 66
     1
 40
0.000000
 41
0.000000
  0
VERTEX
  8
0
  6
CONTINUOUS
 10
4.865960
 20
1.728760
  0
VERTEX
  8
0
  6
CONTINUOUS
 10
4.865960
 20
2.467960
  0
VERTEX
  8
0
  6
CONTINUOUS
 10
4.874320
 20
2.625920
  0
VERTEX
  8
0
  6
CONTINUOUS
 10
4.874320
 20
1.886280
  0
VERTEX
  8
0
  6
CONTINUOUS
 10
4.865960
 20
1.728760
  0
SEQEND
  8
0
  0
SOLID
  8
0
 62
    15
 10
4.874320
 20
1.886280
 11
4.874320
 21
2.625920
 12
7.628280
 22
1.886280
 13
7.628720
 23
2.625920
  0
POLYLINE
  8
0
  6
CONTINUOUS
 66
     1
 40
0.000000
 41
0.000000
  0
VERTEX
  8
0
  6
CONTINUOUS
 10
4.874320
 20
1.886280
  0
VERTEX
  8
0
  6
CONTINUOUS
 10
4.874320
 20
2.625920
  0
VERTEX
  8
0
  6
CONTINUOUS
 10
7.628720
 20
2.625920
  0
VERTEX
  8
0
  6
CONTINUOUS
 10
7.628280
 20
1.886280
  0
VERTEX
  8
0
  6
CONTINUOUS
 10
4.874320
 20
1.886280
  0
SEQEND
  8
0
  0
SOLID
  8
0
 62
    15
 10
4.502080
 20
1.760000
 11
4.502080
 21
2.499200
 12
4.510880
 22
1.789040
 13
4.510880
 23
2.528680
  0
POLYLINE
  8
0
  6
CONTINUOUS
 66
     1
 40
0.000000
 41
0.000000
  0
VERTEX
  8
0
  6
CONTINUOUS
 10
4.502080
 20
1.760000
  0
VERTEX
  8
0
  6
CONTINUOUS
 10
4.502080
 20
2.499200
  0
VERTEX
  8
0
  6
CONTINUOUS
 10
4.510880
 20
2.528680
  0
VERTEX
  8
0
  6
CONTINUOUS
 10
4.510880
 20
1.789040
  0
VERTEX
  8
0
  6
CONTINUOUS
 10
4.502080
 20
1.760000
  0
SEQEND
  8
0
  0
SOLID
  8
0
 62
    15
 10
7.628720
 20
1.885400
 11
7.628720
 21
2.625040
 12
7.637080
 22
1.727880
 13
7.637080
 23
2.467520
  0
POLYLINE
  8
0
  6
CONTINUOUS
 66
     1
 40
0.000000
 41
0.000000
  0
VERTEX
  8
0
  6
CONTINUOUS
 10
7.628720
 20
1.885400
  0
VERTEX
  8
0
  6
CONTINUOUS
 10
7.628720
 20
2.625040
  0
VERTEX
  8
0
  6
CONTINUOUS
 10
7.637080
 20
2.467520
  0
VERTEX
  8
0
  6
CONTINUOUS
 10
7.637080
 20
1.727880
  0
VERTEX
  8
0
  6
CONTINUOUS
 10
7.628720
 20
1.885400
  0
SEQEND
  8
0
  0
SOLID
  8
0
 62
    15
 10
7.628280
 20
1.886280
 11
7.628720
 21
2.625920
 12
7.628720
 22
1.885400
 13
7.628720
 23
2.625040
  0
POLYLINE
  8
0
  6
CONTINUOUS
 66
     1
 40
0.000000
 41
0.000000
  0
VERTEX
  8
0
  6
CONTINUOUS
 10
7.628280
 20
1.886280
  0
VERTEX
  8
0
  6
CONTINUOUS
 10
7.628720
 20
2.625920
  0
VERTEX
  8
0
  6
CONTINUOUS
 10
7.628720
 20
2.625040
  0
VERTEX
  8
0
  6
CONTINUOUS
 10
7.628720
 20
1.885400
  0
VERTEX
  8
0
  6
CONTINUOUS
 10
7.628280
 20
1.886280
  0
SEQEND
  8
0
  0
SOLID
  8
0
 62
    15
 10
7.693840
 20
1.727880
 11
7.693840
 21
2.467520
 12
7.696920
 22
1.759120
 13
7.696920
 23
2.498760
  0
POLYLINE
  8
0
  6
CONTINUOUS
 66
     1
 40
0.000000
 41
0.000000
  0
VERTEX
  8
0
  6
CONTINUOUS
 10
7.693840
 20
1.727880
  0
VERTEX
  8
0
  6
CONTINUOUS
 10
7.693840
 20
2.467520
  0
VERTEX
  8
0
  6
CONTINUOUS
 10
7.696920
 20
2.498760
  0
VERTEX
  8
0
  6
CONTINUOUS
 10
7.696920
 20
1.759120
  0
VERTEX
  8
0
  6
CONTINUOUS
 10
7.693840
 20
1.727880
  0
SEQEND
  8
0
  0
SOLID
  8
0
 62
    15
 10
7.696920
 20
1.759120
 11
7.696920
 21
2.498760
 12
7.705720
 22
1.788600
 13
7.706160
 23
2.527800
  0
POLYLINE
  8
0
  6
CONTINUOUS
 66
     1
 40
0.000000
 41
0.000000
  0
VERTEX
  8
0
  6
CONTINUOUS
 10
7.696920
 20
1.759120
  0
VERTEX
  8
0
  6
CONTINUOUS
 10
7.696920
 20
2.498760
  0
VERTEX
  8
0
  6
CONTINUOUS
 10
7.706160
 20
2.527800
  0
VERTEX
  8
0
  6
CONTINUOUS
 10
7.705720
 20
1.788600
  0
VERTEX
  8
0
  6
CONTINUOUS
 10
7.696920
 20
1.759120
  0
SEQEND
  8
0
  0
SOLID
  8
0
 62
    15
 10
7.705720
 20
1.788600
 11
7.706160
 21
2.527800
 12
7.720240
 22
1.815000
 13
7.720240
 23
2.554200
  0
POLYLINE
  8
0
  6
CONTINUOUS
 66
     1
 40
0.000000
 41
0.000000
  0
VERTEX
  8
0
  6
CONTINUOUS
 10
7.705720
 20
1.788600
  0
VERTEX
  8
0
  6
CONTINUOUS
 10
7.706160
 20
2.527800
  0
VERTEX
  8
0
  6
CONTINUOUS
 10
7.720240
 20
2.554200
  0
VERTEX
  8
0
  6
CONTINUOUS
 10
7.720240
 20
1.815000
  0
VERTEX
  8
0
  6
CONTINUOUS
 10
7.705720
 20
1.788600
  0
SEQEND
  8
0
  0
SOLID
  8
0
 62
    15
 10
7.720240
 20
1.815000
 11
7.720240
 21
2.554200
 12
7.739160
 22
1.837880
 13
7.739160
 23
2.577080
  0
POLYLINE
  8
0
  6
CONTINUOUS
 66
     1
 40
0.000000
 41
0.000000
  0
VERTEX
  8
0
  6
CONTINUOUS
 10
7.720240
 20
1.815000
  0
VERTEX
  8
0
  6
CONTINUOUS
 10
7.720240
 20
2.554200
  0
VERTEX
  8
0
  6
CONTINUOUS
 10
7.739160
 20
2.577080
  0
VERTEX
  8
0
  6
CONTINUOUS
 10
7.739160
 20
1.837880
  0
VERTEX
  8
0
  6
CONTINUOUS
 10
7.720240
 20
1.815000
  0
SEQEND
  8
0
  0
SOLID
  8
0
 62
    15
 10
7.739160
 20
1.837880
 11
7.739160
 21
2.577080
 12
7.762040
 22
1.856800
 13
7.762040
 23
2.596000
  0
POLYLINE
  8
0
  6
CONTINUOUS
 66
     1
 40
0.000000
 41
0.000000
  0
VERTEX
  8
0
  6
CONTINUOUS
 10
7.739160
 20
1.837880
  0
VERTEX
  8
0
  6
CONTINUOUS
 10
7.739160
 20
2.577080
  0
VERTEX
  8
0
  6
CONTINUOUS
 10
7.762040
 20
2.596000
  0
VERTEX
  8
0
  6
CONTINUOUS
 10
7.762040
 20
1.856800
  0
VERTEX
  8
0
  6
CONTINUOUS
 10
7.739160
 20
1.837880
  0
SEQEND
  8
0
  0
SOLID
  8
0
 62
    15
 10
7.762040
 20
1.856800
 11
7.762040
 21
2.596000
 12
7.788440
 22
1.870880
 13
7.788440
 23
2.610520
  0
POLYLINE
  8
0
  6
CONTINUOUS
 66
     1
 40
0.000000
 41
0.000000
  0
VERTEX
  8
0
  6
CONTINUOUS
 10
7.762040
 20
1.856800
  0
VERTEX
  8
0
  6
CONTINUOUS
 10
7.762040
 20
2.596000
  0
VERTEX
  8
0
  6
CONTINUOUS
 10
7.788440
 20
2.610520
  0
VERTEX
  8
0
  6
CONTINUOUS
 10
7.788440
 20
1.870880
  0
VERTEX
  8
0
  6
CONTINUOUS
 10
7.762040
 20
1.856800
  0
SEQEND
  8
0
  0
SOLID
  8
0
 62
    15
 10
7.788440
 20
1.870880
 11
7.788440
 21
2.610520
 12
7.817480
 22
1.880120
 13
7.817920
 23
2.619320
  0
POLYLINE
  8
0
  6
CONTINUOUS
 66
     1
 40
0.000000
 41
0.000000
  0
VERTEX
  8
0
  6
CONTINUOUS
 10
7.788440
 20
1.870880
  0
VERTEX
  8
0
  6
CONTINUOUS
 10
7.788440
 20
2.610520
  0
VERTEX
  8
0
  6
CONTINUOUS
 10
7.817920
 20
2.619320
  0
VERTEX
  8
0
  6
CONTINUOUS
 10
7.817480
 20
1.880120
  0
VERTEX
  8
0
  6
CONTINUOUS
 10
7.788440
 20
1.870880
  0
SEQEND
  8
0
  0
SOLID
  8
0
 62
    15
 10
7.817480
 20
1.880120
 11
7.817920
 21
2.619320
 12
7.848720
 22
1.883200
 13
7.849160
 23
2.622400
  0
POLYLINE
  8
0
  6
CONTINUOUS
 66
     1
 40
0.000000
 41
0.000000
  0
VERTEX
  8
0
  6
CONTINUOUS
 10
7.817480
 20
1.880120
  0
VERTEX
  8
0
  6
CONTINUOUS
 10
7.817920
 20
2.619320
  0
VERTEX
  8
0
  6
CONTINUOUS
 10
7.849160
 20
2.622400
  0
VERTEX
  8
0
  6
CONTINUOUS
 10
7.848720
 20
1.883200
  0
VERTEX
  8
0
  6
CONTINUOUS
 10
7.817480
 20
1.880120
  0
SEQEND
  8
0
  0
SOLID
  8
0
 62
    15
 10
7.848720
 20
1.883200
 11
7.849160
 21
2.622400
 12
7.879960
 22
1.880120
 13
7.880400
 23
2.619320
  0
POLYLINE
  8
0
  6
CONTINUOUS
 66
     1
 40
0.000000
 41
0.000000
  0
VERTEX
  8
0
  6
CONTINUOUS
 10
7.848720
 20
1.883200
  0
VERTEX
  8
0
  6
CONTINUOUS
 10
7.849160
 20
2.622400
  0
VERTEX
  8
0
  6
CONTINUOUS
 10
7.880400
 20
2.619320
  0
VERTEX
  8
0
  6
CONTINUOUS
 10
7.879960
 20
1.880120
  0
VERTEX
  8
0
  6
CONTINUOUS
 10
7.848720
 20
1.883200
  0
SEQEND
  8
0
  0
SOLID
  8
0
 62
    15
 10
7.879960
 20
1.880120
 11
7.880400
 21
2.619320
 12
7.909440
 22
1.870880
 13
7.909440
 23
2.610520
  0
POLYLINE
  8
0
  6
CONTINUOUS
 66
     1
 40
0.000000
 41
0.000000
  0
VERTEX
  8
0
  6
CONTINUOUS
 10
7.879960
 20
1.880120
  0
VERTEX
  8
0
  6
CONTINUOUS
 10
7.880400
 20
2.619320
  0
VERTEX
  8
0
  6
CONTINUOUS
 10
7.909440
 20
2.610520
  0
VERTEX
  8
0
  6
CONTINUOUS
 10
7.909440
 20
1.870880
  0
VERTEX
  8
0
  6
CONTINUOUS
 10
7.879960
 20
1.880120
  0
SEQEND
  8
0
  0
SOLID
  8
0
 62
    15
 10
7.909440
 20
1.870880
 11
7.909440
 21
2.610520
 12
7.935840
 22
1.856800
 13
7.935840
 23
2.596000
  0
POLYLINE
  8
0
  6
CONTINUOUS
 66
     1
 40
0.000000
 41
0.000000
  0
VERTEX
  8
0
  6
CONTINUOUS
 10
7.909440
 20
1.870880
  0
VERTEX
  8
0
  6
CONTINUOUS
 10
7.909440
 20
2.610520
  0
VERTEX
  8
0
  6
CONTINUOUS
 10
7.935840
 20
2.596000
  0
VERTEX
  8
0
  6
CONTINUOUS
 10
7.935840
 20
1.856800
  0
VERTEX
  8
0
  6
CONTINUOUS
 10
7.909440
 20
1.870880
  0
SEQEND
  8
0
  0
SOLID
  8
0
 62
    15
 10
7.935840
 20
1.856800
 11
7.935840
 21
2.596000
 12
7.958720
 22
1.837880
 13
7.958720
 23
2.577080
  0
POLYLINE
  8
0
  6
CONTINUOUS
 66
     1
 40
0.000000
 41
0.000000
  0
VERTEX
  8
0
  6
CONTINUOUS
 10
7.935840
 20
1.856800
  0
VERTEX
  8
0
  6
CONTINUOUS
 10
7.935840
 20
2.596000
  0
VERTEX
  8
0
  6
CONTINUOUS
 10
7.958720
 20
2.577080
  0
VERTEX
  8
0
  6
CONTINUOUS
 10
7.958720
 20
1.837880
  0
VERTEX
  8
0
  6
CONTINUOUS
 10
7.935840
 20
1.856800
  0
SEQEND
  8
0
  0
SOLID
  8
0
 62
    15
 10
7.958720
 20
1.837880
 11
7.958720
 21
2.577080
 12
7.977640
 22
1.815000
 13
7.977640
 23
2.554200
  0
POLYLINE
  8
0
  6
CONTINUOUS
 66
     1
 40
0.000000
 41
0.000000
  0
VERTEX
  8
0
  6
CONTINUOUS
 10
7.958720
 20
1.837880
  0
VERTEX
  8
0
  6
CONTINUOUS
 10
7.958720
 20
2.577080
  0
VERTEX
  8
0
  6
CONTINUOUS
 10
7.977640
 20
2.554200
  0
VERTEX
  8
0
  6
CONTINUOUS
 10
7.977640
 20
1.815000
  0
VERTEX
  8
0
  6
CONTINUOUS
 10
7.958720
 20
1.837880
  0
SEQEND
  8
0
  0
SOLID
  8
0
 62
    15
 10
7.977640
 20
1.815000
 11
7.977640
 21
2.554200
 12
7.991720
 22
1.788600
 13
7.992160
 23
2.527800
  0
POLYLINE
  8
0
  6
CONTINUOUS
 66
     1
 40
0.000000
 41
0.000000
  0
VERTEX
  8
0
  6
CONTINUOUS
 10
7.977640
 20
1.815000
  0
VERTEX
  8
0
  6
CONTINUOUS
 10
7.977640
 20
2.554200
  0
VERTEX
  8
0
  6
CONTINUOUS
 10
7.992160
 20
2.527800
  0
VERTEX
  8
0
  6
CONTINUOUS
 10
7.991720
 20
1.788600
  0
VERTEX
  8
0
  6
CONTINUOUS
 10
7.977640
 20
1.815000
  0
SEQEND
  8
0
  0
SOLID
  8
0
 62
    15
 10
8.000960
 20
1.759120
 11
8.000960
 21
2.498760
 12
8.004040
 22
1.727880
 13
8.004480
 23
2.467520
  0
POLYLINE
  8
0
  6
CONTINUOUS
 66
     1
 40
0.000000
 41
0.000000
  0
VERTEX
  8
0
  6
CONTINUOUS
 10
8.000960
 20
1.759120
  0
VERTEX
  8
0
  6
CONTINUOUS
 10
8.000960
 20
2.498760
  0
VERTEX
  8
0
  6
CONTINUOUS
 10
8.004480
 20
2.467520
  0
VERTEX
  8
0
  6
CONTINUOUS
 10
8.004040
 20
1.727880
  0
VERTEX
  8
0
  6
CONTINUOUS
 10
8.000960
 20
1.759120
  0
SEQEND
  8
0
  0
SOLID
  8
0
 62
    15
 10
7.991720
 20
1.788600
 11
7.992160
 21
2.527800
 12
8.000960
 22
1.759120
 13
8.000960
 23
2.498760
  0
POLYLINE
  8
0
  6
CONTINUOUS
 66
     1
 40
0.000000
 41
0.000000
  0
VERTEX
  8
0
  6
CONTINUOUS
 10
7.991720
 20
1.788600
  0
VERTEX
  8
0
  6
CONTINUOUS
 10
7.992160
 20
2.527800
  0
VERTEX
  8
0
  6
CONTINUOUS
 10
8.000960
 20
2.498760
  0
VERTEX
  8
0
  6
CONTINUOUS
 10
8.000960
 20
1.759120
  0
VERTEX
  8
0
  6
CONTINUOUS
 10
7.991720
 20
1.788600
  0
SEQEND
  8
0
  0
SOLID
  8
0
 62
    15
 10
8.004040
 20
1.727880
 11
8.004480
 21
2.467520
 12
8.004040
 22
1.138720
 13
8.004480
 23
1.877920
  0
POLYLINE
  8
0
  6
CONTINUOUS
 66
     1
 40
0.000000
 41
0.000000
  0
VERTEX
  8
0
  6
CONTINUOUS
 10
8.004040
 20
1.727880
  0
VERTEX
  8
0
  6
CONTINUOUS
 10
8.004480
 20
2.467520
  0
VERTEX
  8
0
  6
CONTINUOUS
 10
8.004480
 20
1.877920
  0
VERTEX
  8
0
  6
CONTINUOUS
 10
8.004040
 20
1.138720
  0
VERTEX
  8
0
  6
CONTINUOUS
 10
8.004040
 20
1.727880
  0
SEQEND
  8
0
  0
POLYLINE
  8
0
  6
CONTINUOUS
 66
     1
 40
0.000000
 41
0.000000
  0
VERTEX
  8
0
  6
CONTINUOUS
 10
4.498560
 20
1.139160
  0
VERTEX
  8
0
  6
CONTINUOUS
 10
4.498560
 20
1.728760
  0
VERTEX
  8
0
  6
CONTINUOUS
 10
4.502080
 20
1.760000
  0
VERTEX
  8
0
  6
CONTINUOUS
 10
4.510880
 20
1.789040
  0
VERTEX
  8
0
  6
CONTINUOUS
 10
4.525400
 20
1.815440
  0
VERTEX
  8
0
  6
CONTINUOUS
 10
4.544320
 20
1.838320
  0
VERTEX
  8
0
  6
CONTINUOUS
 10
4.567200
 20
1.857680
  0
VERTEX
  8
0
  6
CONTINUOUS
 10
4.593600
 20
1.871760
  0
VERTEX
  8
0
  6
CONTINUOUS
 10
4.622640
 20
1.881000
  0
VERTEX
  8
0
  6
CONTINUOUS
 10
4.653880
 20
1.884080
  0
VERTEX
  8
0
  6
CONTINUOUS
 10
4.685120
 20
1.881000
  0
VERTEX
  8
0
  6
CONTINUOUS
 10
4.714160
 20
1.871760
  0
VERTEX
  8
0
  6
CONTINUOUS
 10
4.740560
 20
1.857680
  0
VERTEX
  8
0
  6
CONTINUOUS
 10
4.763880
 20
1.838320
  0
VERTEX
  8
0
  6
CONTINUOUS
 10
4.782800
 20
1.815440
  0
VERTEX
  8
0
  6
CONTINUOUS
 10
4.796880
 20
1.789040
  0
VERTEX
  8
0
  6
CONTINUOUS
 10
4.806120
 20
1.760000
  0
VERTEX
  8
0
  6
CONTINUOUS
 10
4.809200
 20
1.728760
  0
VERTEX
  8
0
  6
CONTINUOUS
 10
4.865960
 20
1.728760
  0
VERTEX
  8
0
  6
CONTINUOUS
 10
4.874320
 20
1.886280
  0
VERTEX
  8
0
  6
CONTINUOUS
 10
7.628280
 20
1.886280
  0
VERTEX
  8
0
  6
CONTINUOUS
 10
7.628720
 20
1.885400
  0
VERTEX
  8
0
  6
CONTINUOUS
 10
7.637080
 20
1.727880
  0
VERTEX
  8
0
  6
CONTINUOUS
 10
7.693840
 20
1.727880
  0
VERTEX
  8
0
  6
CONTINUOUS
 10
7.696920
 20
1.759120
  0
VERTEX
  8
0
  6
CONTINUOUS
 10
7.705720
 20
1.788600
  0
VERTEX
  8
0
  6
CONTINUOUS
 10
7.720240
 20
1.815000
  0
VERTEX
  8
0
  6
CONTINUOUS
 10
7.739160
 20
1.837880
  0
VERTEX
  8
0
  6
CONTINUOUS
 10
7.762040
 20
1.856800
  0
VERTEX
  8
0
  6
CONTINUOUS
 10
7.788440
 20
1.870880
  0
VERTEX
  8
0
  6
CONTINUOUS
 10
7.817480
 20
1.880120
  0
VERTEX
  8
0
  6
CONTINUOUS
 10
7.848720
 20
1.883200
  0
VERTEX
  8
0
  6
CONTINUOUS
 10
7.879960
 20
1.880120
  0
VERTEX
  8
0
  6
CONTINUOUS
 10
7.909440
 20
1.870880
  0
VERTEX
  8
0
  6
CONTINUOUS
 10
7.935840
 20
1.856800
  0
VERTEX
  8
0
  6
CONTINUOUS
 10
7.958720
 20
1.837880
  0
VERTEX
  8
0
  6
CONTINUOUS
 10
7.977640
 20
1.815000
  0
VERTEX
  8
0
  6
CONTINUOUS
 10
7.991720
 20
1.788600
  0
VERTEX
  8
0
  6
CONTINUOUS
 10
8.000960
 20
1.759120
  0
VERTEX
  8
0
  6
CONTINUOUS
 10
8.004040
 20
1.727880
  0
VERTEX
  8
0
  6
CONTINUOUS
 10
8.004040
 20
1.138720
  0
VERTEX
  8
0
  6
CONTINUOUS
 10
8.003600
 20
1.137840
  0
VERTEX
  8
0
  6
CONTINUOUS
 10
4.499000
 20
1.137840
  0
VERTEX
  8
0
  6
CONTINUOUS
 10
4.498560
 20
1.139160
  0
SEQEND
  8
0
  0
TEXT
  8
0
 10
5.955400
 20
0.903320
 40
0.138072
  1
BA  978
 41
1.000000
  7
SN0
 71
     0
 72
     5
 11
6.545308
 21
0.903320
  0
TEXT
  8
0
 10
5.799200
 20
0.711480
 40
0.138072
  1
3/4" x 3-1/2"
 41
1.000000
  7
SN0
 71
     0
 72
     5
 11
6.699371
 21
0.711480
  0
POLYLINE
  8
0
  6
CONTINUOUS
 66
     1
 40
0.014080
 41
0.014080
  0
VERTEX
  8
0
  6
CONTINUOUS
 10
4.472600
 20
2.936560
  0
VERTEX
  8
0
  6
CONTINUOUS
 10
7.977640
 20
2.937000
  0
VERTEX
  8
0
  6
CONTINUOUS
 10
7.977640
 20
3.526600
  0
VERTEX
  8
0
  6
CONTINUOUS
 10
7.974560
 20
3.557840
  0
VERTEX
  8
0
  6
CONTINUOUS
 10
7.965320
 20
3.586880
  0
VERTEX
  8
0
  6
CONTINUOUS
 10
7.951240
 20
3.613280
  0
VERTEX
  8
0
  6
CONTINUOUS
 10
7.932320
 20
3.636600
  0
VERTEX
  8
0
  6
CONTINUOUS
 10
7.909000
 20
3.655520
  0
VERTEX
  8
0
  6
CONTINUOUS
 10
7.882600
 20
3.669600
  0
VERTEX
  8
0
  6
CONTINUOUS
 10
7.853560
 20
3.678840
  0
VERTEX
  8
0
  6
CONTINUOUS
 10
7.822320
 20
3.681920
  0
VERTEX
  8
0
  6
CONTINUOUS
 10
7.791080
 20
3.678840
  0
VERTEX
  8
0
  6
CONTINUOUS
 10
7.762040
 20
3.669600
  0
VERTEX
  8
0
  6
CONTINUOUS
 10
7.735640
 20
3.655520
  0
VERTEX
  8
0
  6
CONTINUOUS
 10
7.712320
 20
3.636600
  0
VERTEX
  8
0
  6
CONTINUOUS
 10
7.693400
 20
3.613280
  0
VERTEX
  8
0
  6
CONTINUOUS
 10
7.679320
 20
3.586880
  0
VERTEX
  8
0
  6
CONTINUOUS
 10
7.670080
 20
3.557840
  0
VERTEX
  8
0
  6
CONTINUOUS
 10
7.667000
 20
3.526600
  0
VERTEX
  8
0
  6
CONTINUOUS
 10
7.610680
 20
3.526600
  0
VERTEX
  8
0
  6
CONTINUOUS
 10
7.601880
 20
3.685000
  0
VERTEX
  8
0
  6
CONTINUOUS
 10
4.847920
 20
3.685000
  0
VERTEX
  8
0
  6
CONTINUOUS
 10
4.839120
 20
3.527480
  0
VERTEX
  8
0
  6
CONTINUOUS
 10
4.782800
 20
3.527480
  0
VERTEX
  8
0
  6
CONTINUOUS
 10
4.779720
 20
3.558720
  0
VERTEX
  8
0
  6
CONTINUOUS
 10
4.770480
 20
3.587760
  0
VERTEX
  8
0
  6
CONTINUOUS
 10
4.756400
 20
3.614160
  0
VERTEX
  8
0
  6
CONTINUOUS
 10
4.737480
 20
3.637040
  0
VERTEX
  8
0
  6
CONTINUOUS
 10
4.714160
 20
3.655960
  0
VERTEX
  8
0
  6
CONTINUOUS
 10
4.687760
 20
3.670040
  0
VERTEX
  8
0
  6
CONTINUOUS
 10
4.658720
 20
3.679280
  0
VERTEX
  8
0
  6
CONTINUOUS
 10
4.627480
 20
3.682360
  0
VERTEX
  8
0
  6
CONTINUOUS
 10
4.596240
 20
3.679280
  0
VERTEX
  8
0
  6
CONTINUOUS
 10
4.567200
 20
3.670040
  0
VERTEX
  8
0
  6
CONTINUOUS
 10
4.540800
 20
3.655960
  0
VERTEX
  8
0
  6
CONTINUOUS
 10
4.517480
 20
3.637040
  0
VERTEX
  8
0
  6
CONTINUOUS
 10
4.498560
 20
3.614160
  0
VERTEX
  8
0
  6
CONTINUOUS
 10
4.484480
 20
3.587760
  0
VERTEX
  8
0
  6
CONTINUOUS
 10
4.475240
 20
3.558720
  0
VERTEX
  8
0
  6
CONTINUOUS
 10
4.472160
 20
3.527480
  0
VERTEX
  8
0
  6
CONTINUOUS
 10
4.472600
 20
2.936560
  0
SEQEND
  8
0
  0
TEXT
  8
0
 10
5.928560
 20
3.240600
 40
0.138072
  1
BA  978
 41
1.000000
  7
SN0
 71
     0
 72
     5
 11
6.518468
 21
3.240600
  0
TEXT
  8
0
 10
5.772800
 20
3.049200
 40
0.138072
  1
3/4" x 3-1/2"
 41
1.000000
  7
SN0
 71
     0
 72
     5
 11
6.672971
 21
3.049200
  0
ENDSEC
  0
EOF
