  0
SECTION
  2
HEADER
  9
$ACADVER
  1
AC1006
  9
$EXTMIN
 10
2.255440
 20
0.693440
  9
$EXTMAX
 10
7.113920
 20
7.941120
  9
$LTSCALE
 40
0.044000
  9
$PDMODE
 70
    35
  9
$PDSIZE
 40
0.035200
  0
ENDSEC
  0
SECTION
  2
TABLES
  0
TABLE
  2
LTYPE
 70
     9
  0
LTYPE
  2
CONTINUOUS
 70
    64
  3
Solid line
 72
    65
 73
     0
 40
0.000000
  0
LTYPE
  2
DASHED
 70
    64
  3
__ __ __ __ __ __ __ __ __ __ __ __ __ __ __
 72
    65
 73
     2
 40
0.000330
 49
0.000220
 49
-0.000110
  0
LTYPE
  2
HIDDEN
 70
    64
  3
 _ _ _ _ _ _ _ _ _ _ _ _ _ _ _ _ _ _ _ _ _ _
 72
    65
 73
     2
 40
0.000165
 49
0.000110
 49
-0.000055
  0
LTYPE
  2
CENTER
 70
    64
  3
____ _ ____ _ ____ _ ____ _ ____ _ ____ _ ____
 72
    65
 73
     4
 40
0.000880
 49
0.000550
 49
-0.000110
 49
0.000110
 49
-0.000110
  0
LTYPE
  2
PHANTOM
 70
    64
  3
_____ _ _ _____ _ _ _____ _ _ _____ _ _ ____
 72
    65
 73
     6
 40
0.001100
 49
0.000550
 49
-0.000110
 49
0.000110
 49
-0.000110
 49
0.000110
 49
-0.000110
  0
LTYPE
  2
DOT
 70
    64
  3
...............................................
 72
    65
 73
     2
 40
0.000110
 49
0.000000
 49
-0.000110
  0
LTYPE
  2
DASHDOT
 70
    64
  3
__ . __ . __ . __ . __ . __ . __ . __ . __ . __
 72
    65
 73
     4
 40
0.000440
 49
0.000220
 49
-0.000110
 49
0.000000
 49
-0.000110
  0
LTYPE
  2
BORDER
 70
    64
  3
__ __ . __ __ . __ __ . __ __ . __ __ . __ __
 72
    65
 73
     6
 40
0.000770
 49
0.000220
 49
-0.000110
 49
0.000220
 49
-0.000110
 49
0.000000
 49
-0.000110
  0
LTYPE
  2
DIVIDE
 70
    64
  3
__ . . __ . . __ . . __ . . __ . . __ . . __
 72
    65
 73
     6
 40
0.000550
 49
0.000220
 49
-0.000110
 49
0.000000
 49
-0.000110
 49
0.000000
 49
-0.000110
  0
LTYPE
  2
DOTDOT
 70
    64
  3
 . .  . .  . .  . .  . .  . . 
 72
    65
 73
     5
 40
0.000242
 49
-0.000110
 49
0.000000
 49
-0.000110
 49
0.000000
 49
-0.000110
  0
ENDTAB
  0
TABLE
  2
STYLE
 70
     2
  0
STYLE
 70
     0
  2
SN0
 40
0.000000
 41
0.000440
 50
0.000000
 71
     0
 42
0.000000
  3
ROMAND
  0
STYLE
 70
    68
  2
SV0
 40
0.000000
 41
0.000440
 50
0.000000
 71
     0
 42
0.000000
  3
ROMAND
  0
ENDTAB
  0
TABLE
  2
LAYER
 70
     3
  0
LAYER
  2
FOREGROUND
 70
    64
 62
     7
  6
CONTINUOUS
  0
LAYER
  2
BACKGROUND
 70
    65
 62
    -7
  6
CONTINUOUS
  0
LAYER
  2
0
 70
    64
 62
     7
  6
CONTINUOUS
  0
ENDTAB
  0
ENDSEC
  0
SECTION
  2
ENTITIES
  0
POLYLINE
  8
FOREGROUND
  6
CONTINUOUS
 66
     1
 40
0.000000
 41
0.000000
  0
VERTEX
  8
FOREGROUND
  6
CONTINUOUS
 10
0.000000
 20
8.634560
  0
VERTEX
  8
FOREGROUND
  6
CONTINUOUS
 10
8.499920
 20
8.634560
  0
VERTEX
  8
FOREGROUND
  6
CONTINUOUS
 10
8.499920
 20
-2.365440
  0
VERTEX
  8
FOREGROUND
  6
CONTINUOUS
 10
0.000000
 20
-2.365440
  0
VERTEX
  8
FOREGROUND
  6
CONTINUOUS
 10
0.000000
 20
8.634560
  0
SEQEND
  8
0
  0
POLYLINE
  8
FOREGROUND
  6
CONTINUOUS
 66
     1
 40
0.000000
 41
0.000000
  0
VERTEX
  8
FOREGROUND
  6
CONTINUOUS
 10
0.000000
 20
8.634560
  0
VERTEX
  8
FOREGROUND
  6
CONTINUOUS
 10
8.499920
 20
8.634560
  0
VERTEX
  8
FOREGROUND
  6
CONTINUOUS
 10
8.499920
 20
-2.365440
  0
VERTEX
  8
FOREGROUND
  6
CONTINUOUS
 10
0.000000
 20
-2.365440
  0
VERTEX
  8
FOREGROUND
  6
CONTINUOUS
 10
0.000000
 20
8.634560
  0
SEQEND
  8
0
  0
POLYLINE
  8
0
  6
CONTINUOUS
 66
     1
 40
0.014080
 41
0.014080
  0
VERTEX
  8
0
  6
CONTINUOUS
 10
3.268320
 20
6.112040
  0
VERTEX
  8
0
  6
CONTINUOUS
 10
3.131480
 20
6.112040
  0
VERTEX
  8
0
  6
CONTINUOUS
 10
3.131480
 20
7.933640
  0
VERTEX
  8
0
  6
CONTINUOUS
 10
6.584160
 20
7.933640
  0
VERTEX
  8
0
  6
CONTINUOUS
 10
6.611000
 20
7.931000
  0
VERTEX
  8
0
  6
CONTINUOUS
 10
6.634760
 20
7.924840
  0
VERTEX
  8
0
  6
CONTINUOUS
 10
6.655880
 20
7.916040
  0
VERTEX
  8
0
  6
CONTINUOUS
 10
6.673920
 20
7.904600
  0
VERTEX
  8
0
  6
CONTINUOUS
 10
6.689760
 20
7.890520
  0
VERTEX
  8
0
  6
CONTINUOUS
 10
6.703400
 20
7.873800
  0
VERTEX
  8
0
  6
CONTINUOUS
 10
6.718360
 20
7.844760
  0
VERTEX
  8
0
  6
CONTINUOUS
 10
6.725840
 20
7.823200
  0
VERTEX
  8
0
  6
CONTINUOUS
 10
6.730680
 20
7.799440
  0
VERTEX
  8
0
  6
CONTINUOUS
 10
6.733760
 20
7.761160
  0
VERTEX
  8
0
  6
CONTINUOUS
 10
6.732880
 20
7.734320
  0
VERTEX
  8
0
  6
CONTINUOUS
 10
6.730240
 20
7.705720
  0
VERTEX
  8
0
  6
CONTINUOUS
 10
6.718800
 20
7.646320
  0
VERTEX
  8
0
  6
CONTINUOUS
 10
6.699440
 20
7.584720
  0
VERTEX
  8
0
  6
CONTINUOUS
 10
6.673480
 20
7.521800
  0
VERTEX
  8
0
  6
CONTINUOUS
 10
6.640480
 20
7.459320
  0
VERTEX
  8
0
  6
CONTINUOUS
 10
6.601760
 20
7.399040
  0
VERTEX
  8
0
  6
CONTINUOUS
 10
6.580200
 20
7.369560
  0
VERTEX
  8
0
  6
CONTINUOUS
 10
6.533120
 20
7.314560
  0
VERTEX
  8
0
  6
CONTINUOUS
 10
6.481200
 20
7.264840
  0
VERTEX
  8
0
  6
CONTINUOUS
 10
6.453480
 20
7.242400
  0
VERTEX
  8
0
  6
CONTINUOUS
 10
6.424880
 20
7.222160
  0
VERTEX
  8
0
  6
CONTINUOUS
 10
6.380440
 20
7.195320
  0
VERTEX
  8
0
  6
CONTINUOUS
 10
6.120400
 20
7.069920
  0
VERTEX
  8
0
  6
CONTINUOUS
 10
6.005120
 20
7.008320
  0
VERTEX
  8
0
  6
CONTINUOUS
 10
5.925040
 20
6.958160
  0
VERTEX
  8
0
  6
CONTINUOUS
 10
5.875760
 20
6.922080
  0
VERTEX
  8
0
  6
CONTINUOUS
 10
5.830000
 20
6.882920
  0
VERTEX
  8
0
  6
CONTINUOUS
 10
5.788640
 20
6.841120
  0
VERTEX
  8
0
  6
CONTINUOUS
 10
5.751680
 20
6.795800
  0
VERTEX
  8
0
  6
CONTINUOUS
 10
5.720000
 20
6.746960
  0
VERTEX
  8
0
  6
CONTINUOUS
 10
5.694040
 20
6.693280
  0
VERTEX
  8
0
  6
CONTINUOUS
 10
5.683480
 20
6.665120
  0
VERTEX
  8
0
  6
CONTINUOUS
 10
5.674240
 20
6.635200
  0
VERTEX
  8
0
  6
CONTINUOUS
 10
5.666760
 20
6.604400
  0
VERTEX
  8
0
  6
CONTINUOUS
 10
5.660600
 20
6.571840
  0
VERTEX
  8
0
  6
CONTINUOUS
 10
5.653560
 20
6.504960
  0
VERTEX
  8
0
  6
CONTINUOUS
 10
5.647400
 20
6.387920
  0
VERTEX
  8
0
  6
CONTINUOUS
 10
5.646520
 20
6.296400
  0
VERTEX
  8
0
  6
CONTINUOUS
 10
5.646960
 20
6.199600
  0
VERTEX
  8
0
  6
CONTINUOUS
 10
5.644320
 20
6.167040
  0
VERTEX
  8
0
  6
CONTINUOUS
 10
5.637720
 20
6.143280
  0
VERTEX
  8
0
  6
CONTINUOUS
 10
5.630240
 20
6.131840
  0
VERTEX
  8
0
  6
CONTINUOUS
 10
5.619240
 20
6.123480
  0
VERTEX
  8
0
  6
CONTINUOUS
 10
5.596800
 20
6.115560
  0
VERTEX
  8
0
  6
CONTINUOUS
 10
5.564240
 20
6.112480
  0
VERTEX
  8
0
  6
CONTINUOUS
 10
3.268320
 20
6.112040
  0
SEQEND
  8
0
  0
TEXT
  8
0
 10
4.061200
 20
6.559960
 40
0.138194
  1
BA  975
 41
1.000000
  7
SN0
 71
     0
 72
     5
 11
4.650799
 21
6.559960
  0
TEXT
  8
0
 10
3.739120
 20
6.368560
 40
0.138194
  1
1-13/16" x 3-5/8"
 41
1.000000
  7
SN0
 71
     0
 72
     5
 11
4.970501
 21
6.368560
  0
SOLID
  8
0
 62
    15
 10
5.024800
 20
4.149200
 11
5.676880
 21
3.776080
 12
4.933720
 22
4.071760
 13
5.585800
 23
3.698200
  0
POLYLINE
  8
0
  6
CONTINUOUS
 66
     1
 40
0.000000
 41
0.000000
  0
VERTEX
  8
0
  6
CONTINUOUS
 10
5.024800
 20
4.149200
  0
VERTEX
  8
0
  6
CONTINUOUS
 10
5.676880
 20
3.776080
  0
VERTEX
  8
0
  6
CONTINUOUS
 10
5.585800
 20
3.698200
  0
VERTEX
  8
0
  6
CONTINUOUS
 10
4.933720
 20
4.071760
  0
VERTEX
  8
0
  6
CONTINUOUS
 10
5.024800
 20
4.149200
  0
SEQEND
  8
0
  0
SOLID
  8
0
 62
    15
 10
5.798760
 20
5.113680
 11
6.450840
 21
4.740120
 12
5.828240
 22
5.082880
 13
6.479880
 23
4.709760
  0
POLYLINE
  8
0
  6
CONTINUOUS
 66
     1
 40
0.000000
 41
0.000000
  0
VERTEX
  8
0
  6
CONTINUOUS
 10
5.798760
 20
5.113680
  0
VERTEX
  8
0
  6
CONTINUOUS
 10
6.450840
 20
4.740120
  0
VERTEX
  8
0
  6
CONTINUOUS
 10
6.479880
 20
4.709760
  0
VERTEX
  8
0
  6
CONTINUOUS
 10
5.828240
 20
5.082880
  0
VERTEX
  8
0
  6
CONTINUOUS
 10
5.798760
 20
5.113680
  0
SEQEND
  8
0
  0
SOLID
  8
0
 62
    15
 10
5.828240
 20
5.082880
 11
6.479880
 21
4.709760
 12
5.847160
 22
5.043280
 13
6.499240
 23
4.670160
  0
POLYLINE
  8
0
  6
CONTINUOUS
 66
     1
 40
0.000000
 41
0.000000
  0
VERTEX
  8
0
  6
CONTINUOUS
 10
5.828240
 20
5.082880
  0
VERTEX
  8
0
  6
CONTINUOUS
 10
6.479880
 20
4.709760
  0
VERTEX
  8
0
  6
CONTINUOUS
 10
6.499240
 20
4.670160
  0
VERTEX
  8
0
  6
CONTINUOUS
 10
5.847160
 20
5.043280
  0
VERTEX
  8
0
  6
CONTINUOUS
 10
5.828240
 20
5.082880
  0
SEQEND
  8
0
  0
SOLID
  8
0
 62
    15
 10
5.847160
 20
5.043280
 11
6.499240
 21
4.670160
 12
5.856840
 22
4.996200
 13
6.508920
 23
4.623080
  0
POLYLINE
  8
0
  6
CONTINUOUS
 66
     1
 40
0.000000
 41
0.000000
  0
VERTEX
  8
0
  6
CONTINUOUS
 10
5.847160
 20
5.043280
  0
VERTEX
  8
0
  6
CONTINUOUS
 10
6.499240
 20
4.670160
  0
VERTEX
  8
0
  6
CONTINUOUS
 10
6.508920
 20
4.623080
  0
VERTEX
  8
0
  6
CONTINUOUS
 10
5.856840
 20
4.996200
  0
VERTEX
  8
0
  6
CONTINUOUS
 10
5.847160
 20
5.043280
  0
SEQEND
  8
0
  0
SOLID
  8
0
 62
    15
 10
5.856840
 20
4.996200
 11
6.508920
 21
4.623080
 12
5.857720
 22
4.943400
 13
6.509800
 23
4.569840
  0
POLYLINE
  8
0
  6
CONTINUOUS
 66
     1
 40
0.000000
 41
0.000000
  0
VERTEX
  8
0
  6
CONTINUOUS
 10
5.856840
 20
4.996200
  0
VERTEX
  8
0
  6
CONTINUOUS
 10
6.508920
 20
4.623080
  0
VERTEX
  8
0
  6
CONTINUOUS
 10
6.509800
 20
4.569840
  0
VERTEX
  8
0
  6
CONTINUOUS
 10
5.857720
 20
4.943400
  0
VERTEX
  8
0
  6
CONTINUOUS
 10
5.856840
 20
4.996200
  0
SEQEND
  8
0
  0
SOLID
  8
0
 62
    15
 10
5.857720
 20
4.943400
 11
6.509800
 21
4.569840
 12
5.850240
 22
4.885760
 13
6.502320
 23
4.512200
  0
POLYLINE
  8
0
  6
CONTINUOUS
 66
     1
 40
0.000000
 41
0.000000
  0
VERTEX
  8
0
  6
CONTINUOUS
 10
5.857720
 20
4.943400
  0
VERTEX
  8
0
  6
CONTINUOUS
 10
6.509800
 20
4.569840
  0
VERTEX
  8
0
  6
CONTINUOUS
 10
6.502320
 20
4.512200
  0
VERTEX
  8
0
  6
CONTINUOUS
 10
5.850240
 20
4.885760
  0
VERTEX
  8
0
  6
CONTINUOUS
 10
5.857720
 20
4.943400
  0
SEQEND
  8
0
  0
SOLID
  8
0
 62
    15
 10
5.850240
 20
4.885760
 11
6.502320
 21
4.512200
 12
5.834840
 22
4.825040
 13
6.486920
 23
4.451480
  0
POLYLINE
  8
0
  6
CONTINUOUS
 66
     1
 40
0.000000
 41
0.000000
  0
VERTEX
  8
0
  6
CONTINUOUS
 10
5.850240
 20
4.885760
  0
VERTEX
  8
0
  6
CONTINUOUS
 10
6.502320
 20
4.512200
  0
VERTEX
  8
0
  6
CONTINUOUS
 10
6.486920
 20
4.451480
  0
VERTEX
  8
0
  6
CONTINUOUS
 10
5.834840
 20
4.825040
  0
VERTEX
  8
0
  6
CONTINUOUS
 10
5.850240
 20
4.885760
  0
SEQEND
  8
0
  0
SOLID
  8
0
 62
    15
 10
5.834840
 20
4.825040
 11
6.486920
 21
4.451480
 12
5.782480
 22
4.699640
 13
6.434560
 23
4.326520
  0
POLYLINE
  8
0
  6
CONTINUOUS
 66
     1
 40
0.000000
 41
0.000000
  0
VERTEX
  8
0
  6
CONTINUOUS
 10
5.834840
 20
4.825040
  0
VERTEX
  8
0
  6
CONTINUOUS
 10
6.486920
 20
4.451480
  0
VERTEX
  8
0
  6
CONTINUOUS
 10
6.434560
 20
4.326520
  0
VERTEX
  8
0
  6
CONTINUOUS
 10
5.782480
 20
4.699640
  0
VERTEX
  8
0
  6
CONTINUOUS
 10
5.834840
 20
4.825040
  0
SEQEND
  8
0
  0
SOLID
  8
0
 62
    15
 10
5.782480
 20
4.699640
 11
6.434560
 21
4.326520
 12
5.705040
 22
4.579080
 13
6.356680
 23
4.205520
  0
POLYLINE
  8
0
  6
CONTINUOUS
 66
     1
 40
0.000000
 41
0.000000
  0
VERTEX
  8
0
  6
CONTINUOUS
 10
5.782480
 20
4.699640
  0
VERTEX
  8
0
  6
CONTINUOUS
 10
6.434560
 20
4.326520
  0
VERTEX
  8
0
  6
CONTINUOUS
 10
6.356680
 20
4.205520
  0
VERTEX
  8
0
  6
CONTINUOUS
 10
5.705040
 20
4.579080
  0
VERTEX
  8
0
  6
CONTINUOUS
 10
5.782480
 20
4.699640
  0
SEQEND
  8
0
  0
SOLID
  8
0
 62
    15
 10
5.705040
 20
4.579080
 11
6.356680
 21
4.205520
 12
5.606040
 22
4.473920
 13
6.257680
 23
4.100800
  0
POLYLINE
  8
0
  6
CONTINUOUS
 66
     1
 40
0.000000
 41
0.000000
  0
VERTEX
  8
0
  6
CONTINUOUS
 10
5.705040
 20
4.579080
  0
VERTEX
  8
0
  6
CONTINUOUS
 10
6.356680
 20
4.205520
  0
VERTEX
  8
0
  6
CONTINUOUS
 10
6.257680
 20
4.100800
  0
VERTEX
  8
0
  6
CONTINUOUS
 10
5.606040
 20
4.473920
  0
VERTEX
  8
0
  6
CONTINUOUS
 10
5.705040
 20
4.579080
  0
SEQEND
  8
0
  0
SOLID
  8
0
 62
    15
 10
5.606040
 20
4.473920
 11
6.257680
 21
4.100800
 12
5.549720
 22
4.431240
 13
6.201800
 23
4.058120
  0
POLYLINE
  8
0
  6
CONTINUOUS
 66
     1
 40
0.000000
 41
0.000000
  0
VERTEX
  8
0
  6
CONTINUOUS
 10
5.606040
 20
4.473920
  0
VERTEX
  8
0
  6
CONTINUOUS
 10
6.257680
 20
4.100800
  0
VERTEX
  8
0
  6
CONTINUOUS
 10
6.201800
 20
4.058120
  0
VERTEX
  8
0
  6
CONTINUOUS
 10
5.549720
 20
4.431240
  0
VERTEX
  8
0
  6
CONTINUOUS
 10
5.606040
 20
4.473920
  0
SEQEND
  8
0
  0
SOLID
  8
0
 62
    15
 10
5.549720
 20
4.431240
 11
6.201800
 21
4.058120
 12
5.489880
 22
4.396480
 13
6.141960
 23
4.023360
  0
POLYLINE
  8
0
  6
CONTINUOUS
 66
     1
 40
0.000000
 41
0.000000
  0
VERTEX
  8
0
  6
CONTINUOUS
 10
5.549720
 20
4.431240
  0
VERTEX
  8
0
  6
CONTINUOUS
 10
6.201800
 20
4.058120
  0
VERTEX
  8
0
  6
CONTINUOUS
 10
6.141960
 20
4.023360
  0
VERTEX
  8
0
  6
CONTINUOUS
 10
5.489880
 20
4.396480
  0
VERTEX
  8
0
  6
CONTINUOUS
 10
5.549720
 20
4.431240
  0
SEQEND
  8
0
  0
SOLID
  8
0
 62
    15
 10
5.489880
 20
4.396480
 11
6.141960
 21
4.023360
 12
5.245240
 22
4.279000
 13
5.896880
 23
3.905880
  0
POLYLINE
  8
0
  6
CONTINUOUS
 66
     1
 40
0.000000
 41
0.000000
  0
VERTEX
  8
0
  6
CONTINUOUS
 10
5.489880
 20
4.396480
  0
VERTEX
  8
0
  6
CONTINUOUS
 10
6.141960
 20
4.023360
  0
VERTEX
  8
0
  6
CONTINUOUS
 10
5.896880
 20
3.905880
  0
VERTEX
  8
0
  6
CONTINUOUS
 10
5.245240
 20
4.279000
  0
VERTEX
  8
0
  6
CONTINUOUS
 10
5.489880
 20
4.396480
  0
SEQEND
  8
0
  0
SOLID
  8
0
 62
    15
 10
5.245240
 20
4.279000
 11
5.896880
 21
3.905880
 12
5.129960
 22
4.217400
 13
5.782040
 23
3.844280
  0
POLYLINE
  8
0
  6
CONTINUOUS
 66
     1
 40
0.000000
 41
0.000000
  0
VERTEX
  8
0
  6
CONTINUOUS
 10
5.245240
 20
4.279000
  0
VERTEX
  8
0
  6
CONTINUOUS
 10
5.896880
 20
3.905880
  0
VERTEX
  8
0
  6
CONTINUOUS
 10
5.782040
 20
3.844280
  0
VERTEX
  8
0
  6
CONTINUOUS
 10
5.129960
 20
4.217400
  0
VERTEX
  8
0
  6
CONTINUOUS
 10
5.245240
 20
4.279000
  0
SEQEND
  8
0
  0
SOLID
  8
0
 62
    15
 10
5.129960
 20
4.217400
 11
5.782040
 21
3.844280
 12
5.024800
 22
4.149200
 13
5.676880
 23
3.776080
  0
POLYLINE
  8
0
  6
CONTINUOUS
 66
     1
 40
0.000000
 41
0.000000
  0
VERTEX
  8
0
  6
CONTINUOUS
 10
5.129960
 20
4.217400
  0
VERTEX
  8
0
  6
CONTINUOUS
 10
5.782040
 20
3.844280
  0
VERTEX
  8
0
  6
CONTINUOUS
 10
5.676880
 20
3.776080
  0
VERTEX
  8
0
  6
CONTINUOUS
 10
5.024800
 20
4.149200
  0
VERTEX
  8
0
  6
CONTINUOUS
 10
5.129960
 20
4.217400
  0
SEQEND
  8
0
  0
SOLID
  8
0
 62
    15
 10
2.393160
 20
3.321120
 11
3.045240
 21
2.948000
 12
2.256320
 22
3.321120
 13
2.908400
 23
2.948000
  0
POLYLINE
  8
0
  6
CONTINUOUS
 66
     1
 40
0.000000
 41
0.000000
  0
VERTEX
  8
0
  6
CONTINUOUS
 10
2.393160
 20
3.321120
  0
VERTEX
  8
0
  6
CONTINUOUS
 10
3.045240
 20
2.948000
  0
VERTEX
  8
0
  6
CONTINUOUS
 10
2.908400
 20
2.948000
  0
VERTEX
  8
0
  6
CONTINUOUS
 10
2.256320
 20
3.321120
  0
VERTEX
  8
0
  6
CONTINUOUS
 10
2.393160
 20
3.321120
  0
SEQEND
  8
0
  0
SOLID
  8
0
 62
    15
 10
4.933720
 20
4.071760
 11
5.585800
 21
3.698200
 12
4.860240
 22
3.980680
 13
5.512320
 23
3.607560
  0
POLYLINE
  8
0
  6
CONTINUOUS
 66
     1
 40
0.000000
 41
0.000000
  0
VERTEX
  8
0
  6
CONTINUOUS
 10
4.933720
 20
4.071760
  0
VERTEX
  8
0
  6
CONTINUOUS
 10
5.585800
 20
3.698200
  0
VERTEX
  8
0
  6
CONTINUOUS
 10
5.512320
 20
3.607560
  0
VERTEX
  8
0
  6
CONTINUOUS
 10
4.860240
 20
3.980680
  0
VERTEX
  8
0
  6
CONTINUOUS
 10
4.933720
 20
4.071760
  0
SEQEND
  8
0
  0
SOLID
  8
0
 62
    15
 10
4.860240
 20
3.980680
 11
5.512320
 21
3.607560
 12
4.808320
 22
3.873760
 13
5.459960
 23
3.500640
  0
POLYLINE
  8
0
  6
CONTINUOUS
 66
     1
 40
0.000000
 41
0.000000
  0
VERTEX
  8
0
  6
CONTINUOUS
 10
4.860240
 20
3.980680
  0
VERTEX
  8
0
  6
CONTINUOUS
 10
5.512320
 20
3.607560
  0
VERTEX
  8
0
  6
CONTINUOUS
 10
5.459960
 20
3.500640
  0
VERTEX
  8
0
  6
CONTINUOUS
 10
4.808320
 20
3.873760
  0
VERTEX
  8
0
  6
CONTINUOUS
 10
4.860240
 20
3.980680
  0
SEQEND
  8
0
  0
SOLID
  8
0
 62
    15
 10
4.808320
 20
3.873760
 11
5.459960
 21
3.500640
 12
4.791600
 22
3.813480
 13
5.443240
 23
3.439920
  0
POLYLINE
  8
0
  6
CONTINUOUS
 66
     1
 40
0.000000
 41
0.000000
  0
VERTEX
  8
0
  6
CONTINUOUS
 10
4.808320
 20
3.873760
  0
VERTEX
  8
0
  6
CONTINUOUS
 10
5.459960
 20
3.500640
  0
VERTEX
  8
0
  6
CONTINUOUS
 10
5.443240
 20
3.439920
  0
VERTEX
  8
0
  6
CONTINUOUS
 10
4.791600
 20
3.813480
  0
VERTEX
  8
0
  6
CONTINUOUS
 10
4.808320
 20
3.873760
  0
SEQEND
  8
0
  0
SOLID
  8
0
 62
    15
 10
4.791600
 20
3.813480
 11
5.443240
 21
3.439920
 12
4.781480
 22
3.747040
 13
5.433560
 23
3.373920
  0
POLYLINE
  8
0
  6
CONTINUOUS
 66
     1
 40
0.000000
 41
0.000000
  0
VERTEX
  8
0
  6
CONTINUOUS
 10
4.791600
 20
3.813480
  0
VERTEX
  8
0
  6
CONTINUOUS
 10
5.443240
 20
3.439920
  0
VERTEX
  8
0
  6
CONTINUOUS
 10
5.433560
 20
3.373920
  0
VERTEX
  8
0
  6
CONTINUOUS
 10
4.781480
 20
3.747040
  0
VERTEX
  8
0
  6
CONTINUOUS
 10
4.791600
 20
3.813480
  0
SEQEND
  8
0
  0
SOLID
  8
0
 62
    15
 10
4.781480
 20
3.747040
 11
5.433560
 21
3.373920
 12
4.773560
 22
3.623840
 13
5.425200
 23
3.250280
  0
POLYLINE
  8
0
  6
CONTINUOUS
 66
     1
 40
0.000000
 41
0.000000
  0
VERTEX
  8
0
  6
CONTINUOUS
 10
4.781480
 20
3.747040
  0
VERTEX
  8
0
  6
CONTINUOUS
 10
5.433560
 20
3.373920
  0
VERTEX
  8
0
  6
CONTINUOUS
 10
5.425200
 20
3.250280
  0
VERTEX
  8
0
  6
CONTINUOUS
 10
4.773560
 20
3.623840
  0
VERTEX
  8
0
  6
CONTINUOUS
 10
4.781480
 20
3.747040
  0
SEQEND
  8
0
  0
SOLID
  8
0
 62
    15
 10
4.773560
 20
3.623840
 11
5.425200
 21
3.250280
 12
4.771800
 22
3.526160
 13
5.423440
 23
3.152600
  0
POLYLINE
  8
0
  6
CONTINUOUS
 66
     1
 40
0.000000
 41
0.000000
  0
VERTEX
  8
0
  6
CONTINUOUS
 10
4.773560
 20
3.623840
  0
VERTEX
  8
0
  6
CONTINUOUS
 10
5.425200
 20
3.250280
  0
VERTEX
  8
0
  6
CONTINUOUS
 10
5.423440
 20
3.152600
  0
VERTEX
  8
0
  6
CONTINUOUS
 10
4.771800
 20
3.526160
  0
VERTEX
  8
0
  6
CONTINUOUS
 10
4.773560
 20
3.623840
  0
SEQEND
  8
0
  0
SOLID
  8
0
 62
    15
 10
4.771800
 20
3.526160
 11
5.423440
 21
3.152600
 12
4.771800
 22
3.486120
 13
5.423880
 23
3.112560
  0
POLYLINE
  8
0
  6
CONTINUOUS
 66
     1
 40
0.000000
 41
0.000000
  0
VERTEX
  8
0
  6
CONTINUOUS
 10
4.771800
 20
3.526160
  0
VERTEX
  8
0
  6
CONTINUOUS
 10
5.423440
 20
3.152600
  0
VERTEX
  8
0
  6
CONTINUOUS
 10
5.423880
 20
3.112560
  0
VERTEX
  8
0
  6
CONTINUOUS
 10
4.771800
 20
3.486120
  0
VERTEX
  8
0
  6
CONTINUOUS
 10
4.771800
 20
3.526160
  0
SEQEND
  8
0
  0
SOLID
  8
0
 62
    15
 10
4.771800
 20
3.486120
 11
5.423880
 21
3.112560
 12
4.772240
 22
3.451360
 13
5.424320
 23
3.078240
  0
POLYLINE
  8
0
  6
CONTINUOUS
 66
     1
 40
0.000000
 41
0.000000
  0
VERTEX
  8
0
  6
CONTINUOUS
 10
4.771800
 20
3.486120
  0
VERTEX
  8
0
  6
CONTINUOUS
 10
5.423880
 20
3.112560
  0
VERTEX
  8
0
  6
CONTINUOUS
 10
5.424320
 20
3.078240
  0
VERTEX
  8
0
  6
CONTINUOUS
 10
4.772240
 20
3.451360
  0
VERTEX
  8
0
  6
CONTINUOUS
 10
4.771800
 20
3.486120
  0
SEQEND
  8
0
  0
SOLID
  8
0
 62
    15
 10
4.772240
 20
3.451360
 11
5.424320
 21
3.078240
 12
4.771360
 22
3.396800
 13
5.423440
 23
3.023680
  0
POLYLINE
  8
0
  6
CONTINUOUS
 66
     1
 40
0.000000
 41
0.000000
  0
VERTEX
  8
0
  6
CONTINUOUS
 10
4.772240
 20
3.451360
  0
VERTEX
  8
0
  6
CONTINUOUS
 10
5.424320
 20
3.078240
  0
VERTEX
  8
0
  6
CONTINUOUS
 10
5.423440
 20
3.023680
  0
VERTEX
  8
0
  6
CONTINUOUS
 10
4.771360
 20
3.396800
  0
VERTEX
  8
0
  6
CONTINUOUS
 10
4.772240
 20
3.451360
  0
SEQEND
  8
0
  0
SOLID
  8
0
 62
    15
 10
4.771360
 20
3.396800
 11
5.423440
 21
3.023680
 12
4.765640
 22
3.359400
 13
5.417280
 23
2.986280
  0
POLYLINE
  8
0
  6
CONTINUOUS
 66
     1
 40
0.000000
 41
0.000000
  0
VERTEX
  8
0
  6
CONTINUOUS
 10
4.771360
 20
3.396800
  0
VERTEX
  8
0
  6
CONTINUOUS
 10
5.423440
 20
3.023680
  0
VERTEX
  8
0
  6
CONTINUOUS
 10
5.417280
 20
2.986280
  0
VERTEX
  8
0
  6
CONTINUOUS
 10
4.765640
 20
3.359400
  0
VERTEX
  8
0
  6
CONTINUOUS
 10
4.771360
 20
3.396800
  0
SEQEND
  8
0
  0
SOLID
  8
0
 62
    15
 10
4.765640
 20
3.359400
 11
5.417280
 21
2.986280
 12
4.750240
 22
3.336520
 13
5.402320
 23
2.962960
  0
POLYLINE
  8
0
  6
CONTINUOUS
 66
     1
 40
0.000000
 41
0.000000
  0
VERTEX
  8
0
  6
CONTINUOUS
 10
4.765640
 20
3.359400
  0
VERTEX
  8
0
  6
CONTINUOUS
 10
5.417280
 20
2.986280
  0
VERTEX
  8
0
  6
CONTINUOUS
 10
5.402320
 20
2.962960
  0
VERTEX
  8
0
  6
CONTINUOUS
 10
4.750240
 20
3.336520
  0
VERTEX
  8
0
  6
CONTINUOUS
 10
4.765640
 20
3.359400
  0
SEQEND
  8
0
  0
SOLID
  8
0
 62
    15
 10
4.750240
 20
3.336520
 11
5.402320
 21
2.962960
 12
4.721640
 22
3.324640
 13
5.373720
 23
2.951520
  0
POLYLINE
  8
0
  6
CONTINUOUS
 66
     1
 40
0.000000
 41
0.000000
  0
VERTEX
  8
0
  6
CONTINUOUS
 10
4.750240
 20
3.336520
  0
VERTEX
  8
0
  6
CONTINUOUS
 10
5.402320
 20
2.962960
  0
VERTEX
  8
0
  6
CONTINUOUS
 10
5.373720
 20
2.951520
  0
VERTEX
  8
0
  6
CONTINUOUS
 10
4.721640
 20
3.324640
  0
VERTEX
  8
0
  6
CONTINUOUS
 10
4.750240
 20
3.336520
  0
SEQEND
  8
0
  0
SOLID
  8
0
 62
    15
 10
4.721640
 20
3.324640
 11
5.373720
 21
2.951520
 12
4.676320
 22
3.321560
 13
5.327960
 23
2.948000
  0
POLYLINE
  8
0
  6
CONTINUOUS
 66
     1
 40
0.000000
 41
0.000000
  0
VERTEX
  8
0
  6
CONTINUOUS
 10
4.721640
 20
3.324640
  0
VERTEX
  8
0
  6
CONTINUOUS
 10
5.373720
 20
2.951520
  0
VERTEX
  8
0
  6
CONTINUOUS
 10
5.327960
 20
2.948000
  0
VERTEX
  8
0
  6
CONTINUOUS
 10
4.676320
 20
3.321560
  0
VERTEX
  8
0
  6
CONTINUOUS
 10
4.721640
 20
3.324640
  0
SEQEND
  8
0
  0
SOLID
  8
0
 62
    15
 10
4.676320
 20
3.321560
 11
5.327960
 21
2.948000
 12
2.393160
 22
3.321560
 13
3.045240
 23
2.948000
  0
POLYLINE
  8
0
  6
CONTINUOUS
 66
     1
 40
0.000000
 41
0.000000
  0
VERTEX
  8
0
  6
CONTINUOUS
 10
4.676320
 20
3.321560
  0
VERTEX
  8
0
  6
CONTINUOUS
 10
5.327960
 20
2.948000
  0
VERTEX
  8
0
  6
CONTINUOUS
 10
3.045240
 20
2.948000
  0
VERTEX
  8
0
  6
CONTINUOUS
 10
2.393160
 20
3.321560
  0
VERTEX
  8
0
  6
CONTINUOUS
 10
4.676320
 20
3.321560
  0
SEQEND
  8
0
  0
SOLID
  8
0
 62
    15
 10
2.393160
 20
3.321560
 11
3.045240
 21
2.948000
 12
2.393160
 22
3.321560
 13
2.393160
 23
3.321120
  0
POLYLINE
  8
0
  6
CONTINUOUS
 66
     1
 40
0.000000
 41
0.000000
  0
VERTEX
  8
0
  6
CONTINUOUS
 10
2.393160
 20
3.321560
  0
VERTEX
  8
0
  6
CONTINUOUS
 10
3.045240
 20
2.948000
  0
VERTEX
  8
0
  6
CONTINUOUS
 10
2.393160
 20
3.321120
  0
VERTEX
  8
0
  6
CONTINUOUS
 10
2.393160
 20
3.321560
  0
SEQEND
  8
0
  0
POLYLINE
  8
0
  6
CONTINUOUS
 66
     1
 40
0.000000
 41
0.000000
  0
VERTEX
  8
0
  6
CONTINUOUS
 10
2.393160
 20
3.321120
  0
VERTEX
  8
0
  6
CONTINUOUS
 10
2.256320
 20
3.321120
  0
VERTEX
  8
0
  6
CONTINUOUS
 10
2.256320
 20
5.142720
  0
VERTEX
  8
0
  6
CONTINUOUS
 10
5.709000
 20
5.142720
  0
VERTEX
  8
0
  6
CONTINUOUS
 10
5.759600
 20
5.133920
  0
VERTEX
  8
0
  6
CONTINUOUS
 10
5.798760
 20
5.113680
  0
VERTEX
  8
0
  6
CONTINUOUS
 10
5.828240
 20
5.082880
  0
VERTEX
  8
0
  6
CONTINUOUS
 10
5.847160
 20
5.043280
  0
VERTEX
  8
0
  6
CONTINUOUS
 10
5.856840
 20
4.996200
  0
VERTEX
  8
0
  6
CONTINUOUS
 10
5.857720
 20
4.943400
  0
VERTEX
  8
0
  6
CONTINUOUS
 10
5.850240
 20
4.885760
  0
VERTEX
  8
0
  6
CONTINUOUS
 10
5.834840
 20
4.825040
  0
VERTEX
  8
0
  6
CONTINUOUS
 10
5.782480
 20
4.699640
  0
VERTEX
  8
0
  6
CONTINUOUS
 10
5.705040
 20
4.579080
  0
VERTEX
  8
0
  6
CONTINUOUS
 10
5.606040
 20
4.473920
  0
VERTEX
  8
0
  6
CONTINUOUS
 10
5.549720
 20
4.431240
  0
VERTEX
  8
0
  6
CONTINUOUS
 10
5.489880
 20
4.396480
  0
VERTEX
  8
0
  6
CONTINUOUS
 10
5.245240
 20
4.279000
  0
VERTEX
  8
0
  6
CONTINUOUS
 10
5.129960
 20
4.217400
  0
VERTEX
  8
0
  6
CONTINUOUS
 10
5.024800
 20
4.149200
  0
VERTEX
  8
0
  6
CONTINUOUS
 10
4.933720
 20
4.071760
  0
VERTEX
  8
0
  6
CONTINUOUS
 10
4.860240
 20
3.980680
  0
VERTEX
  8
0
  6
CONTINUOUS
 10
4.808320
 20
3.873760
  0
VERTEX
  8
0
  6
CONTINUOUS
 10
4.791600
 20
3.813480
  0
VERTEX
  8
0
  6
CONTINUOUS
 10
4.781480
 20
3.747040
  0
VERTEX
  8
0
  6
CONTINUOUS
 10
4.773560
 20
3.623840
  0
VERTEX
  8
0
  6
CONTINUOUS
 10
4.771800
 20
3.526160
  0
VERTEX
  8
0
  6
CONTINUOUS
 10
4.771800
 20
3.486120
  0
VERTEX
  8
0
  6
CONTINUOUS
 10
4.772240
 20
3.451360
  0
VERTEX
  8
0
  6
CONTINUOUS
 10
4.771360
 20
3.396800
  0
VERTEX
  8
0
  6
CONTINUOUS
 10
4.765640
 20
3.359400
  0
VERTEX
  8
0
  6
CONTINUOUS
 10
4.750240
 20
3.336520
  0
VERTEX
  8
0
  6
CONTINUOUS
 10
4.721640
 20
3.324640
  0
VERTEX
  8
0
  6
CONTINUOUS
 10
4.676320
 20
3.321560
  0
VERTEX
  8
0
  6
CONTINUOUS
 10
2.393160
 20
3.321560
  0
VERTEX
  8
0
  6
CONTINUOUS
 10
2.393160
 20
3.321120
  0
SEQEND
  8
0
  0
TEXT
  8
0
 10
6.077280
 20
3.240600
 40
0.138194
  1
BA  975
 41
1.000000
  7
SN0
 71
     0
 72
     5
 11
6.666879
 21
3.240600
  0
TEXT
  8
0
 10
5.755200
 20
3.048760
 40
0.138194
  1
1-13/16" x 3-5/8"
 41
1.000000
  7
SN0
 71
     0
 72
     5
 11
6.986581
 21
3.048760
  0
SOLID
  8
0
 62
    15
 10
4.105640
 20
2.184160
 11
4.755520
 21
1.811920
 12
4.033480
 22
2.032360
 13
4.683360
 23
1.660560
  0
POLYLINE
  8
0
  6
CONTINUOUS
 66
     1
 40
0.000000
 41
0.000000
  0
VERTEX
  8
0
  6
CONTINUOUS
 10
4.105640
 20
2.184160
  0
VERTEX
  8
0
  6
CONTINUOUS
 10
4.755520
 20
1.811920
  0
VERTEX
  8
0
  6
CONTINUOUS
 10
4.683360
 20
1.660560
  0
VERTEX
  8
0
  6
CONTINUOUS
 10
4.033480
 20
2.032360
  0
VERTEX
  8
0
  6
CONTINUOUS
 10
4.105640
 20
2.184160
  0
SEQEND
  8
0
  0
SOLID
  8
0
 62
    15
 10
4.484040
 20
3.202760
 11
5.133480
 21
2.830960
 12
4.483160
 22
3.150840
 13
5.133040
 23
2.779040
  0
POLYLINE
  8
0
  6
CONTINUOUS
 66
     1
 40
0.000000
 41
0.000000
  0
VERTEX
  8
0
  6
CONTINUOUS
 10
4.484040
 20
3.202760
  0
VERTEX
  8
0
  6
CONTINUOUS
 10
5.133480
 20
2.830960
  0
VERTEX
  8
0
  6
CONTINUOUS
 10
5.133040
 20
2.779040
  0
VERTEX
  8
0
  6
CONTINUOUS
 10
4.483160
 20
3.150840
  0
VERTEX
  8
0
  6
CONTINUOUS
 10
4.484040
 20
3.202760
  0
SEQEND
  8
0
  0
SOLID
  8
0
 62
    15
 10
4.483160
 20
3.150840
 11
5.133040
 21
2.779040
 12
4.473480
 22
3.106840
 13
5.122920
 23
2.735040
  0
POLYLINE
  8
0
  6
CONTINUOUS
 66
     1
 40
0.000000
 41
0.000000
  0
VERTEX
  8
0
  6
CONTINUOUS
 10
4.483160
 20
3.150840
  0
VERTEX
  8
0
  6
CONTINUOUS
 10
5.133040
 20
2.779040
  0
VERTEX
  8
0
  6
CONTINUOUS
 10
5.122920
 20
2.735040
  0
VERTEX
  8
0
  6
CONTINUOUS
 10
4.473480
 20
3.106840
  0
VERTEX
  8
0
  6
CONTINUOUS
 10
4.483160
 20
3.150840
  0
SEQEND
  8
0
  0
SOLID
  8
0
 62
    15
 10
4.473480
 20
3.106840
 11
5.122920
 21
2.735040
 12
4.431680
 22
3.039960
 13
5.081560
 23
2.668160
  0
POLYLINE
  8
0
  6
CONTINUOUS
 66
     1
 40
0.000000
 41
0.000000
  0
VERTEX
  8
0
  6
CONTINUOUS
 10
4.473480
 20
3.106840
  0
VERTEX
  8
0
  6
CONTINUOUS
 10
5.122920
 20
2.735040
  0
VERTEX
  8
0
  6
CONTINUOUS
 10
5.081560
 20
2.668160
  0
VERTEX
  8
0
  6
CONTINUOUS
 10
4.431680
 20
3.039960
  0
VERTEX
  8
0
  6
CONTINUOUS
 10
4.473480
 20
3.106840
  0
SEQEND
  8
0
  0
SOLID
  8
0
 62
    15
 10
4.431680
 20
3.039960
 11
5.081560
 21
2.668160
 12
4.369640
 22
2.995520
 13
5.019520
 23
2.623720
  0
POLYLINE
  8
0
  6
CONTINUOUS
 66
     1
 40
0.000000
 41
0.000000
  0
VERTEX
  8
0
  6
CONTINUOUS
 10
4.431680
 20
3.039960
  0
VERTEX
  8
0
  6
CONTINUOUS
 10
5.081560
 20
2.668160
  0
VERTEX
  8
0
  6
CONTINUOUS
 10
5.019520
 20
2.623720
  0
VERTEX
  8
0
  6
CONTINUOUS
 10
4.369640
 20
2.995520
  0
VERTEX
  8
0
  6
CONTINUOUS
 10
4.431680
 20
3.039960
  0
SEQEND
  8
0
  0
SOLID
  8
0
 62
    15
 10
4.369640
 20
2.995520
 11
5.019520
 21
2.623720
 12
4.297480
 22
2.967800
 13
4.947360
 23
2.595560
  0
POLYLINE
  8
0
  6
CONTINUOUS
 66
     1
 40
0.000000
 41
0.000000
  0
VERTEX
  8
0
  6
CONTINUOUS
 10
4.369640
 20
2.995520
  0
VERTEX
  8
0
  6
CONTINUOUS
 10
5.019520
 20
2.623720
  0
VERTEX
  8
0
  6
CONTINUOUS
 10
4.947360
 20
2.595560
  0
VERTEX
  8
0
  6
CONTINUOUS
 10
4.297480
 20
2.967800
  0
VERTEX
  8
0
  6
CONTINUOUS
 10
4.369640
 20
2.995520
  0
SEQEND
  8
0
  0
SOLID
  8
0
 62
    15
 10
4.297480
 20
2.967800
 11
4.947360
 21
2.595560
 12
4.279440
 22
2.813360
 13
4.929320
 23
2.441120
  0
POLYLINE
  8
0
  6
CONTINUOUS
 66
     1
 40
0.000000
 41
0.000000
  0
VERTEX
  8
0
  6
CONTINUOUS
 10
4.297480
 20
2.967800
  0
VERTEX
  8
0
  6
CONTINUOUS
 10
4.947360
 20
2.595560
  0
VERTEX
  8
0
  6
CONTINUOUS
 10
4.929320
 20
2.441120
  0
VERTEX
  8
0
  6
CONTINUOUS
 10
4.279440
 20
2.813360
  0
VERTEX
  8
0
  6
CONTINUOUS
 10
4.297480
 20
2.967800
  0
SEQEND
  8
0
  0
SOLID
  8
0
 62
    15
 10
4.279440
 20
2.813360
 11
4.929320
 21
2.441120
 12
4.252160
 22
2.655840
 13
4.901600
 23
2.284040
  0
POLYLINE
  8
0
  6
CONTINUOUS
 66
     1
 40
0.000000
 41
0.000000
  0
VERTEX
  8
0
  6
CONTINUOUS
 10
4.279440
 20
2.813360
  0
VERTEX
  8
0
  6
CONTINUOUS
 10
4.929320
 20
2.441120
  0
VERTEX
  8
0
  6
CONTINUOUS
 10
4.901600
 20
2.284040
  0
VERTEX
  8
0
  6
CONTINUOUS
 10
4.252160
 20
2.655840
  0
VERTEX
  8
0
  6
CONTINUOUS
 10
4.279440
 20
2.813360
  0
SEQEND
  8
0
  0
SOLID
  8
0
 62
    15
 10
4.252160
 20
2.655840
 11
4.901600
 21
2.284040
 12
4.214320
 22
2.497440
 13
4.864200
 23
2.125640
  0
POLYLINE
  8
0
  6
CONTINUOUS
 66
     1
 40
0.000000
 41
0.000000
  0
VERTEX
  8
0
  6
CONTINUOUS
 10
4.252160
 20
2.655840
  0
VERTEX
  8
0
  6
CONTINUOUS
 10
4.901600
 20
2.284040
  0
VERTEX
  8
0
  6
CONTINUOUS
 10
4.864200
 20
2.125640
  0
VERTEX
  8
0
  6
CONTINUOUS
 10
4.214320
 20
2.497440
  0
VERTEX
  8
0
  6
CONTINUOUS
 10
4.252160
 20
2.655840
  0
SEQEND
  8
0
  0
SOLID
  8
0
 62
    15
 10
4.214320
 20
2.497440
 11
4.864200
 21
2.125640
 12
4.165920
 22
2.339480
 13
4.815360
 23
1.967680
  0
POLYLINE
  8
0
  6
CONTINUOUS
 66
     1
 40
0.000000
 41
0.000000
  0
VERTEX
  8
0
  6
CONTINUOUS
 10
4.214320
 20
2.497440
  0
VERTEX
  8
0
  6
CONTINUOUS
 10
4.864200
 20
2.125640
  0
VERTEX
  8
0
  6
CONTINUOUS
 10
4.815360
 20
1.967680
  0
VERTEX
  8
0
  6
CONTINUOUS
 10
4.165920
 20
2.339480
  0
VERTEX
  8
0
  6
CONTINUOUS
 10
4.214320
 20
2.497440
  0
SEQEND
  8
0
  0
SOLID
  8
0
 62
    15
 10
4.165920
 20
2.339480
 11
4.815360
 21
1.967680
 12
4.105640
 22
2.184160
 13
4.755520
 23
1.811920
  0
POLYLINE
  8
0
  6
CONTINUOUS
 66
     1
 40
0.000000
 41
0.000000
  0
VERTEX
  8
0
  6
CONTINUOUS
 10
4.165920
 20
2.339480
  0
VERTEX
  8
0
  6
CONTINUOUS
 10
4.815360
 20
1.967680
  0
VERTEX
  8
0
  6
CONTINUOUS
 10
4.755520
 20
1.811920
  0
VERTEX
  8
0
  6
CONTINUOUS
 10
4.105640
 20
2.184160
  0
VERTEX
  8
0
  6
CONTINUOUS
 10
4.165920
 20
2.339480
  0
SEQEND
  8
0
  0
SOLID
  8
0
 62
    15
 10
4.473920
 20
3.323320
 11
5.123800
 21
2.951080
 12
4.484040
 22
3.202760
 13
5.133480
 23
2.830960
  0
POLYLINE
  8
0
  6
CONTINUOUS
 66
     1
 40
0.000000
 41
0.000000
  0
VERTEX
  8
0
  6
CONTINUOUS
 10
4.473920
 20
3.323320
  0
VERTEX
  8
0
  6
CONTINUOUS
 10
5.123800
 20
2.951080
  0
VERTEX
  8
0
  6
CONTINUOUS
 10
5.133480
 20
2.830960
  0
VERTEX
  8
0
  6
CONTINUOUS
 10
4.484040
 20
3.202760
  0
VERTEX
  8
0
  6
CONTINUOUS
 10
4.473920
 20
3.323320
  0
SEQEND
  8
0
  0
SOLID
  8
0
 62
    15
 10
4.033480
 20
2.032360
 11
4.683360
 21
1.660560
 12
3.948560
 22
1.886720
 13
4.598440
 23
1.514920
  0
POLYLINE
  8
0
  6
CONTINUOUS
 66
     1
 40
0.000000
 41
0.000000
  0
VERTEX
  8
0
  6
CONTINUOUS
 10
4.033480
 20
2.032360
  0
VERTEX
  8
0
  6
CONTINUOUS
 10
4.683360
 20
1.660560
  0
VERTEX
  8
0
  6
CONTINUOUS
 10
4.598440
 20
1.514920
  0
VERTEX
  8
0
  6
CONTINUOUS
 10
3.948560
 20
1.886720
  0
VERTEX
  8
0
  6
CONTINUOUS
 10
4.033480
 20
2.032360
  0
SEQEND
  8
0
  0
SOLID
  8
0
 62
    15
 10
3.948560
 20
1.886720
 11
4.598440
 21
1.514920
 12
3.850440
 22
1.749000
 13
4.500320
 23
1.376760
  0
POLYLINE
  8
0
  6
CONTINUOUS
 66
     1
 40
0.000000
 41
0.000000
  0
VERTEX
  8
0
  6
CONTINUOUS
 10
3.948560
 20
1.886720
  0
VERTEX
  8
0
  6
CONTINUOUS
 10
4.598440
 20
1.514920
  0
VERTEX
  8
0
  6
CONTINUOUS
 10
4.500320
 20
1.376760
  0
VERTEX
  8
0
  6
CONTINUOUS
 10
3.850440
 20
1.749000
  0
VERTEX
  8
0
  6
CONTINUOUS
 10
3.948560
 20
1.886720
  0
SEQEND
  8
0
  0
SOLID
  8
0
 62
    15
 10
3.850440
 20
1.749000
 11
4.500320
 21
1.376760
 12
3.737800
 22
1.620080
 13
4.387680
 23
1.248280
  0
POLYLINE
  8
0
  6
CONTINUOUS
 66
     1
 40
0.000000
 41
0.000000
  0
VERTEX
  8
0
  6
CONTINUOUS
 10
3.850440
 20
1.749000
  0
VERTEX
  8
0
  6
CONTINUOUS
 10
4.500320
 20
1.376760
  0
VERTEX
  8
0
  6
CONTINUOUS
 10
4.387680
 20
1.248280
  0
VERTEX
  8
0
  6
CONTINUOUS
 10
3.737800
 20
1.620080
  0
VERTEX
  8
0
  6
CONTINUOUS
 10
3.850440
 20
1.749000
  0
SEQEND
  8
0
  0
SOLID
  8
0
 62
    15
 10
3.737800
 20
1.620080
 11
4.387680
 21
1.248280
 12
3.610640
 22
1.502160
 13
4.260520
 23
1.130360
  0
POLYLINE
  8
0
  6
CONTINUOUS
 66
     1
 40
0.000000
 41
0.000000
  0
VERTEX
  8
0
  6
CONTINUOUS
 10
3.737800
 20
1.620080
  0
VERTEX
  8
0
  6
CONTINUOUS
 10
4.387680
 20
1.248280
  0
VERTEX
  8
0
  6
CONTINUOUS
 10
4.260520
 20
1.130360
  0
VERTEX
  8
0
  6
CONTINUOUS
 10
3.610640
 20
1.502160
  0
VERTEX
  8
0
  6
CONTINUOUS
 10
3.737800
 20
1.620080
  0
SEQEND
  8
0
  0
SOLID
  8
0
 62
    15
 10
3.610640
 20
1.502160
 11
4.260520
 21
1.130360
 12
3.468520
 22
1.397440
 13
4.117960
 23
1.025640
  0
POLYLINE
  8
0
  6
CONTINUOUS
 66
     1
 40
0.000000
 41
0.000000
  0
VERTEX
  8
0
  6
CONTINUOUS
 10
3.610640
 20
1.502160
  0
VERTEX
  8
0
  6
CONTINUOUS
 10
4.260520
 20
1.130360
  0
VERTEX
  8
0
  6
CONTINUOUS
 10
4.117960
 20
1.025640
  0
VERTEX
  8
0
  6
CONTINUOUS
 10
3.468520
 20
1.397440
  0
VERTEX
  8
0
  6
CONTINUOUS
 10
3.610640
 20
1.502160
  0
SEQEND
  8
0
  0
SOLID
  8
0
 62
    15
 10
3.468520
 20
1.397440
 11
4.117960
 21
1.025640
 12
3.309680
 22
1.307240
 13
3.959560
 23
0.935000
  0
POLYLINE
  8
0
  6
CONTINUOUS
 66
     1
 40
0.000000
 41
0.000000
  0
VERTEX
  8
0
  6
CONTINUOUS
 10
3.468520
 20
1.397440
  0
VERTEX
  8
0
  6
CONTINUOUS
 10
4.117960
 20
1.025640
  0
VERTEX
  8
0
  6
CONTINUOUS
 10
3.959560
 20
0.935000
  0
VERTEX
  8
0
  6
CONTINUOUS
 10
3.309680
 20
1.307240
  0
VERTEX
  8
0
  6
CONTINUOUS
 10
3.468520
 20
1.397440
  0
SEQEND
  8
0
  0
SOLID
  8
0
 62
    15
 10
3.309680
 20
1.307240
 11
3.959560
 21
0.935000
 12
3.134560
 22
1.233320
 13
3.784440
 23
0.861080
  0
POLYLINE
  8
0
  6
CONTINUOUS
 66
     1
 40
0.000000
 41
0.000000
  0
VERTEX
  8
0
  6
CONTINUOUS
 10
3.309680
 20
1.307240
  0
VERTEX
  8
0
  6
CONTINUOUS
 10
3.959560
 20
0.935000
  0
VERTEX
  8
0
  6
CONTINUOUS
 10
3.784440
 20
0.861080
  0
VERTEX
  8
0
  6
CONTINUOUS
 10
3.134560
 20
1.233320
  0
VERTEX
  8
0
  6
CONTINUOUS
 10
3.309680
 20
1.307240
  0
SEQEND
  8
0
  0
SOLID
  8
0
 62
    15
 10
3.134560
 20
1.233320
 11
3.784440
 21
0.861080
 12
2.942280
 22
1.177000
 13
3.591720
 23
0.805200
  0
POLYLINE
  8
0
  6
CONTINUOUS
 66
     1
 40
0.000000
 41
0.000000
  0
VERTEX
  8
0
  6
CONTINUOUS
 10
3.134560
 20
1.233320
  0
VERTEX
  8
0
  6
CONTINUOUS
 10
3.784440
 20
0.861080
  0
VERTEX
  8
0
  6
CONTINUOUS
 10
3.591720
 20
0.805200
  0
VERTEX
  8
0
  6
CONTINUOUS
 10
2.942280
 20
1.177000
  0
VERTEX
  8
0
  6
CONTINUOUS
 10
3.134560
 20
1.233320
  0
SEQEND
  8
0
  0
SOLID
  8
0
 62
    15
 10
2.942280
 20
1.177000
 11
3.591720
 21
0.805200
 12
2.731520
 22
1.140920
 13
3.381400
 23
0.769120
  0
POLYLINE
  8
0
  6
CONTINUOUS
 66
     1
 40
0.000000
 41
0.000000
  0
VERTEX
  8
0
  6
CONTINUOUS
 10
2.942280
 20
1.177000
  0
VERTEX
  8
0
  6
CONTINUOUS
 10
3.591720
 20
0.805200
  0
VERTEX
  8
0
  6
CONTINUOUS
 10
3.381400
 20
0.769120
  0
VERTEX
  8
0
  6
CONTINUOUS
 10
2.731520
 20
1.140920
  0
VERTEX
  8
0
  6
CONTINUOUS
 10
2.942280
 20
1.177000
  0
SEQEND
  8
0
  0
SOLID
  8
0
 62
    15
 10
2.731520
 20
1.140920
 11
3.381400
 21
0.769120
 12
2.502720
 22
1.126400
 13
3.152160
 23
0.754600
  0
POLYLINE
  8
0
  6
CONTINUOUS
 66
     1
 40
0.000000
 41
0.000000
  0
VERTEX
  8
0
  6
CONTINUOUS
 10
2.731520
 20
1.140920
  0
VERTEX
  8
0
  6
CONTINUOUS
 10
3.381400
 20
0.769120
  0
VERTEX
  8
0
  6
CONTINUOUS
 10
3.152160
 20
0.754600
  0
VERTEX
  8
0
  6
CONTINUOUS
 10
2.502720
 20
1.126400
  0
VERTEX
  8
0
  6
CONTINUOUS
 10
2.731520
 20
1.140920
  0
SEQEND
  8
0
  0
SOLID
  8
0
 62
    15
 10
3.404720
 20
2.684440
 11
4.054600
 21
2.312200
 12
3.405600
 22
2.683560
 13
4.055480
 23
2.311760
  0
POLYLINE
  8
0
  6
CONTINUOUS
 66
     1
 40
0.000000
 41
0.000000
  0
VERTEX
  8
0
  6
CONTINUOUS
 10
3.404720
 20
2.684440
  0
VERTEX
  8
0
  6
CONTINUOUS
 10
4.054600
 20
2.312200
  0
VERTEX
  8
0
  6
CONTINUOUS
 10
4.055480
 20
2.311760
  0
VERTEX
  8
0
  6
CONTINUOUS
 10
3.405600
 20
2.683560
  0
VERTEX
  8
0
  6
CONTINUOUS
 10
3.404720
 20
2.684440
  0
SEQEND
  8
0
  0
POLYLINE
  8
0
  6
CONTINUOUS
 66
     1
 40
0.000000
 41
0.000000
  0
VERTEX
  8
0
  6
CONTINUOUS
 10
3.405600
 20
2.683560
  0
VERTEX
  8
0
  6
CONTINUOUS
 10
3.949000
 20
3.324200
  0
VERTEX
  8
0
  6
CONTINUOUS
 10
4.473920
 20
3.323320
  0
VERTEX
  8
0
  6
CONTINUOUS
 10
4.484040
 20
3.202760
  0
VERTEX
  8
0
  6
CONTINUOUS
 10
4.483160
 20
3.150840
  0
VERTEX
  8
0
  6
CONTINUOUS
 10
4.473480
 20
3.106840
  0
VERTEX
  8
0
  6
CONTINUOUS
 10
4.431680
 20
3.039960
  0
VERTEX
  8
0
  6
CONTINUOUS
 10
4.369640
 20
2.995520
  0
VERTEX
  8
0
  6
CONTINUOUS
 10
4.297480
 20
2.967800
  0
VERTEX
  8
0
  6
CONTINUOUS
 10
4.279440
 20
2.813360
  0
VERTEX
  8
0
  6
CONTINUOUS
 10
4.252160
 20
2.655840
  0
VERTEX
  8
0
  6
CONTINUOUS
 10
4.214320
 20
2.497440
  0
VERTEX
  8
0
  6
CONTINUOUS
 10
4.165920
 20
2.339480
  0
VERTEX
  8
0
  6
CONTINUOUS
 10
4.105640
 20
2.184160
  0
VERTEX
  8
0
  6
CONTINUOUS
 10
4.033480
 20
2.032360
  0
VERTEX
  8
0
  6
CONTINUOUS
 10
3.948560
 20
1.886720
  0
VERTEX
  8
0
  6
CONTINUOUS
 10
3.850440
 20
1.749000
  0
VERTEX
  8
0
  6
CONTINUOUS
 10
3.737800
 20
1.620080
  0
VERTEX
  8
0
  6
CONTINUOUS
 10
3.610640
 20
1.502160
  0
VERTEX
  8
0
  6
CONTINUOUS
 10
3.468520
 20
1.397440
  0
VERTEX
  8
0
  6
CONTINUOUS
 10
3.309680
 20
1.307240
  0
VERTEX
  8
0
  6
CONTINUOUS
 10
3.134560
 20
1.233320
  0
VERTEX
  8
0
  6
CONTINUOUS
 10
2.942280
 20
1.177000
  0
VERTEX
  8
0
  6
CONTINUOUS
 10
2.731520
 20
1.140920
  0
VERTEX
  8
0
  6
CONTINUOUS
 10
2.502720
 20
1.126400
  0
VERTEX
  8
0
  6
CONTINUOUS
 10
2.688400
 20
1.839200
  0
VERTEX
  8
0
  6
CONTINUOUS
 10
3.404720
 20
2.684440
  0
VERTEX
  8
0
  6
CONTINUOUS
 10
3.405600
 20
2.683560
  0
SEQEND
  8
0
  0
TEXT
  8
0
 10
4.451480
 20
0.927960
 40
0.138194
  1
BA  971
 41
1.000000
  7
SN0
 71
     0
 72
     5
 11
5.041079
 21
0.927960
  0
TEXT
  8
0
 10
4.508240
 20
0.736120
 40
0.138194
  1
1" x 3"
 41
1.000000
  7
SN0
 71
     0
 72
     5
 11
4.985137
 21
0.736120
  0
ENDSEC
  0
EOF
