  0
SECTION
  2
HEADER
  9
$ACADVER
  1
AC1006
  9
$EXTMIN
 10
2.448600
 20
1.277320
  9
$EXTMAX
 10
7.446560
 20
3.418360
  9
$LTSCALE
 40
0.044000
  9
$PDMODE
 70
    35
  9
$PDSIZE
 40
0.035200
  0
ENDSEC
  0
SECTION
  2
TABLES
  0
TABLE
  2
LTYPE
 70
     9
  0
LTYPE
  2
CONTINUOUS
 70
    64
  3
Solid line
 72
    65
 73
     0
 40
0.000000
  0
LTYPE
  2
DASHED
 70
    64
  3
__ __ __ __ __ __ __ __ __ __ __ __ __ __ __
 72
    65
 73
     2
 40
0.000330
 49
0.000220
 49
-0.000110
  0
LTYPE
  2
HIDDEN
 70
    64
  3
 _ _ _ _ _ _ _ _ _ _ _ _ _ _ _ _ _ _ _ _ _ _
 72
    65
 73
     2
 40
0.000165
 49
0.000110
 49
-0.000055
  0
LTYPE
  2
CENTER
 70
    64
  3
____ _ ____ _ ____ _ ____ _ ____ _ ____ _ ____
 72
    65
 73
     4
 40
0.000880
 49
0.000550
 49
-0.000110
 49
0.000110
 49
-0.000110
  0
LTYPE
  2
PHANTOM
 70
    64
  3
_____ _ _ _____ _ _ _____ _ _ _____ _ _ ____
 72
    65
 73
     6
 40
0.001100
 49
0.000550
 49
-0.000110
 49
0.000110
 49
-0.000110
 49
0.000110
 49
-0.000110
  0
LTYPE
  2
DOT
 70
    64
  3
...............................................
 72
    65
 73
     2
 40
0.000110
 49
0.000000
 49
-0.000110
  0
LTYPE
  2
DASHDOT
 70
    64
  3
__ . __ . __ . __ . __ . __ . __ . __ . __ . __
 72
    65
 73
     4
 40
0.000440
 49
0.000220
 49
-0.000110
 49
0.000000
 49
-0.000110
  0
LTYPE
  2
BORDER
 70
    64
  3
__ __ . __ __ . __ __ . __ __ . __ __ . __ __
 72
    65
 73
     6
 40
0.000770
 49
0.000220
 49
-0.000110
 49
0.000220
 49
-0.000110
 49
0.000000
 49
-0.000110
  0
LTYPE
  2
DIVIDE
 70
    64
  3
__ . . __ . . __ . . __ . . __ . . __ . . __
 72
    65
 73
     6
 40
0.000550
 49
0.000220
 49
-0.000110
 49
0.000000
 49
-0.000110
 49
0.000000
 49
-0.000110
  0
LTYPE
  2
DOTDOT
 70
    64
  3
 . .  . .  . .  . .  . .  . . 
 72
    65
 73
     5
 40
0.000242
 49
-0.000110
 49
0.000000
 49
-0.000110
 49
0.000000
 49
-0.000110
  0
ENDTAB
  0
TABLE
  2
STYLE
 70
     2
  0
STYLE
 70
     0
  2
SN0
 40
0.000000
 41
0.000440
 50
0.000000
 71
     0
 42
0.000000
  3
ROMAND
  0
STYLE
 70
    68
  2
SV0
 40
0.000000
 41
0.000440
 50
0.000000
 71
     0
 42
0.000000
  3
ROMAND
  0
ENDTAB
  0
TABLE
  2
LAYER
 70
     3
  0
LAYER
  2
FOREGROUND
 70
    64
 62
     7
  6
CONTINUOUS
  0
LAYER
  2
BACKGROUND
 70
    65
 62
    -7
  6
CONTINUOUS
  0
LAYER
  2
0
 70
    64
 62
     7
  6
CONTINUOUS
  0
ENDTAB
  0
ENDSEC
  0
SECTION
  2
ENTITIES
  0
POLYLINE
  8
FOREGROUND
  6
CONTINUOUS
 66
     1
 40
0.000000
 41
0.000000
  0
VERTEX
  8
FOREGROUND
  6
CONTINUOUS
 10
0.000000
 20
4.695680
  0
VERTEX
  8
FOREGROUND
  6
CONTINUOUS
 10
8.499920
 20
4.695680
  0
VERTEX
  8
FOREGROUND
  6
CONTINUOUS
 10
8.499920
 20
-6.304320
  0
VERTEX
  8
FOREGROUND
  6
CONTINUOUS
 10
0.000000
 20
-6.304320
  0
VERTEX
  8
FOREGROUND
  6
CONTINUOUS
 10
0.000000
 20
4.695680
  0
SEQEND
  8
0
  0
POLYLINE
  8
FOREGROUND
  6
CONTINUOUS
 66
     1
 40
0.000000
 41
0.000000
  0
VERTEX
  8
FOREGROUND
  6
CONTINUOUS
 10
0.000000
 20
4.695680
  0
VERTEX
  8
FOREGROUND
  6
CONTINUOUS
 10
8.499920
 20
4.695680
  0
VERTEX
  8
FOREGROUND
  6
CONTINUOUS
 10
8.499920
 20
-6.304320
  0
VERTEX
  8
FOREGROUND
  6
CONTINUOUS
 10
0.000000
 20
-6.304320
  0
VERTEX
  8
FOREGROUND
  6
CONTINUOUS
 10
0.000000
 20
4.695680
  0
SEQEND
  8
0
  0
POLYLINE
  8
0
  6
CONTINUOUS
 66
     1
 40
0.014080
 41
0.014080
  0
VERTEX
  8
0
  6
CONTINUOUS
 10
7.439080
 20
2.733720
  0
VERTEX
  8
0
  6
CONTINUOUS
 10
7.439080
 20
3.152160
  0
VERTEX
  8
0
  6
CONTINUOUS
 10
5.754760
 20
3.152160
  0
VERTEX
  8
0
  6
CONTINUOUS
 10
5.754760
 20
1.419880
  0
VERTEX
  8
0
  6
CONTINUOUS
 10
5.834400
 20
1.414600
  0
VERTEX
  8
0
  6
CONTINUOUS
 10
5.911840
 20
1.413280
  0
VERTEX
  8
0
  6
CONTINUOUS
 10
5.987080
 20
1.415920
  0
VERTEX
  8
0
  6
CONTINUOUS
 10
6.060120
 20
1.421640
  0
VERTEX
  8
0
  6
CONTINUOUS
 10
6.130960
 20
1.431760
  0
VERTEX
  8
0
  6
CONTINUOUS
 10
6.199600
 20
1.444960
  0
VERTEX
  8
0
  6
CONTINUOUS
 10
6.265600
 20
1.461680
  0
VERTEX
  8
0
  6
CONTINUOUS
 10
6.329400
 20
1.481480
  0
VERTEX
  8
0
  6
CONTINUOUS
 10
6.391000
 20
1.504800
  0
VERTEX
  8
0
  6
CONTINUOUS
 10
6.479000
 20
1.545720
  0
VERTEX
  8
0
  6
CONTINUOUS
 10
6.534440
 20
1.576960
  0
VERTEX
  8
0
  6
CONTINUOUS
 10
6.587680
 20
1.610840
  0
VERTEX
  8
0
  6
CONTINUOUS
 10
6.638280
 20
1.647800
  0
VERTEX
  8
0
  6
CONTINUOUS
 10
6.686680
 20
1.687400
  0
VERTEX
  8
0
  6
CONTINUOUS
 10
6.732000
 20
1.729640
  0
VERTEX
  8
0
  6
CONTINUOUS
 10
6.775560
 20
1.774520
  0
VERTEX
  8
0
  6
CONTINUOUS
 10
6.816040
 20
1.822040
  0
VERTEX
  8
0
  6
CONTINUOUS
 10
6.854320
 20
1.871760
  0
VERTEX
  8
0
  6
CONTINUOUS
 10
6.906680
 20
1.950960
  0
VERTEX
  8
0
  6
CONTINUOUS
 10
6.938360
 20
2.006400
  0
VERTEX
  8
0
  6
CONTINUOUS
 10
6.980600
 20
2.093080
  0
VERTEX
  8
0
  6
CONTINUOUS
 10
7.017120
 20
2.184600
  0
VERTEX
  8
0
  6
CONTINUOUS
 10
7.038240
 20
2.247960
  0
VERTEX
  8
0
  6
CONTINUOUS
 10
7.056280
 20
2.312640
  0
VERTEX
  8
0
  6
CONTINUOUS
 10
7.078720
 20
2.413400
  0
VERTEX
  8
0
  6
CONTINUOUS
 10
7.094560
 20
2.517240
  0
VERTEX
  8
0
  6
CONTINUOUS
 10
7.101600
 20
2.588080
  0
VERTEX
  8
0
  6
CONTINUOUS
 10
7.106000
 20
2.660240
  0
VERTEX
  8
0
  6
CONTINUOUS
 10
7.107320
 20
2.733720
  0
VERTEX
  8
0
  6
CONTINUOUS
 10
7.439080
 20
2.733720
  0
SEQEND
  8
0
  0
SOLID
  8
0
 62
    15
 10
3.448280
 20
2.017400
 11
4.091560
 21
1.646040
 12
3.356760
 22
1.932920
 13
4.000480
 23
1.561560
  0
POLYLINE
  8
0
  6
CONTINUOUS
 66
     1
 40
0.000000
 41
0.000000
  0
VERTEX
  8
0
  6
CONTINUOUS
 10
3.448280
 20
2.017400
  0
VERTEX
  8
0
  6
CONTINUOUS
 10
4.091560
 20
1.646040
  0
VERTEX
  8
0
  6
CONTINUOUS
 10
4.000480
 20
1.561560
  0
VERTEX
  8
0
  6
CONTINUOUS
 10
3.356760
 20
1.932920
  0
VERTEX
  8
0
  6
CONTINUOUS
 10
3.448280
 20
2.017400
  0
SEQEND
  8
0
  0
SOLID
  8
0
 62
    15
 10
3.801600
 20
2.999040
 11
4.444880
 21
2.627680
 12
3.795880
 22
2.853400
 13
4.439160
 23
2.482040
  0
POLYLINE
  8
0
  6
CONTINUOUS
 66
     1
 40
0.000000
 41
0.000000
  0
VERTEX
  8
0
  6
CONTINUOUS
 10
3.801600
 20
2.999040
  0
VERTEX
  8
0
  6
CONTINUOUS
 10
4.444880
 20
2.627680
  0
VERTEX
  8
0
  6
CONTINUOUS
 10
4.439160
 20
2.482040
  0
VERTEX
  8
0
  6
CONTINUOUS
 10
3.795880
 20
2.853400
  0
VERTEX
  8
0
  6
CONTINUOUS
 10
3.801600
 20
2.999040
  0
SEQEND
  8
0
  0
SOLID
  8
0
 62
    15
 10
3.795880
 20
2.853400
 11
4.439160
 21
2.482040
 12
3.778720
 22
2.713040
 13
4.422000
 23
2.341680
  0
POLYLINE
  8
0
  6
CONTINUOUS
 66
     1
 40
0.000000
 41
0.000000
  0
VERTEX
  8
0
  6
CONTINUOUS
 10
3.795880
 20
2.853400
  0
VERTEX
  8
0
  6
CONTINUOUS
 10
4.439160
 20
2.482040
  0
VERTEX
  8
0
  6
CONTINUOUS
 10
4.422000
 20
2.341680
  0
VERTEX
  8
0
  6
CONTINUOUS
 10
3.778720
 20
2.713040
  0
VERTEX
  8
0
  6
CONTINUOUS
 10
3.795880
 20
2.853400
  0
SEQEND
  8
0
  0
SOLID
  8
0
 62
    15
 10
3.778720
 20
2.713040
 11
4.422000
 21
2.341680
 12
3.750560
 22
2.577960
 13
4.393840
 23
2.207040
  0
POLYLINE
  8
0
  6
CONTINUOUS
 66
     1
 40
0.000000
 41
0.000000
  0
VERTEX
  8
0
  6
CONTINUOUS
 10
3.778720
 20
2.713040
  0
VERTEX
  8
0
  6
CONTINUOUS
 10
4.422000
 20
2.341680
  0
VERTEX
  8
0
  6
CONTINUOUS
 10
4.393840
 20
2.207040
  0
VERTEX
  8
0
  6
CONTINUOUS
 10
3.750560
 20
2.577960
  0
VERTEX
  8
0
  6
CONTINUOUS
 10
3.778720
 20
2.713040
  0
SEQEND
  8
0
  0
SOLID
  8
0
 62
    15
 10
3.750560
 20
2.577960
 11
4.393840
 21
2.207040
 12
3.711400
 22
2.449920
 13
4.354680
 23
2.079000
  0
POLYLINE
  8
0
  6
CONTINUOUS
 66
     1
 40
0.000000
 41
0.000000
  0
VERTEX
  8
0
  6
CONTINUOUS
 10
3.750560
 20
2.577960
  0
VERTEX
  8
0
  6
CONTINUOUS
 10
4.393840
 20
2.207040
  0
VERTEX
  8
0
  6
CONTINUOUS
 10
4.354680
 20
2.079000
  0
VERTEX
  8
0
  6
CONTINUOUS
 10
3.711400
 20
2.449920
  0
VERTEX
  8
0
  6
CONTINUOUS
 10
3.750560
 20
2.577960
  0
SEQEND
  8
0
  0
SOLID
  8
0
 62
    15
 10
3.711400
 20
2.449920
 11
4.354680
 21
2.079000
 12
3.661240
 22
2.328920
 13
4.304520
 23
1.958000
  0
POLYLINE
  8
0
  6
CONTINUOUS
 66
     1
 40
0.000000
 41
0.000000
  0
VERTEX
  8
0
  6
CONTINUOUS
 10
3.711400
 20
2.449920
  0
VERTEX
  8
0
  6
CONTINUOUS
 10
4.354680
 20
2.079000
  0
VERTEX
  8
0
  6
CONTINUOUS
 10
4.304520
 20
1.958000
  0
VERTEX
  8
0
  6
CONTINUOUS
 10
3.661240
 20
2.328920
  0
VERTEX
  8
0
  6
CONTINUOUS
 10
3.711400
 20
2.449920
  0
SEQEND
  8
0
  0
SOLID
  8
0
 62
    15
 10
3.661240
 20
2.328920
 11
4.304520
 21
1.958000
 12
3.600960
 22
2.216280
 13
4.244240
 23
1.844920
  0
POLYLINE
  8
0
  6
CONTINUOUS
 66
     1
 40
0.000000
 41
0.000000
  0
VERTEX
  8
0
  6
CONTINUOUS
 10
3.661240
 20
2.328920
  0
VERTEX
  8
0
  6
CONTINUOUS
 10
4.304520
 20
1.958000
  0
VERTEX
  8
0
  6
CONTINUOUS
 10
4.244240
 20
1.844920
  0
VERTEX
  8
0
  6
CONTINUOUS
 10
3.600960
 20
2.216280
  0
VERTEX
  8
0
  6
CONTINUOUS
 10
3.661240
 20
2.328920
  0
SEQEND
  8
0
  0
SOLID
  8
0
 62
    15
 10
3.600960
 20
2.216280
 11
4.244240
 21
1.844920
 12
3.529680
 22
2.112000
 13
4.172960
 23
1.740640
  0
POLYLINE
  8
0
  6
CONTINUOUS
 66
     1
 40
0.000000
 41
0.000000
  0
VERTEX
  8
0
  6
CONTINUOUS
 10
3.600960
 20
2.216280
  0
VERTEX
  8
0
  6
CONTINUOUS
 10
4.244240
 20
1.844920
  0
VERTEX
  8
0
  6
CONTINUOUS
 10
4.172960
 20
1.740640
  0
VERTEX
  8
0
  6
CONTINUOUS
 10
3.529680
 20
2.112000
  0
VERTEX
  8
0
  6
CONTINUOUS
 10
3.600960
 20
2.216280
  0
SEQEND
  8
0
  0
SOLID
  8
0
 62
    15
 10
3.529680
 20
2.112000
 11
4.172960
 21
1.740640
 12
3.448280
 22
2.017400
 13
4.091560
 23
1.646040
  0
POLYLINE
  8
0
  6
CONTINUOUS
 66
     1
 40
0.000000
 41
0.000000
  0
VERTEX
  8
0
  6
CONTINUOUS
 10
3.529680
 20
2.112000
  0
VERTEX
  8
0
  6
CONTINUOUS
 10
4.172960
 20
1.740640
  0
VERTEX
  8
0
  6
CONTINUOUS
 10
4.091560
 20
1.646040
  0
VERTEX
  8
0
  6
CONTINUOUS
 10
3.448280
 20
2.017400
  0
VERTEX
  8
0
  6
CONTINUOUS
 10
3.529680
 20
2.112000
  0
SEQEND
  8
0
  0
SOLID
  8
0
 62
    15
 10
4.133360
 20
2.999040
 11
4.776640
 21
2.627680
 12
3.801600
 22
2.999040
 13
4.444880
 23
2.627680
  0
POLYLINE
  8
0
  6
CONTINUOUS
 66
     1
 40
0.000000
 41
0.000000
  0
VERTEX
  8
0
  6
CONTINUOUS
 10
4.133360
 20
2.999040
  0
VERTEX
  8
0
  6
CONTINUOUS
 10
4.776640
 20
2.627680
  0
VERTEX
  8
0
  6
CONTINUOUS
 10
4.444880
 20
2.627680
  0
VERTEX
  8
0
  6
CONTINUOUS
 10
3.801600
 20
2.999040
  0
VERTEX
  8
0
  6
CONTINUOUS
 10
4.133360
 20
2.999040
  0
SEQEND
  8
0
  0
SOLID
  8
0
 62
    15
 10
3.356760
 20
1.932920
 11
4.000480
 21
1.561560
 12
3.255560
 22
1.859000
 13
3.898840
 23
1.487640
  0
POLYLINE
  8
0
  6
CONTINUOUS
 66
     1
 40
0.000000
 41
0.000000
  0
VERTEX
  8
0
  6
CONTINUOUS
 10
3.356760
 20
1.932920
  0
VERTEX
  8
0
  6
CONTINUOUS
 10
4.000480
 20
1.561560
  0
VERTEX
  8
0
  6
CONTINUOUS
 10
3.898840
 20
1.487640
  0
VERTEX
  8
0
  6
CONTINUOUS
 10
3.255560
 20
1.859000
  0
VERTEX
  8
0
  6
CONTINUOUS
 10
3.356760
 20
1.932920
  0
SEQEND
  8
0
  0
SOLID
  8
0
 62
    15
 10
3.255560
 20
1.859000
 11
3.898840
 21
1.487640
 12
3.144680
 22
1.796960
 13
3.787960
 23
1.425600
  0
POLYLINE
  8
0
  6
CONTINUOUS
 66
     1
 40
0.000000
 41
0.000000
  0
VERTEX
  8
0
  6
CONTINUOUS
 10
3.255560
 20
1.859000
  0
VERTEX
  8
0
  6
CONTINUOUS
 10
3.898840
 20
1.487640
  0
VERTEX
  8
0
  6
CONTINUOUS
 10
3.787960
 20
1.425600
  0
VERTEX
  8
0
  6
CONTINUOUS
 10
3.144680
 20
1.796960
  0
VERTEX
  8
0
  6
CONTINUOUS
 10
3.255560
 20
1.859000
  0
SEQEND
  8
0
  0
SOLID
  8
0
 62
    15
 10
3.144680
 20
1.796960
 11
3.787960
 21
1.425600
 12
3.023680
 22
1.747240
 13
3.667400
 23
1.375880
  0
POLYLINE
  8
0
  6
CONTINUOUS
 66
     1
 40
0.000000
 41
0.000000
  0
VERTEX
  8
0
  6
CONTINUOUS
 10
3.144680
 20
1.796960
  0
VERTEX
  8
0
  6
CONTINUOUS
 10
3.787960
 20
1.425600
  0
VERTEX
  8
0
  6
CONTINUOUS
 10
3.667400
 20
1.375880
  0
VERTEX
  8
0
  6
CONTINUOUS
 10
3.023680
 20
1.747240
  0
VERTEX
  8
0
  6
CONTINUOUS
 10
3.144680
 20
1.796960
  0
SEQEND
  8
0
  0
SOLID
  8
0
 62
    15
 10
3.023680
 20
1.747240
 11
3.667400
 21
1.375880
 12
2.893880
 22
1.710280
 13
3.537160
 23
1.338920
  0
POLYLINE
  8
0
  6
CONTINUOUS
 66
     1
 40
0.000000
 41
0.000000
  0
VERTEX
  8
0
  6
CONTINUOUS
 10
3.023680
 20
1.747240
  0
VERTEX
  8
0
  6
CONTINUOUS
 10
3.667400
 20
1.375880
  0
VERTEX
  8
0
  6
CONTINUOUS
 10
3.537160
 20
1.338920
  0
VERTEX
  8
0
  6
CONTINUOUS
 10
2.893880
 20
1.710280
  0
VERTEX
  8
0
  6
CONTINUOUS
 10
3.023680
 20
1.747240
  0
SEQEND
  8
0
  0
SOLID
  8
0
 62
    15
 10
2.893880
 20
1.710280
 11
3.537160
 21
1.338920
 12
2.754400
 22
1.687400
 13
3.398120
 23
1.316040
  0
POLYLINE
  8
0
  6
CONTINUOUS
 66
     1
 40
0.000000
 41
0.000000
  0
VERTEX
  8
0
  6
CONTINUOUS
 10
2.893880
 20
1.710280
  0
VERTEX
  8
0
  6
CONTINUOUS
 10
3.537160
 20
1.338920
  0
VERTEX
  8
0
  6
CONTINUOUS
 10
3.398120
 20
1.316040
  0
VERTEX
  8
0
  6
CONTINUOUS
 10
2.754400
 20
1.687400
  0
VERTEX
  8
0
  6
CONTINUOUS
 10
2.893880
 20
1.710280
  0
SEQEND
  8
0
  0
SOLID
  8
0
 62
    15
 10
2.754400
 20
1.687400
 11
3.398120
 21
1.316040
 12
2.606120
 22
1.678600
 13
3.249840
 23
1.307240
  0
POLYLINE
  8
0
  6
CONTINUOUS
 66
     1
 40
0.000000
 41
0.000000
  0
VERTEX
  8
0
  6
CONTINUOUS
 10
2.754400
 20
1.687400
  0
VERTEX
  8
0
  6
CONTINUOUS
 10
3.398120
 20
1.316040
  0
VERTEX
  8
0
  6
CONTINUOUS
 10
3.249840
 20
1.307240
  0
VERTEX
  8
0
  6
CONTINUOUS
 10
2.606120
 20
1.678600
  0
VERTEX
  8
0
  6
CONTINUOUS
 10
2.754400
 20
1.687400
  0
SEQEND
  8
0
  0
SOLID
  8
0
 62
    15
 10
2.606120
 20
1.678600
 11
3.249840
 21
1.307240
 12
2.449040
 22
1.685200
 13
3.092320
 23
1.313840
  0
POLYLINE
  8
0
  6
CONTINUOUS
 66
     1
 40
0.000000
 41
0.000000
  0
VERTEX
  8
0
  6
CONTINUOUS
 10
2.606120
 20
1.678600
  0
VERTEX
  8
0
  6
CONTINUOUS
 10
3.249840
 20
1.307240
  0
VERTEX
  8
0
  6
CONTINUOUS
 10
3.092320
 20
1.313840
  0
VERTEX
  8
0
  6
CONTINUOUS
 10
2.449040
 20
1.685200
  0
VERTEX
  8
0
  6
CONTINUOUS
 10
2.606120
 20
1.678600
  0
SEQEND
  8
0
  0
SOLID
  8
0
 62
    15
 10
4.133800
 20
3.417920
 11
4.777080
 21
3.046560
 12
4.133800
 22
2.999040
 13
4.777080
 23
2.627680
  0
POLYLINE
  8
0
  6
CONTINUOUS
 66
     1
 40
0.000000
 41
0.000000
  0
VERTEX
  8
0
  6
CONTINUOUS
 10
4.133800
 20
3.417920
  0
VERTEX
  8
0
  6
CONTINUOUS
 10
4.777080
 20
3.046560
  0
VERTEX
  8
0
  6
CONTINUOUS
 10
4.777080
 20
2.627680
  0
VERTEX
  8
0
  6
CONTINUOUS
 10
4.133800
 20
2.999040
  0
VERTEX
  8
0
  6
CONTINUOUS
 10
4.133800
 20
3.417920
  0
SEQEND
  8
0
  0
SOLID
  8
0
 62
    15
 10
4.133800
 20
2.999040
 11
4.777080
 21
2.627680
 12
4.133360
 22
2.999040
 13
4.776640
 23
2.627680
  0
POLYLINE
  8
0
  6
CONTINUOUS
 66
     1
 40
0.000000
 41
0.000000
  0
VERTEX
  8
0
  6
CONTINUOUS
 10
4.133800
 20
2.999040
  0
VERTEX
  8
0
  6
CONTINUOUS
 10
4.777080
 20
2.627680
  0
VERTEX
  8
0
  6
CONTINUOUS
 10
4.776640
 20
2.627680
  0
VERTEX
  8
0
  6
CONTINUOUS
 10
4.133360
 20
2.999040
  0
VERTEX
  8
0
  6
CONTINUOUS
 10
4.133800
 20
2.999040
  0
SEQEND
  8
0
  0
POLYLINE
  8
0
  6
CONTINUOUS
 66
     1
 40
0.000000
 41
0.000000
  0
VERTEX
  8
0
  6
CONTINUOUS
 10
4.133360
 20
2.999040
  0
VERTEX
  8
0
  6
CONTINUOUS
 10
3.801600
 20
2.999040
  0
VERTEX
  8
0
  6
CONTINUOUS
 10
3.795880
 20
2.853400
  0
VERTEX
  8
0
  6
CONTINUOUS
 10
3.778720
 20
2.713040
  0
VERTEX
  8
0
  6
CONTINUOUS
 10
3.750560
 20
2.577960
  0
VERTEX
  8
0
  6
CONTINUOUS
 10
3.711400
 20
2.449920
  0
VERTEX
  8
0
  6
CONTINUOUS
 10
3.661240
 20
2.328920
  0
VERTEX
  8
0
  6
CONTINUOUS
 10
3.600960
 20
2.216280
  0
VERTEX
  8
0
  6
CONTINUOUS
 10
3.529680
 20
2.112000
  0
VERTEX
  8
0
  6
CONTINUOUS
 10
3.448280
 20
2.017400
  0
VERTEX
  8
0
  6
CONTINUOUS
 10
3.356760
 20
1.932920
  0
VERTEX
  8
0
  6
CONTINUOUS
 10
3.255560
 20
1.859000
  0
VERTEX
  8
0
  6
CONTINUOUS
 10
3.144680
 20
1.796960
  0
VERTEX
  8
0
  6
CONTINUOUS
 10
3.023680
 20
1.747240
  0
VERTEX
  8
0
  6
CONTINUOUS
 10
2.893880
 20
1.710280
  0
VERTEX
  8
0
  6
CONTINUOUS
 10
2.754400
 20
1.687400
  0
VERTEX
  8
0
  6
CONTINUOUS
 10
2.606120
 20
1.678600
  0
VERTEX
  8
0
  6
CONTINUOUS
 10
2.449040
 20
1.685200
  0
VERTEX
  8
0
  6
CONTINUOUS
 10
2.449040
 20
3.417920
  0
VERTEX
  8
0
  6
CONTINUOUS
 10
4.133800
 20
3.417920
  0
VERTEX
  8
0
  6
CONTINUOUS
 10
4.133800
 20
2.999040
  0
VERTEX
  8
0
  6
CONTINUOUS
 10
4.133360
 20
2.999040
  0
SEQEND
  8
0
  0
TEXT
  8
0
 10
4.557080
 20
1.515800
 40
0.138136
  1
BA  974
 41
1.000000
  7
SN0
 71
     0
 72
     5
 11
5.147339
 21
1.515800
  0
TEXT
  8
0
 10
4.327400
 20
1.324400
 40
0.138136
  1
1-3/4" x 1-3/4"
 41
1.000000
  7
SN0
 71
     0
 72
     5
 11
5.375722
 21
1.324400
  0
TEXT
  8
0
 10
6.154280
 20
2.916760
 40
0.138136
  1
BA  974
 41
1.000000
  7
SN0
 71
     0
 72
     5
 11
6.744539
 21
2.916760
  0
TEXT
  8
0
 10
5.924600
 20
2.724920
 40
0.138136
  1
1-3/4" x 1-3/4"
 41
1.000000
  7
SN0
 71
     0
 72
     5
 11
6.972922
 21
2.724920
  0
ENDSEC
  0
EOF
